  0
SECTION
  2
HEADER
  9
$ACADVER
  1
AC1015
  9
$ACADMAINTVER
 70
     6
  9
$DWGCODEPAGE
  3
ANSI_1250
  9
$INSBASE
 10
0.0
 20
0.0
 30
0.0
  9
$EXTMIN
 10
-82.6502
 20
-10.02
 30
0.0
  9
$EXTMAX
 10
82.5323
 20
10.0655
 30
0.0
  9
$LIMMIN
 10
0.0
 20
0.0
  9
$LIMMAX
 10
12.0
 20
9.0
  9
$ORTHOMODE
 70
     0
  9
$REGENMODE
 70
     1
  9
$FILLMODE
 70
     1
  9
$QTEXTMODE
 70
     0
  9
$MIRRTEXT
 70
     1
  9
$LTSCALE
 40
1.0
  9
$ATTMODE
 70
     1
  9
$TEXTSIZE
 40
0.2
  9
$TRACEWID
 40
0.05
  9
$TEXTSTYLE
  7
Standard
  9
$CLAYER
  8
0
  9
$CELTYPE
  6
ByLayer
  9
$CECOLOR
 62
   256
  9
$CELTSCALE
 40
1.0
  9
$DISPSILH
 70
     0
  9
$DIMSCALE
 40
1.0
  9
$DIMASZ
 40
0.18
  9
$DIMEXO
 40
0.0625
  9
$DIMDLI
 40
0.38
  9
$DIMRND
 40
0.0
  9
$DIMDLE
 40
0.0
  9
$DIMEXE
 40
0.18
  9
$DIMTP
 40
0.0
  9
$DIMTM
 40
0.0
  9
$DIMTXT
 40
0.18
  9
$DIMCEN
 40
0.09
  9
$DIMTSZ
 40
0.0
  9
$DIMTOL
 70
     0
  9
$DIMLIM
 70
     0
  9
$DIMTIH
 70
     1
  9
$DIMTOH
 70
     1
  9
$DIMSE1
 70
     0
  9
$DIMSE2
 70
     0
  9
$DIMTAD
 70
     0
  9
$DIMZIN
 70
     0
  9
$DIMBLK
  1

  9
$DIMASO
 70
     1
  9
$DIMSHO
 70
     1
  9
$DIMPOST
  1

  9
$DIMAPOST
  1

  9
$DIMALT
 70
     0
  9
$DIMALTD
 70
     2
  9
$DIMALTF
 40
25.4
  9
$DIMLFAC
 40
1.0
  9
$DIMTOFL
 70
     0
  9
$DIMTVP
 40
0.0
  9
$DIMTIX
 70
     0
  9
$DIMSOXD
 70
     0
  9
$DIMSAH
 70
     0
  9
$DIMBLK1
  1

  9
$DIMBLK2
  1

  9
$DIMSTYLE
  2
Standard
  9
$DIMCLRD
 70
     0
  9
$DIMCLRE
 70
     0
  9
$DIMCLRT
 70
     0
  9
$DIMTFAC
 40
1.0
  9
$DIMGAP
 40
0.09
  9
$DIMJUST
 70
     0
  9
$DIMSD1
 70
     0
  9
$DIMSD2
 70
     0
  9
$DIMTOLJ
 70
     1
  9
$DIMTZIN
 70
     0
  9
$DIMALTZ
 70
     0
  9
$DIMALTTZ
 70
     0
  9
$DIMUPT
 70
     0
  9
$DIMDEC
 70
     4
  9
$DIMTDEC
 70
     4
  9
$DIMALTU
 70
     2
  9
$DIMALTTD
 70
     2
  9
$DIMTXSTY
  7
Standard
  9
$DIMAUNIT
 70
     0
  9
$DIMADEC
 70
     0
  9
$DIMALTRND
 40
0.0
  9
$DIMAZIN
 70
     0
  9
$DIMDSEP
 70
    46
  9
$DIMATFIT
 70
     3
  9
$DIMFRAC
 70
     0
  9
$DIMLDRBLK
  1

  9
$DIMLUNIT
 70
     2
  9
$DIMLWD
 70
    -2
  9
$DIMLWE
 70
    -2
  9
$DIMTMOVE
 70
     0
  9
$LUNITS
 70
     2
  9
$LUPREC
 70
     4
  9
$SKETCHINC
 40
0.1
  9
$FILLETRAD
 40
0.5
  9
$AUNITS
 70
     0
  9
$AUPREC
 70
     0
  9
$MENU
  1
.
  9
$ELEVATION
 40
0.0
  9
$PELEVATION
 40
0.0
  9
$THICKNESS
 40
0.0
  9
$LIMCHECK
 70
     0
  9
$CHAMFERA
 40
0.5
  9
$CHAMFERB
 40
0.5
  9
$CHAMFERC
 40
1.0
  9
$CHAMFERD
 40
0.0
  9
$SKPOLY
 70
     0
  9
$TDCREATE
 40
2457687.365768982
  9
$TDUCREATE
 40
2457687.282435648
  9
$TDUPDATE
 40
2457687.365768993
  9
$TDUUPDATE
 40
2457687.28243566
  9
$TDINDWG
 40
0.0000000116
  9
$TDUSRTIMER
 40
0.0000000116
  9
$USRTIMER
 70
     1
  9
$ANGBASE
 50
0.0
  9
$ANGDIR
 70
     0
  9
$PDMODE
 70
     0
  9
$PDSIZE
 40
0.0
  9
$PLINEWID
 40
0.0
  9
$SPLFRAME
 70
     0
  9
$SPLINETYPE
 70
     6
  9
$SPLINESEGS
 70
     8
  9
$HANDSEED
  5
C7
  9
$SURFTAB1
 70
     6
  9
$SURFTAB2
 70
     6
  9
$SURFTYPE
 70
     6
  9
$SURFU
 70
     6
  9
$SURFV
 70
     6
  9
$UCSBASE
  2

  9
$UCSNAME
  2

  9
$UCSORG
 10
0.0
 20
0.0
 30
0.0
  9
$UCSXDIR
 10
1.0
 20
0.0
 30
0.0
  9
$UCSYDIR
 10
0.0
 20
1.0
 30
0.0
  9
$UCSORTHOREF
  2

  9
$UCSORTHOVIEW
 70
     0
  9
$UCSORGTOP
 10
0.0
 20
0.0
 30
0.0
  9
$UCSORGBOTTOM
 10
0.0
 20
0.0
 30
0.0
  9
$UCSORGLEFT
 10
0.0
 20
0.0
 30
0.0
  9
$UCSORGRIGHT
 10
0.0
 20
0.0
 30
0.0
  9
$UCSORGFRONT
 10
0.0
 20
0.0
 30
0.0
  9
$UCSORGBACK
 10
0.0
 20
0.0
 30
0.0
  9
$PUCSBASE
  2

  9
$PUCSNAME
  2

  9
$PUCSORG
 10
0.0
 20
0.0
 30
0.0
  9
$PUCSXDIR
 10
1.0
 20
0.0
 30
0.0
  9
$PUCSYDIR
 10
0.0
 20
1.0
 30
0.0
  9
$PUCSORTHOREF
  2

  9
$PUCSORTHOVIEW
 70
     0
  9
$PUCSORGTOP
 10
0.0
 20
0.0
 30
0.0
  9
$PUCSORGBOTTOM
 10
0.0
 20
0.0
 30
0.0
  9
$PUCSORGLEFT
 10
0.0
 20
0.0
 30
0.0
  9
$PUCSORGRIGHT
 10
0.0
 20
0.0
 30
0.0
  9
$PUCSORGFRONT
 10
0.0
 20
0.0
 30
0.0
  9
$PUCSORGBACK
 10
0.0
 20
0.0
 30
0.0
  9
$USERI1
 70
     0
  9
$USERI2
 70
     0
  9
$USERI3
 70
     0
  9
$USERI4
 70
     0
  9
$USERI5
 70
     0
  9
$USERR1
 40
0.0
  9
$USERR2
 40
0.0
  9
$USERR3
 40
0.0
  9
$USERR4
 40
0.0
  9
$USERR5
 40
0.0
  9
$WORLDVIEW
 70
     1
  9
$SHADEDGE
 70
     3
  9
$SHADEDIF
 70
    70
  9
$TILEMODE
 70
     1
  9
$MAXACTVP
 70
    64
  9
$PINSBASE
 10
0.0
 20
0.0
 30
0.0
  9
$PLIMCHECK
 70
     0
  9
$PEXTMIN
 10
1.000000000000000E+20
 20
1.000000000000000E+20
 30
1.000000000000000E+20
  9
$PEXTMAX
 10
-1.000000000000000E+20
 20
-1.000000000000000E+20
 30
-1.000000000000000E+20
  9
$PLIMMIN
 10
0.0
 20
0.0
  9
$PLIMMAX
 10
12.0
 20
9.0
  9
$UNITMODE
 70
     0
  9
$VISRETAIN
 70
     1
  9
$PLINEGEN
 70
     0
  9
$PSLTSCALE
 70
     1
  9
$TREEDEPTH
 70
  3020
  9
$CMLSTYLE
  2
Standard
  9
$CMLJUST
 70
     0
  9
$CMLSCALE
 40
1.0
  9
$PROXYGRAPHICS
 70
     1
  9
$MEASUREMENT
 70
     0
  9
$CELWEIGHT
370
    -1
  9
$ENDCAPS
280
     0
  9
$JOINSTYLE
280
     0
  9
$LWDISPLAY
290
     0
  9
$INSUNITS
 70
     4
  9
$HYPERLINKBASE
  1

  9
$STYLESHEET
  1

  9
$XEDIT
290
     1
  9
$CEPSNTYPE
380
     0
  9
$PSTYLEMODE
290
     1
  9
$FINGERPRINTGUID
  2
{64612956-3C3F-411E-A9C9-EE70E8A33135}
  9
$VERSIONGUID
  2
{FAEB1C32-E019-11D5-929B-00C0DF256EC4}
  9
$EXTNAMES
290
     1
  9
$PSVPSCALE
 40
0.0
  9
$OLESTARTUP
290
     0
  0
ENDSEC
  0
SECTION
  2
CLASSES
  0
CLASS
  1
ACDBDICTIONARYWDFLT
  2
AcDbDictionaryWithDefault
  3
ObjectDBX Classes
 90
        0
280
     0
281
     0
  0
CLASS
  1
VISUALSTYLE
  2
AcDbVisualStyle
  3
ObjectDBX Classes
 90
     4095
280
     0
281
     0
  0
CLASS
  1
MATERIAL
  2
AcDbMaterial
  3
ObjectDBX Classes
 90
     1153
280
     0
281
     0
  0
CLASS
  1
DICTIONARYVAR
  2
AcDbDictionaryVar
  3
ObjectDBX Classes
 90
        0
280
     0
281
     0
  0
CLASS
  1
ACDBPLACEHOLDER
  2
AcDbPlaceHolder
  3
ObjectDBX Classes
 90
        0
280
     0
281
     0
  0
CLASS
  1
LAYOUT
  2
AcDbLayout
  3
ObjectDBX Classes
 90
        0
280
     0
281
     0
  0
ENDSEC
  0
SECTION
  2
TABLES
  0
TABLE
  2
VPORT
  5
8
330
0
100
AcDbSymbolTable
 70
     1
  0
VPORT
  5
29
330
8
100
AcDbSymbolTableRecord
100
AcDbViewportTableRecord
  2
*Active
 70
     0
 10
0.0
 20
0.0
 11
1.0
 21
1.0
 12
10.42990654205607
 22
4.5
 13
0.0
 23
0.0
 14
0.5
 24
0.5
 15
0.5
 25
0.5
 16
0.0
 26
0.0
 36
1.0
 17
0.0
 27
0.0
 37
0.0
 40
9.0
 41
1.972972972850329
 42
50.0
 43
0.0
 44
0.0
 50
0.0
 51
0.0
 71
     0
 72
   100
 73
     1
 74
     3
 75
     0
 76
     0
 77
     0
 78
     0
281
     0
 65
     1
110
0.0
120
0.0
130
0.0
111
1.0
121
0.0
131
0.0
112
0.0
122
1.0
132
0.0
 79
     0
146
0.0
  0
ENDTAB
  0
TABLE
  2
LTYPE
  5
5
330
0
100
AcDbSymbolTable
 70
     1
  0
LTYPE
  5
14
330
5
100
AcDbSymbolTableRecord
100
AcDbLinetypeTableRecord
  2
ByBlock
 70
     0
  3

 72
    65
 73
     0
 40
0.0
  0
LTYPE
  5
15
330
5
100
AcDbSymbolTableRecord
100
AcDbLinetypeTableRecord
  2
ByLayer
 70
     0
  3

 72
    65
 73
     0
 40
0.0
  0
LTYPE
  5
16
330
5
100
AcDbSymbolTableRecord
100
AcDbLinetypeTableRecord
  2
Continuous
 70
     0
  3
Solid line
 72
    65
 73
     0
 40
0.0
  0
ENDTAB
  0
TABLE
  2
LAYER
  5
2
330
0
100
AcDbSymbolTable
 70
     2
  0
LAYER
  5
10
330
2
100
AcDbSymbolTableRecord
100
AcDbLayerTableRecord
  2
0
 70
     0
 62
     7
  6
Continuous
370
    -3
390
F
  0
LAYER
  5
40
330
2
100
AcDbSymbolTableRecord
100
AcDbLayerTableRecord
  2
Ilustrace
 70
     0
 62
     7
  6
Continuous
370
    -3
390
F
  0
ENDTAB
  0
TABLE
  2
STYLE
  5
3
330
0
100
AcDbSymbolTable
 70
     1
  0
STYLE
  5
11
330
3
100
AcDbSymbolTableRecord
100
AcDbTextStyleTableRecord
  2
Standard
 70
     0
 40
0.0
 41
1.0
 50
0.0
 71
     0
 42
0.2
  3
txt
  4

  0
ENDTAB
  0
TABLE
  2
VIEW
  5
6
330
0
100
AcDbSymbolTable
 70
     0
  0
ENDTAB
  0
TABLE
  2
UCS
  5
7
330
0
100
AcDbSymbolTable
 70
     0
  0
ENDTAB
  0
TABLE
  2
APPID
  5
9
330
0
100
AcDbSymbolTable
 70
     2
  0
APPID
  5
12
330
9
100
AcDbSymbolTableRecord
100
AcDbRegAppTableRecord
  2
ACAD
 70
     0
  0
APPID
  5
3F
330
9
100
AcDbSymbolTableRecord
100
AcDbRegAppTableRecord
  2
ODA
 70
     0
  0
ENDTAB
  0
TABLE
  2
DIMSTYLE
  5
A
330
0
100
AcDbSymbolTable
 70
     1
100
AcDbDimStyleTable
  0
DIMSTYLE
105
27
330
A
100
AcDbSymbolTableRecord
100
AcDbDimStyleTableRecord
  2
Standard
 70
     0
340
11
  0
ENDTAB
  0
TABLE
  2
BLOCK_RECORD
  5
1
330
0
100
AcDbSymbolTable
 70
     1
  0
BLOCK_RECORD
  5
1F
330
1
100
AcDbSymbolTableRecord
100
AcDbBlockTableRecord
  2
*Model_Space
340
22
  0
BLOCK_RECORD
  5
1B
330
1
100
AcDbSymbolTableRecord
100
AcDbBlockTableRecord
  2
*Paper_Space
340
1E
  0
BLOCK_RECORD
  5
23
330
1
100
AcDbSymbolTableRecord
100
AcDbBlockTableRecord
  2
*Paper_Space0
340
26
  0
ENDTAB
  0
ENDSEC
  0
SECTION
  2
BLOCKS
  0
BLOCK
  5
20
330
1F
100
AcDbEntity
  8
0
100
AcDbBlockBegin
  2
*Model_Space
 70
     0
 10
0.0
 20
0.0
 30
0.0
  3
*Model_Space
  1

  0
ENDBLK
  5
21
330
1F
100
AcDbEntity
  8
0
100
AcDbBlockEnd
  0
BLOCK
  5
1C
330
1B
100
AcDbEntity
 67
     1
  8
0
100
AcDbBlockBegin
  2
*Paper_Space
 70
     0
 10
0.0
 20
0.0
 30
0.0
  3
*Paper_Space
  1

  0
ENDBLK
  5
1D
330
1B
100
AcDbEntity
 67
     1
  8
0
100
AcDbBlockEnd
  0
BLOCK
  5
24
330
23
100
AcDbEntity
  8
0
100
AcDbBlockBegin
  2
*Paper_Space0
 70
     0
 10
0.0
 20
0.0
 30
0.0
  3
*Paper_Space0
  1

  0
ENDBLK
  5
25
330
23
100
AcDbEntity
  8
0
100
AcDbBlockEnd
  0
ENDSEC
  0
SECTION
  2
ENTITIES
  0
SPLINE
  5
41
330
1F
100
AcDbEntity
  8
Ilustrace
 62
   250
370
    15
100
AcDbSpline
210
0.0
220
0.0
230
1.0
 70
    24
 71
     3
 72
     8
 73
     4
 74
     0
 42
0.0000000001
 43
0.0000000001
 40
0.0
 40
0.0
 40
0.0
 40
0.0
 40
1.0
 40
1.0
 40
1.0
 40
1.0
 10
62.4726
 20
-9.9585
 30
0.0
 10
62.4726
 20
-9.9585
 30
0.0
 10
62.4726
 20
-2.4535
 30
0.0
 10
62.4726
 20
-2.4535
 30
0.0
  0
SPLINE
  5
42
330
1F
100
AcDbEntity
  8
Ilustrace
 62
   250
370
    15
100
AcDbSpline
210
0.0
220
0.0
230
1.0
 70
    24
 71
     3
 72
     8
 73
     4
 74
     0
 42
0.0000000001
 43
0.0000000001
 40
0.0
 40
0.0
 40
0.0
 40
0.0
 40
1.0
 40
1.0
 40
1.0
 40
1.0
 10
-82.1438
 20
-9.4925
 30
0.0
 10
-82.1438
 20
-9.4925
 30
0.0
 10
61.8163
 20
-9.4925
 30
0.0
 10
61.8163
 20
-9.4925
 30
0.0
  0
SPLINE
  5
43
330
1F
100
AcDbEntity
  8
Ilustrace
 62
   250
100
AcDbSpline
210
0.0
220
0.0
230
1.0
 70
    11
 71
     3
 72
    28
 73
    24
 74
     0
 42
0.0000000001
 43
0.0000000001
 40
0.0
 40
0.0
 40
0.0
 40
0.0
 40
0.1428571428571428
 40
0.1428571428571428
 40
0.1428571428571428
 40
0.1428571428571428
 40
0.2857142857142857
 40
0.2857142857142857
 40
0.2857142857142857
 40
0.2857142857142857
 40
0.4285714285714285
 40
0.4285714285714285
 40
0.4285714285714285
 40
0.4285714285714285
 40
0.5714285714285714
 40
0.5714285714285714
 40
0.5714285714285714
 40
0.5714285714285714
 40
0.7142857142857143
 40
0.7142857142857143
 40
0.7142857142857143
 40
0.7142857142857143
 40
1.0
 40
1.0
 40
1.0
 40
1.0
 10
-28.6054
 20
-7.938
 30
0.0
 10
-28.6054
 20
-7.938
 30
0.0
 10
-26.9756
 20
-7.938
 30
0.0
 10
-26.9756
 20
-7.938
 30
0.0
 10
-26.9756
 20
-7.938
 30
0.0
 10
-26.9756
 20
-7.938
 30
0.0
 10
-26.9756
 20
-7.4413
 30
0.0
 10
-26.9756
 20
-7.4413
 30
0.0
 10
-26.9756
 20
-7.4413
 30
0.0
 10
-26.9756
 20
-7.4413
 30
0.0
 10
-28.0156
 20
-7.4413
 30
0.0
 10
-28.0156
 20
-7.4413
 30
0.0
 10
-28.0156
 20
-7.4413
 30
0.0
 10
-28.0156
 20
-7.4413
 30
0.0
 10
-28.0156
 20
-5.3225
 30
0.0
 10
-28.0156
 20
-5.3225
 30
0.0
 10
-28.0156
 20
-5.3225
 30
0.0
 10
-28.0156
 20
-5.3225
 30
0.0
 10
-28.6054
 20
-5.3225
 30
0.0
 10
-28.6054
 20
-5.3225
 30
0.0
 10
-28.6054
 20
-5.3225
 30
0.0
 10
-28.6054
 20
-5.3225
 30
0.0
 10
-28.6054
 20
-7.938
 30
0.0
 10
-28.6054
 20
-7.938
 30
0.0
  0
SPLINE
  5
44
330
1F
100
AcDbEntity
  8
Ilustrace
 62
   250
100
AcDbSpline
210
0.0
220
0.0
230
1.0
 70
    11
 71
     3
 72
    20
 73
    16
 74
     0
 42
0.0000000001
 43
0.0000000001
 40
0.0
 40
0.0
 40
0.0
 40
0.0
 40
0.2
 40
0.2
 40
0.2
 40
0.2
 40
0.4
 40
0.4
 40
0.4
 40
0.4
 40
0.6
 40
0.6
 40
0.6
 40
0.6
 40
1.0
 40
1.0
 40
1.0
 40
1.0
 10
-26.0606
 20
-6.7234
 30
0.0
 10
-26.0606
 20
-6.7234
 30
0.0
 10
-26.0606
 20
-7.1153
 30
0.0
 10
-26.0606
 20
-7.1153
 30
0.0
 10
-26.0606
 20
-7.1153
 30
0.0
 10
-26.0606
 20
-7.1153
 30
0.0
 10
-25.0439
 20
-7.1153
 30
0.0
 10
-25.0439
 20
-7.1153
 30
0.0
 10
-25.0439
 20
-7.1153
 30
0.0
 10
-25.0439
 20
-7.1153
 30
0.0
 10
-25.0439
 20
-6.7234
 30
0.0
 10
-25.0439
 20
-6.7234
 30
0.0
 10
-25.0439
 20
-6.7234
 30
0.0
 10
-25.0439
 20
-6.7234
 30
0.0
 10
-26.0606
 20
-6.7234
 30
0.0
 10
-26.0606
 20
-6.7234
 30
0.0
  0
SPLINE
  5
45
330
1F
100
AcDbEntity
  8
Ilustrace
 62
   250
100
AcDbSpline
210
0.0
220
0.0
230
1.0
 70
    11
 71
     3
 72
   120
 73
   116
 74
     0
 42
0.0000000001
 43
0.0000000001
 40
0.0
 40
0.0
 40
0.0
 40
0.0
 40
0.0333333333333333
 40
0.0333333333333333
 40
0.0333333333333333
 40
0.0333333333333333
 40
0.0666666666666667
 40
0.0666666666666667
 40
0.0666666666666667
 40
0.0666666666666667
 40
0.1
 40
0.1
 40
0.1
 40
0.1
 40
0.1333333333333333
 40
0.1333333333333333
 40
0.1333333333333333
 40
0.1333333333333333
 40
0.1666666666666667
 40
0.1666666666666667
 40
0.1666666666666667
 40
0.1666666666666667
 40
0.2
 40
0.2
 40
0.2
 40
0.2
 40
0.2333333333333333
 40
0.2333333333333333
 40
0.2333333333333333
 40
0.2333333333333333
 40
0.2666666666666667
 40
0.2666666666666667
 40
0.2666666666666667
 40
0.2666666666666667
 40
0.3
 40
0.3
 40
0.3
 40
0.3
 40
0.3333333333333333
 40
0.3333333333333333
 40
0.3333333333333333
 40
0.3333333333333333
 40
0.3666666666666666
 40
0.3666666666666666
 40
0.3666666666666666
 40
0.3666666666666666
 40
0.4
 40
0.4
 40
0.4
 40
0.4
 40
0.4333333333333333
 40
0.4333333333333333
 40
0.4333333333333333
 40
0.4333333333333333
 40
0.4666666666666667
 40
0.4666666666666667
 40
0.4666666666666667
 40
0.4666666666666667
 40
0.5
 40
0.5
 40
0.5
 40
0.5
 40
0.5333333333333333
 40
0.5333333333333333
 40
0.5333333333333333
 40
0.5333333333333333
 40
0.5666666666666667
 40
0.5666666666666667
 40
0.5666666666666667
 40
0.5666666666666667
 40
0.6
 40
0.6
 40
0.6
 40
0.6
 40
0.6333333333333333
 40
0.6333333333333333
 40
0.6333333333333333
 40
0.6333333333333333
 40
0.6666666666666666
 40
0.6666666666666666
 40
0.6666666666666666
 40
0.6666666666666666
 40
0.7
 40
0.7
 40
0.7
 40
0.7
 40
0.7333333333333333
 40
0.7333333333333333
 40
0.7333333333333333
 40
0.7333333333333333
 40
0.7666666666666667
 40
0.7666666666666667
 40
0.7666666666666667
 40
0.7666666666666667
 40
0.8
 40
0.8
 40
0.8
 40
0.8
 40
0.8333333333333334
 40
0.8333333333333334
 40
0.8333333333333334
 40
0.8333333333333334
 40
0.8666666666666667
 40
0.8666666666666667
 40
0.8666666666666667
 40
0.8666666666666667
 40
0.9
 40
0.9
 40
0.9
 40
0.9
 40
0.9333333333333333
 40
0.9333333333333333
 40
0.9333333333333333
 40
0.9333333333333333
 40
1.0
 40
1.0
 40
1.0
 40
1.0
 10
-22.4486
 20
-5.3808
 30
0.0
 10
-22.4751
 20
-5.3782
 30
0.0
 10
-22.5081
 20
-5.3769
 30
0.0
 10
-22.5463
 20
-5.3769
 30
0.0
 10
-22.5463
 20
-5.3769
 30
0.0
 10
-22.5851
 20
-5.3762
 30
0.0
 10
-22.631
 20
-5.3788
 30
0.0
 10
-22.6853
 20
-5.3846
 30
0.0
 10
-22.6853
 20
-5.3846
 30
0.0
 10
-22.8819
 20
-5.3943
 30
0.0
 10
-23.0611
 20
-5.4293
 30
0.0
 10
-23.2241
 20
-5.4901
 30
0.0
 10
-23.2241
 20
-5.4901
 30
0.0
 10
-23.387
 20
-5.5515
 30
0.0
 10
-23.5306
 20
-5.6388
 30
0.0
 10
-23.6554
 20
-5.7533
 30
0.0
 10
-23.6554
 20
-5.7533
 30
0.0
 10
-23.7479
 20
-5.8386
 30
0.0
 10
-23.8275
 20
-5.9389
 30
0.0
 10
-23.8947
 20
-6.0534
 30
0.0
 10
-23.8947
 20
-6.0534
 30
0.0
 10
-23.962
 20
-6.1678
 30
0.0
 10
-24.0137
 20
-6.2946
 30
0.0
 10
-24.05
 20
-6.433
 30
0.0
 10
-24.05
 20
-6.433
 30
0.0
 10
-24.0868
 20
-6.5721
 30
0.0
 10
-24.1049
 20
-6.7202
 30
0.0
 10
-24.1056
 20
-6.8786
 30
0.0
 10
-24.1056
 20
-6.8786
 30
0.0
 10
-24.1056
 20
-7.03
 30
0.0
 10
-24.0849
 20
-7.1722
 30
0.0
 10
-24.0435
 20
-7.3048
 30
0.0
 10
-24.0435
 20
-7.3048
 30
0.0
 10
-24.0021
 20
-7.4374
 30
0.0
 10
-23.9394
 20
-7.5538
 30
0.0
 10
-23.8559
 20
-7.6554
 30
0.0
 10
-23.8559
 20
-7.6554
 30
0.0
 10
-23.7732
 20
-7.7563
 30
0.0
 10
-23.6684
 20
-7.8358
 30
0.0
 10
-23.5423
 20
-7.8927
 30
0.0
 10
-23.5423
 20
-7.8927
 30
0.0
 10
-23.4168
 20
-7.9503
 30
0.0
 10
-23.2693
 20
-7.9794
 30
0.0
 10
-23.1005
 20
-7.9807
 30
0.0
 10
-23.1005
 20
-7.9807
 30
0.0
 10
-22.9641
 20
-7.98
 30
0.0
 10
-22.8392
 20
-7.9555
 30
0.0
 10
-22.7261
 20
-7.9082
 30
0.0
 10
-22.7261
 20
-7.9082
 30
0.0
 10
-22.6135
 20
-7.861
 30
0.0
 10
-22.5159
 20
-7.7957
 30
0.0
 10
-22.4331
 20
-7.7123
 30
0.0
 10
-22.4331
 20
-7.7123
 30
0.0
 10
-22.3503
 20
-7.6289
 30
0.0
 10
-22.2869
 20
-7.5325
 30
0.0
 10
-22.2417
 20
-7.4225
 30
0.0
 10
-22.2417
 20
-7.4225
 30
0.0
 10
-22.1964
 20
-7.3126
 30
0.0
 10
-22.1737
 20
-7.1949
 30
0.0
 10
-22.1731
 20
-7.0688
 30
0.0
 10
-22.1731
 20
-7.0688
 30
0.0
 10
-22.1737
 20
-6.9375
 30
0.0
 10
-22.1944
 20
-6.8211
 30
0.0
 10
-22.2352
 20
-6.7189
 30
0.0
 10
-22.2352
 20
-6.7189
 30
0.0
 10
-22.2766
 20
-6.6173
 30
0.0
 10
-22.3328
 20
-6.5313
 30
0.0
 10
-22.4046
 20
-6.4608
 30
0.0
 10
-22.4046
 20
-6.4608
 30
0.0
 10
-22.4764
 20
-6.391
 30
0.0
 10
-22.5592
 20
-6.3373
 30
0.0
 10
-22.653
 20
-6.3011
 30
0.0
 10
-22.653
 20
-6.3011
 30
0.0
 10
-22.7461
 20
-6.2649
 30
0.0
 10
-22.8464
 20
-6.2461
 30
0.0
 10
-22.9531
 20
-6.2461
 30
0.0
 10
-22.9531
 20
-6.2461
 30
0.0
 10
-23.0695
 20
-6.2467
 30
0.0
 10
-23.1723
 20
-6.2642
 30
0.0
 10
-23.2616
 20
-6.2985
 30
0.0
 10
-23.2616
 20
-6.2985
 30
0.0
 10
-23.3508
 20
-6.3328
 30
0.0
 10
-23.4265
 20
-6.3813
 30
0.0
 10
-23.4886
 20
-6.444
 30
0.0
 10
-23.4886
 20
-6.444
 30
0.0
 10
-23.4886
 20
-6.444
 30
0.0
 10
-23.5002
 20
-6.444
 30
0.0
 10
-23.5002
 20
-6.444
 30
0.0
 10
-23.5002
 20
-6.444
 30
0.0
 10
-23.4841
 20
-6.3709
 30
0.0
 10
-23.4562
 20
-6.3004
 30
0.0
 10
-23.4174
 20
-6.2332
 30
0.0
 10
-23.4174
 20
-6.2332
 30
0.0
 10
-23.3786
 20
-6.1659
 30
0.0
 10
-23.3263
 20
-6.1051
 30
0.0
 10
-23.2603
 20
-6.0501
 30
0.0
 10
-23.2603
 20
-6.0501
 30
0.0
 10
-23.195
 20
-5.9952
 30
0.0
 10
-23.1141
 20
-5.9499
 30
0.0
 10
-23.0178
 20
-5.9137
 30
0.0
 10
-23.0178
 20
-5.9137
 30
0.0
 10
-22.9214
 20
-5.8775
 30
0.0
 10
-22.8082
 20
-5.8535
 30
0.0
 10
-22.6776
 20
-5.8425
 30
0.0
 10
-22.6776
 20
-5.8425
 30
0.0
 10
-22.6316
 20
-5.8386
 30
0.0
 10
-22.5896
 20
-5.8354
 30
0.0
 10
-22.5527
 20
-5.8341
 30
0.0
 10
-22.5527
 20
-5.8341
 30
0.0
 10
-22.5159
 20
-5.8328
 30
0.0
 10
-22.4809
 20
-5.8328
 30
0.0
 10
-22.4486
 20
-5.8348
 30
0.0
 10
-22.4486
 20
-5.8348
 30
0.0
 10
-22.4486
 20
-5.8348
 30
0.0
 10
-22.4486
 20
-5.3808
 30
0.0
 10
-22.4486
 20
-5.3808
 30
0.0
  0
SPLINE
  5
46
330
1F
100
AcDbEntity
  8
Ilustrace
 62
   250
100
AcDbSpline
210
0.0
220
0.0
230
1.0
 70
    11
 71
     3
 72
    64
 73
    60
 74
     0
 42
0.0000000001
 43
0.0000000001
 40
0.0
 40
0.0
 40
0.0
 40
0.0
 40
0.0625
 40
0.0625
 40
0.0625
 40
0.0625
 40
0.125
 40
0.125
 40
0.125
 40
0.125
 40
0.1875
 40
0.1875
 40
0.1875
 40
0.1875
 40
0.25
 40
0.25
 40
0.25
 40
0.25
 40
0.3125
 40
0.3125
 40
0.3125
 40
0.3125
 40
0.375
 40
0.375
 40
0.375
 40
0.375
 40
0.4375
 40
0.4375
 40
0.4375
 40
0.4375
 40
0.5
 40
0.5
 40
0.5
 40
0.5
 40
0.5625
 40
0.5625
 40
0.5625
 40
0.5625
 40
0.625
 40
0.625
 40
0.625
 40
0.625
 40
0.6875
 40
0.6875
 40
0.6875
 40
0.6875
 40
0.75
 40
0.75
 40
0.75
 40
0.75
 40
0.8125
 40
0.8125
 40
0.8125
 40
0.8125
 40
0.875
 40
0.875
 40
0.875
 40
0.875
 40
1.0
 40
1.0
 40
1.0
 40
1.0
 10
-23.1083
 20
-7.5461
 30
0.0
 10
-23.1762
 20
-7.5454
 30
0.0
 10
-23.2351
 20
-7.5318
 30
0.0
 10
-23.2855
 20
-7.504
 30
0.0
 10
-23.2855
 20
-7.504
 30
0.0
 10
-23.336
 20
-7.4769
 30
0.0
 10
-23.378
 20
-7.44
 30
0.0
 10
-23.4116
 20
-7.3921
 30
0.0
 10
-23.4116
 20
-7.3921
 30
0.0
 10
-23.4453
 20
-7.3449
 30
0.0
 10
-23.4711
 20
-7.2906
 30
0.0
 10
-23.4886
 20
-7.2298
 30
0.0
 10
-23.4886
 20
-7.2298
 30
0.0
 10
-23.5067
 20
-7.169
 30
0.0
 10
-23.517
 20
-7.105
 30
0.0
 10
-23.5196
 20
-7.0377
 30
0.0
 10
-23.5196
 20
-7.0377
 30
0.0
 10
-23.5196
 20
-7.0028
 30
0.0
 10
-23.5177
 20
-6.9737
 30
0.0
 10
-23.5132
 20
-6.9491
 30
0.0
 10
-23.5132
 20
-6.9491
 30
0.0
 10
-23.5093
 20
-6.9245
 30
0.0
 10
-23.5022
 20
-6.9038
 30
0.0
 10
-23.4925
 20
-6.8864
 30
0.0
 10
-23.4925
 20
-6.8864
 30
0.0
 10
-23.4744
 20
-6.8443
 30
0.0
 10
-23.4478
 20
-6.8068
 30
0.0
 10
-23.4142
 20
-6.7738
 30
0.0
 10
-23.4142
 20
-6.7738
 30
0.0
 10
-23.3806
 20
-6.7409
 30
0.0
 10
-23.3405
 20
-6.7143
 30
0.0
 10
-23.2952
 20
-6.6949
 30
0.0
 10
-23.2952
 20
-6.6949
 30
0.0
 10
-23.2499
 20
-6.6755
 30
0.0
 10
-23.2001
 20
-6.6658
 30
0.0
 10
-23.1471
 20
-6.6652
 30
0.0
 10
-23.1471
 20
-6.6652
 30
0.0
 10
-23.063
 20
-6.6665
 30
0.0
 10
-22.9932
 20
-6.6865
 30
0.0
 10
-22.9376
 20
-6.726
 30
0.0
 10
-22.9376
 20
-6.726
 30
0.0
 10
-22.8813
 20
-6.7654
 30
0.0
 10
-22.8399
 20
-6.8178
 30
0.0
 10
-22.8121
 20
-6.8838
 30
0.0
 10
-22.8121
 20
-6.8838
 30
0.0
 10
-22.7843
 20
-6.9491
 30
0.0
 10
-22.7707
 20
-7.0209
 30
0.0
 10
-22.7707
 20
-7.0998
 30
0.0
 10
-22.7707
 20
-7.0998
 30
0.0
 10
-22.7707
 20
-7.1858
 30
0.0
 10
-22.7849
 20
-7.2621
 30
0.0
 10
-22.8127
 20
-7.3294
 30
0.0
 10
-22.8127
 20
-7.3294
 30
0.0
 10
-22.8399
 20
-7.396
 30
0.0
 10
-22.8787
 20
-7.4491
 30
0.0
 10
-22.9291
 20
-7.4872
 30
0.0
 10
-22.9291
 20
-7.4872
 30
0.0
 10
-22.9796
 20
-7.526
 30
0.0
 10
-23.0391
 20
-7.5454
 30
0.0
 10
-23.1083
 20
-7.5461
 30
0.0
  0
SPLINE
  5
47
330
1F
100
AcDbEntity
  8
Ilustrace
 62
   250
100
AcDbSpline
210
0.0
220
0.0
230
1.0
 70
    11
 71
     3
 72
   184
 73
   180
 74
     0
 42
0.0000000001
 43
0.0000000001
 40
0.0
 40
0.0
 40
0.0
 40
0.0
 40
0.0217391304347826
 40
0.0217391304347826
 40
0.0217391304347826
 40
0.0217391304347826
 40
0.0434782608695652
 40
0.0434782608695652
 40
0.0434782608695652
 40
0.0434782608695652
 40
0.0652173913043478
 40
0.0652173913043478
 40
0.0652173913043478
 40
0.0652173913043478
 40
0.0869565217391304
 40
0.0869565217391304
 40
0.0869565217391304
 40
0.0869565217391304
 40
0.108695652173913
 40
0.108695652173913
 40
0.108695652173913
 40
0.108695652173913
 40
0.1304347826086956
 40
0.1304347826086956
 40
0.1304347826086956
 40
0.1304347826086956
 40
0.1521739130434783
 40
0.1521739130434783
 40
0.1521739130434783
 40
0.1521739130434783
 40
0.1739130434782609
 40
0.1739130434782609
 40
0.1739130434782609
 40
0.1739130434782609
 40
0.1956521739130435
 40
0.1956521739130435
 40
0.1956521739130435
 40
0.1956521739130435
 40
0.2173913043478261
 40
0.2173913043478261
 40
0.2173913043478261
 40
0.2173913043478261
 40
0.2391304347826087
 40
0.2391304347826087
 40
0.2391304347826087
 40
0.2391304347826087
 40
0.2608695652173913
 40
0.2608695652173913
 40
0.2608695652173913
 40
0.2608695652173913
 40
0.2826086956521739
 40
0.2826086956521739
 40
0.2826086956521739
 40
0.2826086956521739
 40
0.3043478260869565
 40
0.3043478260869565
 40
0.3043478260869565
 40
0.3043478260869565
 40
0.3260869565217391
 40
0.3260869565217391
 40
0.3260869565217391
 40
0.3260869565217391
 40
0.3478260869565217
 40
0.3478260869565217
 40
0.3478260869565217
 40
0.3478260869565217
 40
0.3695652173913043
 40
0.3695652173913043
 40
0.3695652173913043
 40
0.3695652173913043
 40
0.391304347826087
 40
0.391304347826087
 40
0.391304347826087
 40
0.391304347826087
 40
0.4130434782608696
 40
0.4130434782608696
 40
0.4130434782608696
 40
0.4130434782608696
 40
0.4347826086956522
 40
0.4347826086956522
 40
0.4347826086956522
 40
0.4347826086956522
 40
0.4565217391304348
 40
0.4565217391304348
 40
0.4565217391304348
 40
0.4565217391304348
 40
0.4782608695652174
 40
0.4782608695652174
 40
0.4782608695652174
 40
0.4782608695652174
 40
0.5
 40
0.5
 40
0.5
 40
0.5
 40
0.5217391304347826
 40
0.5217391304347826
 40
0.5217391304347826
 40
0.5217391304347826
 40
0.5434782608695652
 40
0.5434782608695652
 40
0.5434782608695652
 40
0.5434782608695652
 40
0.5652173913043478
 40
0.5652173913043478
 40
0.5652173913043478
 40
0.5652173913043478
 40
0.5869565217391305
 40
0.5869565217391305
 40
0.5869565217391305
 40
0.5869565217391305
 40
0.6086956521739131
 40
0.6086956521739131
 40
0.6086956521739131
 40
0.6086956521739131
 40
0.6304347826086957
 40
0.6304347826086957
 40
0.6304347826086957
 40
0.6304347826086957
 40
0.6521739130434783
 40
0.6521739130434783
 40
0.6521739130434783
 40
0.6521739130434783
 40
0.6739130434782609
 40
0.6739130434782609
 40
0.6739130434782609
 40
0.6739130434782609
 40
0.6956521739130435
 40
0.6956521739130435
 40
0.6956521739130435
 40
0.6956521739130435
 40
0.717391304347826
 40
0.717391304347826
 40
0.717391304347826
 40
0.717391304347826
 40
0.7391304347826086
 40
0.7391304347826086
 40
0.7391304347826086
 40
0.7391304347826086
 40
0.7608695652173914
 40
0.7608695652173914
 40
0.7608695652173914
 40
0.7608695652173914
 40
0.782608695652174
 40
0.782608695652174
 40
0.782608695652174
 40
0.782608695652174
 40
0.8043478260869565
 40
0.8043478260869565
 40
0.8043478260869565
 40
0.8043478260869565
 40
0.8260869565217391
 40
0.8260869565217391
 40
0.8260869565217391
 40
0.8260869565217391
 40
0.8478260869565217
 40
0.8478260869565217
 40
0.8478260869565217
 40
0.8478260869565217
 40
0.8695652173913043
 40
0.8695652173913043
 40
0.8695652173913043
 40
0.8695652173913043
 40
0.8913043478260869
 40
0.8913043478260869
 40
0.8913043478260869
 40
0.8913043478260869
 40
0.9130434782608695
 40
0.9130434782608695
 40
0.9130434782608695
 40
0.9130434782608695
 40
0.9347826086956522
 40
0.9347826086956522
 40
0.9347826086956522
 40
0.9347826086956522
 40
0.9565217391304348
 40
0.9565217391304348
 40
0.9565217391304348
 40
0.9565217391304348
 40
1.0
 40
1.0
 40
1.0
 40
1.0
 10
-21.8708
 20
-7.938
 30
0.0
 10
-21.8708
 20
-7.938
 30
0.0
 10
-21.2965
 20
-7.938
 30
0.0
 10
-21.2965
 20
-7.938
 30
0.0
 10
-21.2965
 20
-7.938
 30
0.0
 10
-21.2965
 20
-7.938
 30
0.0
 10
-21.2965
 20
-6.8321
 30
0.0
 10
-21.2965
 20
-6.8321
 30
0.0
 10
-21.2965
 20
-6.8321
 30
0.0
 10
-21.2965
 20
-6.8068
 30
0.0
 10
-21.2952
 20
-6.781
 30
0.0
 10
-21.2919
 20
-6.7551
 30
0.0
 10
-21.2919
 20
-6.7551
 30
0.0
 10
-21.2887
 20
-6.7292
 30
0.0
 10
-21.2829
 20
-6.704
 30
0.0
 10
-21.2732
 20
-6.6807
 30
0.0
 10
-21.2732
 20
-6.6807
 30
0.0
 10
-21.2616
 20
-6.649
 30
0.0
 10
-21.2441
 20
-6.6167
 30
0.0
 10
-21.2202
 20
-6.585
 30
0.0
 10
-21.2202
 20
-6.585
 30
0.0
 10
-21.1962
 20
-6.5533
 30
0.0
 10
-21.1652
 20
-6.5261
 30
0.0
 10
-21.1283
 20
-6.5048
 30
0.0
 10
-21.1283
 20
-6.5048
 30
0.0
 10
-21.0915
 20
-6.4835
 30
0.0
 10
-21.0481
 20
-6.4718
 30
0.0
 10
-20.9977
 20
-6.4712
 30
0.0
 10
-20.9977
 20
-6.4712
 30
0.0
 10
-20.9343
 20
-6.4718
 30
0.0
 10
-20.8826
 20
-6.4886
 30
0.0
 10
-20.8418
 20
-6.5223
 30
0.0
 10
-20.8418
 20
-6.5223
 30
0.0
 10
-20.8011
 20
-6.5559
 30
0.0
 10
-20.7707
 20
-6.6025
 30
0.0
 10
-20.7513
 20
-6.662
 30
0.0
 10
-20.7513
 20
-6.662
 30
0.0
 10
-20.7319
 20
-6.7215
 30
0.0
 10
-20.7222
 20
-6.7913
 30
0.0
 10
-20.7222
 20
-6.8709
 30
0.0
 10
-20.7222
 20
-6.8709
 30
0.0
 10
-20.7222
 20
-6.8709
 30
0.0
 10
-20.7222
 20
-7.938
 30
0.0
 10
-20.7222
 20
-7.938
 30
0.0
 10
-20.7222
 20
-7.938
 30
0.0
 10
-20.7222
 20
-7.938
 30
0.0
 10
-20.1478
 20
-7.938
 30
0.0
 10
-20.1478
 20
-7.938
 30
0.0
 10
-20.1478
 20
-7.938
 30
0.0
 10
-20.1478
 20
-7.938
 30
0.0
 10
-20.1478
 20
-6.8282
 30
0.0
 10
-20.1478
 20
-6.8282
 30
0.0
 10
-20.1478
 20
-6.8282
 30
0.0
 10
-20.1478
 20
-6.8023
 30
0.0
 10
-20.1459
 20
-6.7764
 30
0.0
 10
-20.1427
 20
-6.7493
 30
0.0
 10
-20.1427
 20
-6.7493
 30
0.0
 10
-20.1388
 20
-6.7228
 30
0.0
 10
-20.1343
 20
-6.6988
 30
0.0
 10
-20.1284
 20
-6.6768
 30
0.0
 10
-20.1284
 20
-6.6768
 30
0.0
 10
-20.1142
 20
-6.6387
 30
0.0
 10
-20.0942
 20
-6.6044
 30
0.0
 10
-20.0689
 20
-6.5734
 30
0.0
 10
-20.0689
 20
-6.5734
 30
0.0
 10
-20.0437
 20
-6.5423
 30
0.0
 10
-20.0133
 20
-6.5177
 30
0.0
 10
-19.9771
 20
-6.4996
 30
0.0
 10
-19.9771
 20
-6.4996
 30
0.0
 10
-19.9409
 20
-6.4809
 30
0.0
 10
-19.8995
 20
-6.4718
 30
0.0
 10
-19.8529
 20
-6.4712
 30
0.0
 10
-19.8529
 20
-6.4712
 30
0.0
 10
-19.7579
 20
-6.4718
 30
0.0
 10
-19.6874
 20
-6.51
 30
0.0
 10
-19.6421
 20
-6.585
 30
0.0
 10
-19.6421
 20
-6.585
 30
0.0
 10
-19.5962
 20
-6.66
 30
0.0
 10
-19.5729
 20
-6.7674
 30
0.0
 10
-19.5735
 20
-6.9058
 30
0.0
 10
-19.5735
 20
-6.9058
 30
0.0
 10
-19.5735
 20
-6.9058
 30
0.0
 10
-19.5735
 20
-7.938
 30
0.0
 10
-19.5735
 20
-7.938
 30
0.0
 10
-19.5735
 20
-7.938
 30
0.0
 10
-19.5735
 20
-7.938
 30
0.0
 10
-18.9992
 20
-7.938
 30
0.0
 10
-18.9992
 20
-7.938
 30
0.0
 10
-18.9992
 20
-7.938
 30
0.0
 10
-18.9992
 20
-7.938
 30
0.0
 10
-18.9992
 20
-6.8204
 30
0.0
 10
-18.9992
 20
-6.8204
 30
0.0
 10
-18.9992
 20
-6.8204
 30
0.0
 10
-18.9999
 20
-6.6781
 30
0.0
 10
-19.016
 20
-6.5546
 30
0.0
 10
-19.0477
 20
-6.4505
 30
0.0
 10
-19.0477
 20
-6.4505
 30
0.0
 10
-19.0801
 20
-6.3463
 30
0.0
 10
-19.1247
 20
-6.261
 30
0.0
 10
-19.1822
 20
-6.1931
 30
0.0
 10
-19.1822
 20
-6.1931
 30
0.0
 10
-19.2405
 20
-6.1258
 30
0.0
 10
-19.3077
 20
-6.0754
 30
0.0
 10
-19.3853
 20
-6.043
 30
0.0
 10
-19.3853
 20
-6.043
 30
0.0
 10
-19.4629
 20
-6.01
 30
0.0
 10
-19.5477
 20
-5.9939
 30
0.0
 10
-19.6395
 20
-5.9939
 30
0.0
 10
-19.6395
 20
-5.9939
 30
0.0
 10
-19.7087
 20
-5.9939
 30
0.0
 10
-19.7734
 20
-6.0023
 30
0.0
 10
-19.8329
 20
-6.0184
 30
0.0
 10
-19.8329
 20
-6.0184
 30
0.0
 10
-19.8924
 20
-6.0346
 30
0.0
 10
-19.948
 20
-6.0579
 30
0.0
 10
-20.0004
 20
-6.087
 30
0.0
 10
-20.0004
 20
-6.087
 30
0.0
 10
-20.047
 20
-6.1142
 30
0.0
 10
-20.0909
 20
-6.1471
 30
0.0
 10
-20.1317
 20
-6.186
 30
0.0
 10
-20.1317
 20
-6.186
 30
0.0
 10
-20.1731
 20
-6.2248
 30
0.0
 10
-20.2119
 20
-6.2694
 30
0.0
 10
-20.2487
 20
-6.3198
 30
0.0
 10
-20.2487
 20
-6.3198
 30
0.0
 10
-20.2487
 20
-6.3198
 30
0.0
 10
-20.2565
 20
-6.3198
 30
0.0
 10
-20.2565
 20
-6.3198
 30
0.0
 10
-20.2565
 20
-6.3198
 30
0.0
 10
-20.2837
 20
-6.2532
 30
0.0
 10
-20.3225
 20
-6.1957
 30
0.0
 10
-20.3723
 20
-6.1471
 30
0.0
 10
-20.3723
 20
-6.1471
 30
0.0
 10
-20.4221
 20
-6.0986
 30
0.0
 10
-20.4809
 20
-6.0611
 30
0.0
 10
-20.5495
 20
-6.0346
 30
0.0
 10
-20.5495
 20
-6.0346
 30
0.0
 10
-20.6174
 20
-6.0075
 30
0.0
 10
-20.6931
 20
-5.9945
 30
0.0
 10
-20.7765
 20
-5.9939
 30
0.0
 10
-20.7765
 20
-5.9939
 30
0.0
 10
-20.8567
 20
-5.9945
 30
0.0
 10
-20.9285
 20
-6.0042
 30
0.0
 10
-20.9906
 20
-6.0236
 30
0.0
 10
-20.9906
 20
-6.0236
 30
0.0
 10
-21.0533
 20
-6.043
 30
0.0
 10
-21.1076
 20
-6.0682
 30
0.0
 10
-21.1535
 20
-6.0986
 30
0.0
 10
-21.1535
 20
-6.0986
 30
0.0
 10
-21.2001
 20
-6.129
 30
0.0
 10
-21.2396
 20
-6.162
 30
0.0
 10
-21.2719
 20
-6.1969
 30
0.0
 10
-21.2719
 20
-6.1969
 30
0.0
 10
-21.3042
 20
-6.2319
 30
0.0
 10
-21.3308
 20
-6.2649
 30
0.0
 10
-21.3508
 20
-6.2965
 30
0.0
 10
-21.3508
 20
-6.2965
 30
0.0
 10
-21.3508
 20
-6.2965
 30
0.0
 10
-21.3624
 20
-6.2965
 30
0.0
 10
-21.3624
 20
-6.2965
 30
0.0
 10
-21.3624
 20
-6.2965
 30
0.0
 10
-21.3624
 20
-6.2965
 30
0.0
 10
-21.3857
 20
-6.0404
 30
0.0
 10
-21.3857
 20
-6.0404
 30
0.0
 10
-21.3857
 20
-6.0404
 30
0.0
 10
-21.3857
 20
-6.0404
 30
0.0
 10
-21.8863
 20
-6.0404
 30
0.0
 10
-21.8863
 20
-6.0404
 30
0.0
 10
-21.8863
 20
-6.0404
 30
0.0
 10
-21.8824
 20
-6.1258
 30
0.0
 10
-21.8786
 20
-6.2183
 30
0.0
 10
-21.8753
 20
-6.3185
 30
0.0
 10
-21.8753
 20
-6.3185
 30
0.0
 10
-21.8727
 20
-6.4188
 30
0.0
 10
-21.8708
 20
-6.5274
 30
0.0
 10
-21.8708
 20
-6.6458
 30
0.0
 10
-21.8708
 20
-6.6458
 30
0.0
 10
-21.8708
 20
-6.6458
 30
0.0
 10
-21.8708
 20
-7.938
 30
0.0
 10
-21.8708
 20
-7.938
 30
0.0
  0
SPLINE
  5
48
330
1F
100
AcDbEntity
  8
Ilustrace
 62
   250
100
AcDbSpline
210
0.0
220
0.0
230
1.0
 70
    11
 71
     3
 72
   184
 73
   180
 74
     0
 42
0.0000000001
 43
0.0000000001
 40
0.0
 40
0.0
 40
0.0
 40
0.0
 40
0.0217391304347826
 40
0.0217391304347826
 40
0.0217391304347826
 40
0.0217391304347826
 40
0.0434782608695652
 40
0.0434782608695652
 40
0.0434782608695652
 40
0.0434782608695652
 40
0.0652173913043478
 40
0.0652173913043478
 40
0.0652173913043478
 40
0.0652173913043478
 40
0.0869565217391304
 40
0.0869565217391304
 40
0.0869565217391304
 40
0.0869565217391304
 40
0.108695652173913
 40
0.108695652173913
 40
0.108695652173913
 40
0.108695652173913
 40
0.1304347826086956
 40
0.1304347826086956
 40
0.1304347826086956
 40
0.1304347826086956
 40
0.1521739130434783
 40
0.1521739130434783
 40
0.1521739130434783
 40
0.1521739130434783
 40
0.1739130434782609
 40
0.1739130434782609
 40
0.1739130434782609
 40
0.1739130434782609
 40
0.1956521739130435
 40
0.1956521739130435
 40
0.1956521739130435
 40
0.1956521739130435
 40
0.2173913043478261
 40
0.2173913043478261
 40
0.2173913043478261
 40
0.2173913043478261
 40
0.2391304347826087
 40
0.2391304347826087
 40
0.2391304347826087
 40
0.2391304347826087
 40
0.2608695652173913
 40
0.2608695652173913
 40
0.2608695652173913
 40
0.2608695652173913
 40
0.2826086956521739
 40
0.2826086956521739
 40
0.2826086956521739
 40
0.2826086956521739
 40
0.3043478260869565
 40
0.3043478260869565
 40
0.3043478260869565
 40
0.3043478260869565
 40
0.3260869565217391
 40
0.3260869565217391
 40
0.3260869565217391
 40
0.3260869565217391
 40
0.3478260869565217
 40
0.3478260869565217
 40
0.3478260869565217
 40
0.3478260869565217
 40
0.3695652173913043
 40
0.3695652173913043
 40
0.3695652173913043
 40
0.3695652173913043
 40
0.391304347826087
 40
0.391304347826087
 40
0.391304347826087
 40
0.391304347826087
 40
0.4130434782608696
 40
0.4130434782608696
 40
0.4130434782608696
 40
0.4130434782608696
 40
0.4347826086956522
 40
0.4347826086956522
 40
0.4347826086956522
 40
0.4347826086956522
 40
0.4565217391304348
 40
0.4565217391304348
 40
0.4565217391304348
 40
0.4565217391304348
 40
0.4782608695652174
 40
0.4782608695652174
 40
0.4782608695652174
 40
0.4782608695652174
 40
0.5
 40
0.5
 40
0.5
 40
0.5
 40
0.5217391304347826
 40
0.5217391304347826
 40
0.5217391304347826
 40
0.5217391304347826
 40
0.5434782608695652
 40
0.5434782608695652
 40
0.5434782608695652
 40
0.5434782608695652
 40
0.5652173913043478
 40
0.5652173913043478
 40
0.5652173913043478
 40
0.5652173913043478
 40
0.5869565217391305
 40
0.5869565217391305
 40
0.5869565217391305
 40
0.5869565217391305
 40
0.6086956521739131
 40
0.6086956521739131
 40
0.6086956521739131
 40
0.6086956521739131
 40
0.6304347826086957
 40
0.6304347826086957
 40
0.6304347826086957
 40
0.6304347826086957
 40
0.6521739130434783
 40
0.6521739130434783
 40
0.6521739130434783
 40
0.6521739130434783
 40
0.6739130434782609
 40
0.6739130434782609
 40
0.6739130434782609
 40
0.6739130434782609
 40
0.6956521739130435
 40
0.6956521739130435
 40
0.6956521739130435
 40
0.6956521739130435
 40
0.717391304347826
 40
0.717391304347826
 40
0.717391304347826
 40
0.717391304347826
 40
0.7391304347826086
 40
0.7391304347826086
 40
0.7391304347826086
 40
0.7391304347826086
 40
0.7608695652173914
 40
0.7608695652173914
 40
0.7608695652173914
 40
0.7608695652173914
 40
0.782608695652174
 40
0.782608695652174
 40
0.782608695652174
 40
0.782608695652174
 40
0.8043478260869565
 40
0.8043478260869565
 40
0.8043478260869565
 40
0.8043478260869565
 40
0.8260869565217391
 40
0.8260869565217391
 40
0.8260869565217391
 40
0.8260869565217391
 40
0.8478260869565217
 40
0.8478260869565217
 40
0.8478260869565217
 40
0.8478260869565217
 40
0.8695652173913043
 40
0.8695652173913043
 40
0.8695652173913043
 40
0.8695652173913043
 40
0.8913043478260869
 40
0.8913043478260869
 40
0.8913043478260869
 40
0.8913043478260869
 40
0.9130434782608695
 40
0.9130434782608695
 40
0.9130434782608695
 40
0.9130434782608695
 40
0.9347826086956522
 40
0.9347826086956522
 40
0.9347826086956522
 40
0.9347826086956522
 40
0.9565217391304348
 40
0.9565217391304348
 40
0.9565217391304348
 40
0.9565217391304348
 40
1.0
 40
1.0
 40
1.0
 40
1.0
 10
-18.5728
 20
-7.938
 30
0.0
 10
-18.5728
 20
-7.938
 30
0.0
 10
-17.9985
 20
-7.938
 30
0.0
 10
-17.9985
 20
-7.938
 30
0.0
 10
-17.9985
 20
-7.938
 30
0.0
 10
-17.9985
 20
-7.938
 30
0.0
 10
-17.9985
 20
-6.8321
 30
0.0
 10
-17.9985
 20
-6.8321
 30
0.0
 10
-17.9985
 20
-6.8321
 30
0.0
 10
-17.9985
 20
-6.8068
 30
0.0
 10
-17.9972
 20
-6.781
 30
0.0
 10
-17.9939
 20
-6.7551
 30
0.0
 10
-17.9939
 20
-6.7551
 30
0.0
 10
-17.9907
 20
-6.7292
 30
0.0
 10
-17.9849
 20
-6.704
 30
0.0
 10
-17.9752
 20
-6.6807
 30
0.0
 10
-17.9752
 20
-6.6807
 30
0.0
 10
-17.9636
 20
-6.649
 30
0.0
 10
-17.9461
 20
-6.6167
 30
0.0
 10
-17.9222
 20
-6.585
 30
0.0
 10
-17.9222
 20
-6.585
 30
0.0
 10
-17.8982
 20
-6.5533
 30
0.0
 10
-17.8672
 20
-6.5261
 30
0.0
 10
-17.8303
 20
-6.5048
 30
0.0
 10
-17.8303
 20
-6.5048
 30
0.0
 10
-17.7935
 20
-6.4835
 30
0.0
 10
-17.7501
 20
-6.4718
 30
0.0
 10
-17.6997
 20
-6.4712
 30
0.0
 10
-17.6997
 20
-6.4712
 30
0.0
 10
-17.6363
 20
-6.4718
 30
0.0
 10
-17.5846
 20
-6.4886
 30
0.0
 10
-17.5438
 20
-6.5223
 30
0.0
 10
-17.5438
 20
-6.5223
 30
0.0
 10
-17.5031
 20
-6.5559
 30
0.0
 10
-17.4727
 20
-6.6025
 30
0.0
 10
-17.4533
 20
-6.662
 30
0.0
 10
-17.4533
 20
-6.662
 30
0.0
 10
-17.4339
 20
-6.7215
 30
0.0
 10
-17.4242
 20
-6.7913
 30
0.0
 10
-17.4242
 20
-6.8709
 30
0.0
 10
-17.4242
 20
-6.8709
 30
0.0
 10
-17.4242
 20
-6.8709
 30
0.0
 10
-17.4242
 20
-7.938
 30
0.0
 10
-17.4242
 20
-7.938
 30
0.0
 10
-17.4242
 20
-7.938
 30
0.0
 10
-17.4242
 20
-7.938
 30
0.0
 10
-16.8498
 20
-7.938
 30
0.0
 10
-16.8498
 20
-7.938
 30
0.0
 10
-16.8498
 20
-7.938
 30
0.0
 10
-16.8498
 20
-7.938
 30
0.0
 10
-16.8498
 20
-6.8282
 30
0.0
 10
-16.8498
 20
-6.8282
 30
0.0
 10
-16.8498
 20
-6.8282
 30
0.0
 10
-16.8498
 20
-6.8023
 30
0.0
 10
-16.8479
 20
-6.7764
 30
0.0
 10
-16.8447
 20
-6.7493
 30
0.0
 10
-16.8447
 20
-6.7493
 30
0.0
 10
-16.8408
 20
-6.7228
 30
0.0
 10
-16.8363
 20
-6.6988
 30
0.0
 10
-16.8304
 20
-6.6768
 30
0.0
 10
-16.8304
 20
-6.6768
 30
0.0
 10
-16.8162
 20
-6.6387
 30
0.0
 10
-16.7962
 20
-6.6044
 30
0.0
 10
-16.7709
 20
-6.5734
 30
0.0
 10
-16.7709
 20
-6.5734
 30
0.0
 10
-16.7457
 20
-6.5423
 30
0.0
 10
-16.7153
 20
-6.5177
 30
0.0
 10
-16.6791
 20
-6.4996
 30
0.0
 10
-16.6791
 20
-6.4996
 30
0.0
 10
-16.6429
 20
-6.4809
 30
0.0
 10
-16.6015
 20
-6.4718
 30
0.0
 10
-16.5549
 20
-6.4712
 30
0.0
 10
-16.5549
 20
-6.4712
 30
0.0
 10
-16.4599
 20
-6.4718
 30
0.0
 10
-16.3894
 20
-6.51
 30
0.0
 10
-16.3441
 20
-6.585
 30
0.0
 10
-16.3441
 20
-6.585
 30
0.0
 10
-16.2982
 20
-6.66
 30
0.0
 10
-16.2749
 20
-6.7674
 30
0.0
 10
-16.2755
 20
-6.9058
 30
0.0
 10
-16.2755
 20
-6.9058
 30
0.0
 10
-16.2755
 20
-6.9058
 30
0.0
 10
-16.2755
 20
-7.938
 30
0.0
 10
-16.2755
 20
-7.938
 30
0.0
 10
-16.2755
 20
-7.938
 30
0.0
 10
-16.2755
 20
-7.938
 30
0.0
 10
-15.7012
 20
-7.938
 30
0.0
 10
-15.7012
 20
-7.938
 30
0.0
 10
-15.7012
 20
-7.938
 30
0.0
 10
-15.7012
 20
-7.938
 30
0.0
 10
-15.7012
 20
-6.8204
 30
0.0
 10
-15.7012
 20
-6.8204
 30
0.0
 10
-15.7012
 20
-6.8204
 30
0.0
 10
-15.7019
 20
-6.6781
 30
0.0
 10
-15.718
 20
-6.5546
 30
0.0
 10
-15.7497
 20
-6.4505
 30
0.0
 10
-15.7497
 20
-6.4505
 30
0.0
 10
-15.7821
 20
-6.3463
 30
0.0
 10
-15.8267
 20
-6.261
 30
0.0
 10
-15.8842
 20
-6.1931
 30
0.0
 10
-15.8842
 20
-6.1931
 30
0.0
 10
-15.9425
 20
-6.1258
 30
0.0
 10
-16.0097
 20
-6.0754
 30
0.0
 10
-16.0873
 20
-6.043
 30
0.0
 10
-16.0873
 20
-6.043
 30
0.0
 10
-16.1649
 20
-6.01
 30
0.0
 10
-16.2497
 20
-5.9939
 30
0.0
 10
-16.3415
 20
-5.9939
 30
0.0
 10
-16.3415
 20
-5.9939
 30
0.0
 10
-16.4107
 20
-5.9939
 30
0.0
 10
-16.4754
 20
-6.0023
 30
0.0
 10
-16.5349
 20
-6.0184
 30
0.0
 10
-16.5349
 20
-6.0184
 30
0.0
 10
-16.5944
 20
-6.0346
 30
0.0
 10
-16.65
 20
-6.0579
 30
0.0
 10
-16.7024
 20
-6.087
 30
0.0
 10
-16.7024
 20
-6.087
 30
0.0
 10
-16.749
 20
-6.1142
 30
0.0
 10
-16.7929
 20
-6.1471
 30
0.0
 10
-16.8337
 20
-6.186
 30
0.0
 10
-16.8337
 20
-6.186
 30
0.0
 10
-16.8751
 20
-6.2248
 30
0.0
 10
-16.9139
 20
-6.2694
 30
0.0
 10
-16.9507
 20
-6.3198
 30
0.0
 10
-16.9507
 20
-6.3198
 30
0.0
 10
-16.9507
 20
-6.3198
 30
0.0
 10
-16.9585
 20
-6.3198
 30
0.0
 10
-16.9585
 20
-6.3198
 30
0.0
 10
-16.9585
 20
-6.3198
 30
0.0
 10
-16.9857
 20
-6.2532
 30
0.0
 10
-17.0245
 20
-6.1957
 30
0.0
 10
-17.0743
 20
-6.1471
 30
0.0
 10
-17.0743
 20
-6.1471
 30
0.0
 10
-17.1241
 20
-6.0986
 30
0.0
 10
-17.1829
 20
-6.0611
 30
0.0
 10
-17.2515
 20
-6.0346
 30
0.0
 10
-17.2515
 20
-6.0346
 30
0.0
 10
-17.3194
 20
-6.0075
 30
0.0
 10
-17.3951
 20
-5.9945
 30
0.0
 10
-17.4785
 20
-5.9939
 30
0.0
 10
-17.4785
 20
-5.9939
 30
0.0
 10
-17.5587
 20
-5.9945
 30
0.0
 10
-17.6305
 20
-6.0042
 30
0.0
 10
-17.6926
 20
-6.0236
 30
0.0
 10
-17.6926
 20
-6.0236
 30
0.0
 10
-17.7553
 20
-6.043
 30
0.0
 10
-17.8096
 20
-6.0682
 30
0.0
 10
-17.8555
 20
-6.0986
 30
0.0
 10
-17.8555
 20
-6.0986
 30
0.0
 10
-17.9021
 20
-6.129
 30
0.0
 10
-17.9416
 20
-6.162
 30
0.0
 10
-17.9739
 20
-6.1969
 30
0.0
 10
-17.9739
 20
-6.1969
 30
0.0
 10
-18.0062
 20
-6.2319
 30
0.0
 10
-18.0328
 20
-6.2649
 30
0.0
 10
-18.0528
 20
-6.2965
 30
0.0
 10
-18.0528
 20
-6.2965
 30
0.0
 10
-18.0528
 20
-6.2965
 30
0.0
 10
-18.0644
 20
-6.2965
 30
0.0
 10
-18.0644
 20
-6.2965
 30
0.0
 10
-18.0644
 20
-6.2965
 30
0.0
 10
-18.0644
 20
-6.2965
 30
0.0
 10
-18.0877
 20
-6.0404
 30
0.0
 10
-18.0877
 20
-6.0404
 30
0.0
 10
-18.0877
 20
-6.0404
 30
0.0
 10
-18.0877
 20
-6.0404
 30
0.0
 10
-18.5883
 20
-6.0404
 30
0.0
 10
-18.5883
 20
-6.0404
 30
0.0
 10
-18.5883
 20
-6.0404
 30
0.0
 10
-18.5844
 20
-6.1258
 30
0.0
 10
-18.5806
 20
-6.2183
 30
0.0
 10
-18.5773
 20
-6.3185
 30
0.0
 10
-18.5773
 20
-6.3185
 30
0.0
 10
-18.5747
 20
-6.4188
 30
0.0
 10
-18.5728
 20
-6.5274
 30
0.0
 10
-18.5728
 20
-6.6458
 30
0.0
 10
-18.5728
 20
-6.6458
 30
0.0
 10
-18.5728
 20
-6.6458
 30
0.0
 10
-18.5728
 20
-7.938
 30
0.0
 10
-18.5728
 20
-7.938
 30
0.0
  0
SPLINE
  5
49
330
1F
100
AcDbEntity
  8
Ilustrace
 62
   250
100
AcDbSpline
210
0.0
220
0.0
230
1.0
 70
    11
 71
     3
 72
    68
 73
    64
 74
     0
 42
0.0000000001
 43
0.0000000001
 40
0.0
 40
0.0
 40
0.0
 40
0.0
 40
0.0588235294117647
 40
0.0588235294117647
 40
0.0588235294117647
 40
0.0588235294117647
 40
0.1176470588235294
 40
0.1176470588235294
 40
0.1176470588235294
 40
0.1176470588235294
 40
0.1764705882352941
 40
0.1764705882352941
 40
0.1764705882352941
 40
0.1764705882352941
 40
0.2352941176470588
 40
0.2352941176470588
 40
0.2352941176470588
 40
0.2352941176470588
 40
0.2941176470588235
 40
0.2941176470588235
 40
0.2941176470588235
 40
0.2941176470588235
 40
0.3529411764705883
 40
0.3529411764705883
 40
0.3529411764705883
 40
0.3529411764705883
 40
0.4117647058823529
 40
0.4117647058823529
 40
0.4117647058823529
 40
0.4117647058823529
 40
0.4705882352941176
 40
0.4705882352941176
 40
0.4705882352941176
 40
0.4705882352941176
 40
0.5294117647058824
 40
0.5294117647058824
 40
0.5294117647058824
 40
0.5294117647058824
 40
0.5882352941176471
 40
0.5882352941176471
 40
0.5882352941176471
 40
0.5882352941176471
 40
0.6470588235294118
 40
0.6470588235294118
 40
0.6470588235294118
 40
0.6470588235294118
 40
0.7058823529411765
 40
0.7058823529411765
 40
0.7058823529411765
 40
0.7058823529411765
 40
0.7647058823529411
 40
0.7647058823529411
 40
0.7647058823529411
 40
0.7647058823529411
 40
0.8235294117647058
 40
0.8235294117647058
 40
0.8235294117647058
 40
0.8235294117647058
 40
0.8823529411764706
 40
0.8823529411764706
 40
0.8823529411764706
 40
0.8823529411764706
 40
1.0
 40
1.0
 40
1.0
 40
1.0
 10
-13.9732
 20
-5.2449
 30
0.0
 10
-14.0353
 20
-5.3264
 30
0.0
 10
-14.0954
 20
-5.4189
 30
0.0
 10
-14.1549
 20
-5.5237
 30
0.0
 10
-14.1549
 20
-5.5237
 30
0.0
 10
-14.2144
 20
-5.6278
 30
0.0
 10
-14.2688
 20
-5.7455
 30
0.0
 10
-14.3173
 20
-5.8755
 30
0.0
 10
-14.3173
 20
-5.8755
 30
0.0
 10
-14.3664
 20
-6.0055
 30
0.0
 10
-14.4052
 20
-6.1504
 30
0.0
 10
-14.435
 20
-6.3088
 30
0.0
 10
-14.435
 20
-6.3088
 30
0.0
 10
-14.4641
 20
-6.4679
 30
0.0
 10
-14.4796
 20
-6.6419
 30
0.0
 10
-14.4815
 20
-6.8321
 30
0.0
 10
-14.4815
 20
-6.8321
 30
0.0
 10
-14.4809
 20
-7.0209
 30
0.0
 10
-14.466
 20
-7.1942
 30
0.0
 10
-14.4363
 20
-7.352
 30
0.0
 10
-14.4363
 20
-7.352
 30
0.0
 10
-14.4072
 20
-7.5099
 30
0.0
 10
-14.3677
 20
-7.6534
 30
0.0
 10
-14.3192
 20
-7.7828
 30
0.0
 10
-14.3192
 20
-7.7828
 30
0.0
 10
-14.2701
 20
-7.9121
 30
0.0
 10
-14.2157
 20
-8.0285
 30
0.0
 10
-14.1556
 20
-8.132
 30
0.0
 10
-14.1556
 20
-8.132
 30
0.0
 10
-14.0961
 20
-8.2355
 30
0.0
 10
-14.0353
 20
-8.3273
 30
0.0
 10
-13.9732
 20
-8.4075
 30
0.0
 10
-13.9732
 20
-8.4075
 30
0.0
 10
-13.9732
 20
-8.4075
 30
0.0
 10
-13.7093
 20
-8.4075
 30
0.0
 10
-13.7093
 20
-8.4075
 30
0.0
 10
-13.7093
 20
-8.4075
 30
0.0
 10
-13.8012
 20
-8.2788
 30
0.0
 10
-13.8833
 20
-8.1366
 30
0.0
 10
-13.9557
 20
-7.9813
 30
0.0
 10
-13.9557
 20
-7.9813
 30
0.0
 10
-14.0288
 20
-7.8255
 30
0.0
 10
-14.0864
 20
-7.6534
 30
0.0
 10
-14.1291
 20
-7.4639
 30
0.0
 10
-14.1291
 20
-7.4639
 30
0.0
 10
-14.1718
 20
-7.2751
 30
0.0
 10
-14.1937
 20
-7.0655
 30
0.0
 10
-14.1944
 20
-6.8359
 30
0.0
 10
-14.1944
 20
-6.8359
 30
0.0
 10
-14.1937
 20
-6.6012
 30
0.0
 10
-14.173
 20
-6.3871
 30
0.0
 10
-14.1317
 20
-6.195
 30
0.0
 10
-14.1317
 20
-6.195
 30
0.0
 10
-14.0903
 20
-6.0023
 30
0.0
 10
-14.0334
 20
-5.8277
 30
0.0
 10
-13.9609
 20
-5.6711
 30
0.0
 10
-13.9609
 20
-5.6711
 30
0.0
 10
-13.8885
 20
-5.5146
 30
0.0
 10
-13.8044
 20
-5.3723
 30
0.0
 10
-13.7093
 20
-5.2449
 30
0.0
 10
-13.7093
 20
-5.2449
 30
0.0
 10
-13.7093
 20
-5.2449
 30
0.0
 10
-13.9732
 20
-5.2449
 30
0.0
 10
-13.9732
 20
-5.2449
 30
0.0
  0
SPLINE
  5
4A
330
1F
100
AcDbEntity
  8
Ilustrace
 62
   250
100
AcDbSpline
210
0.0
220
0.0
230
1.0
 70
    11
 71
     3
 72
    36
 73
    32
 74
     0
 42
0.0000000001
 43
0.0000000001
 40
0.0
 40
0.0
 40
0.0
 40
0.0
 40
0.1111111111111111
 40
0.1111111111111111
 40
0.1111111111111111
 40
0.1111111111111111
 40
0.2222222222222222
 40
0.2222222222222222
 40
0.2222222222222222
 40
0.2222222222222222
 40
0.3333333333333333
 40
0.3333333333333333
 40
0.3333333333333333
 40
0.3333333333333333
 40
0.4444444444444444
 40
0.4444444444444444
 40
0.4444444444444444
 40
0.4444444444444444
 40
0.5555555555555556
 40
0.5555555555555556
 40
0.5555555555555556
 40
0.5555555555555556
 40
0.6666666666666666
 40
0.6666666666666666
 40
0.6666666666666666
 40
0.6666666666666666
 40
0.7777777777777778
 40
0.7777777777777778
 40
0.7777777777777778
 40
0.7777777777777778
 40
1.0
 40
1.0
 40
1.0
 40
1.0
 10
-13.4477
 20
-5.4157
 30
0.0
 10
-13.4477
 20
-5.4157
 30
0.0
 10
-13.4477
 20
-5.699
 30
0.0
 10
-13.4477
 20
-5.699
 30
0.0
 10
-13.4477
 20
-5.699
 30
0.0
 10
-13.4477
 20
-5.699
 30
0.0
 10
-12.2137
 20
-5.699
 30
0.0
 10
-12.2137
 20
-5.699
 30
0.0
 10
-12.2137
 20
-5.699
 30
0.0
 10
-12.2137
 20
-5.699
 30
0.0
 10
-12.2137
 20
-5.7067
 30
0.0
 10
-12.2137
 20
-5.7067
 30
0.0
 10
-12.2137
 20
-5.7067
 30
0.0
 10
-12.2137
 20
-5.7067
 30
0.0
 10
-13.308
 20
-7.938
 30
0.0
 10
-13.308
 20
-7.938
 30
0.0
 10
-13.308
 20
-7.938
 30
0.0
 10
-13.308
 20
-7.938
 30
0.0
 10
-12.9549
 20
-7.938
 30
0.0
 10
-12.9549
 20
-7.938
 30
0.0
 10
-12.9549
 20
-7.938
 30
0.0
 10
-12.9549
 20
-7.938
 30
0.0
 10
-11.8567
 20
-5.6407
 30
0.0
 10
-11.8567
 20
-5.6407
 30
0.0
 10
-11.8567
 20
-5.6407
 30
0.0
 10
-11.8567
 20
-5.6407
 30
0.0
 10
-11.8567
 20
-5.4157
 30
0.0
 10
-11.8567
 20
-5.4157
 30
0.0
 10
-11.8567
 20
-5.4157
 30
0.0
 10
-11.8567
 20
-5.4157
 30
0.0
 10
-13.4477
 20
-5.4157
 30
0.0
 10
-13.4477
 20
-5.4157
 30
0.0
  0
SPLINE
  5
4B
330
1F
100
AcDbEntity
  8
Ilustrace
 62
   250
100
AcDbSpline
210
0.0
220
0.0
230
1.0
 70
    11
 71
     3
 72
    48
 73
    44
 74
     0
 42
0.0000000001
 43
0.0000000001
 40
0.0
 40
0.0
 40
0.0
 40
0.0
 40
0.0833333333333333
 40
0.0833333333333333
 40
0.0833333333333333
 40
0.0833333333333333
 40
0.1666666666666667
 40
0.1666666666666667
 40
0.1666666666666667
 40
0.1666666666666667
 40
0.25
 40
0.25
 40
0.25
 40
0.25
 40
0.3333333333333333
 40
0.3333333333333333
 40
0.3333333333333333
 40
0.3333333333333333
 40
0.4166666666666667
 40
0.4166666666666667
 40
0.4166666666666667
 40
0.4166666666666667
 40
0.5
 40
0.5
 40
0.5
 40
0.5
 40
0.5833333333333334
 40
0.5833333333333334
 40
0.5833333333333334
 40
0.5833333333333334
 40
0.6666666666666666
 40
0.6666666666666666
 40
0.6666666666666666
 40
0.6666666666666666
 40
0.75
 40
0.75
 40
0.75
 40
0.75
 40
0.8333333333333334
 40
0.8333333333333334
 40
0.8333333333333334
 40
0.8333333333333334
 40
1.0
 40
1.0
 40
1.0
 40
1.0
 10
-10.1671
 20
-7.938
 30
0.0
 10
-10.1671
 20
-7.938
 30
0.0
 10
-10.1671
 20
-7.2473
 30
0.0
 10
-10.1671
 20
-7.2473
 30
0.0
 10
-10.1671
 20
-7.2473
 30
0.0
 10
-10.1671
 20
-7.2473
 30
0.0
 10
-9.814
 20
-7.2473
 30
0.0
 10
-9.814
 20
-7.2473
 30
0.0
 10
-9.814
 20
-7.2473
 30
0.0
 10
-9.814
 20
-7.2473
 30
0.0
 10
-9.814
 20
-6.9834
 30
0.0
 10
-9.814
 20
-6.9834
 30
0.0
 10
-9.814
 20
-6.9834
 30
0.0
 10
-9.814
 20
-6.9834
 30
0.0
 10
-10.1671
 20
-6.9834
 30
0.0
 10
-10.1671
 20
-6.9834
 30
0.0
 10
-10.1671
 20
-6.9834
 30
0.0
 10
-10.1671
 20
-6.9834
 30
0.0
 10
-10.1671
 20
-5.4157
 30
0.0
 10
-10.1671
 20
-5.4157
 30
0.0
 10
-10.1671
 20
-5.4157
 30
0.0
 10
-10.1671
 20
-5.4157
 30
0.0
 10
-10.5357
 20
-5.4157
 30
0.0
 10
-10.5357
 20
-5.4157
 30
0.0
 10
-10.5357
 20
-5.4157
 30
0.0
 10
-10.5357
 20
-5.4157
 30
0.0
 10
-11.6611
 20
-7.0261
 30
0.0
 10
-11.6611
 20
-7.0261
 30
0.0
 10
-11.6611
 20
-7.0261
 30
0.0
 10
-11.6611
 20
-7.0261
 30
0.0
 10
-11.6611
 20
-7.2473
 30
0.0
 10
-11.6611
 20
-7.2473
 30
0.0
 10
-11.6611
 20
-7.2473
 30
0.0
 10
-11.6611
 20
-7.2473
 30
0.0
 10
-10.4892
 20
-7.2473
 30
0.0
 10
-10.4892
 20
-7.2473
 30
0.0
 10
-10.4892
 20
-7.2473
 30
0.0
 10
-10.4892
 20
-7.2473
 30
0.0
 10
-10.4892
 20
-7.938
 30
0.0
 10
-10.4892
 20
-7.938
 30
0.0
 10
-10.4892
 20
-7.938
 30
0.0
 10
-10.4892
 20
-7.938
 30
0.0
 10
-10.1671
 20
-7.938
 30
0.0
 10
-10.1671
 20
-7.938
 30
0.0
  0
SPLINE
  5
4C
330
1F
100
AcDbEntity
  8
Ilustrace
 62
   250
100
AcDbSpline
210
0.0
220
0.0
230
1.0
 70
    11
 71
     3
 72
    36
 73
    32
 74
     0
 42
0.0000000001
 43
0.0000000001
 40
0.0
 40
0.0
 40
0.0
 40
0.0
 40
0.1111111111111111
 40
0.1111111111111111
 40
0.1111111111111111
 40
0.1111111111111111
 40
0.2222222222222222
 40
0.2222222222222222
 40
0.2222222222222222
 40
0.2222222222222222
 40
0.3333333333333333
 40
0.3333333333333333
 40
0.3333333333333333
 40
0.3333333333333333
 40
0.4444444444444444
 40
0.4444444444444444
 40
0.4444444444444444
 40
0.4444444444444444
 40
0.5555555555555556
 40
0.5555555555555556
 40
0.5555555555555556
 40
0.5555555555555556
 40
0.6666666666666666
 40
0.6666666666666666
 40
0.6666666666666666
 40
0.6666666666666666
 40
0.7777777777777778
 40
0.7777777777777778
 40
0.7777777777777778
 40
0.7777777777777778
 40
1.0
 40
1.0
 40
1.0
 40
1.0
 10
-11.3157
 20
-6.9834
 30
0.0
 10
-11.3157
 20
-6.9834
 30
0.0
 10
-11.3157
 20
-6.9756
 30
0.0
 10
-11.3157
 20
-6.9756
 30
0.0
 10
-11.3157
 20
-6.9756
 30
0.0
 10
-11.3157
 20
-6.9756
 30
0.0
 10
-10.6987
 20
-6.118
 30
0.0
 10
-10.6987
 20
-6.118
 30
0.0
 10
-10.6987
 20
-6.118
 30
0.0
 10
-10.6645
 20
-6.0605
 30
0.0
 10
-10.6302
 20
-6.0023
 30
0.0
 10
-10.5965
 20
-5.9434
 30
0.0
 10
-10.5965
 20
-5.9434
 30
0.0
 10
-10.5636
 20
-5.8839
 30
0.0
 10
-10.5273
 20
-5.818
 30
0.0
 10
-10.4892
 20
-5.7455
 30
0.0
 10
-10.4892
 20
-5.7455
 30
0.0
 10
-10.4892
 20
-5.7455
 30
0.0
 10
-10.4775
 20
-5.7455
 30
0.0
 10
-10.4775
 20
-5.7455
 30
0.0
 10
-10.4775
 20
-5.7455
 30
0.0
 10
-10.4853
 20
-5.8775
 30
0.0
 10
-10.4892
 20
-6.0094
 30
0.0
 10
-10.4892
 20
-6.1413
 30
0.0
 10
-10.4892
 20
-6.1413
 30
0.0
 10
-10.4892
 20
-6.1413
 30
0.0
 10
-10.4892
 20
-6.9834
 30
0.0
 10
-10.4892
 20
-6.9834
 30
0.0
 10
-10.4892
 20
-6.9834
 30
0.0
 10
-10.4892
 20
-6.9834
 30
0.0
 10
-11.3157
 20
-6.9834
 30
0.0
 10
-11.3157
 20
-6.9834
 30
0.0
  0
SPLINE
  5
4D
330
1F
100
AcDbEntity
  8
Ilustrace
 62
   250
100
AcDbSpline
210
0.0
220
0.0
230
1.0
 70
    11
 71
     3
 72
    48
 73
    44
 74
     0
 42
0.0000000001
 43
0.0000000001
 40
0.0
 40
0.0
 40
0.0
 40
0.0
 40
0.0833333333333333
 40
0.0833333333333333
 40
0.0833333333333333
 40
0.0833333333333333
 40
0.1666666666666667
 40
0.1666666666666667
 40
0.1666666666666667
 40
0.1666666666666667
 40
0.25
 40
0.25
 40
0.25
 40
0.25
 40
0.3333333333333333
 40
0.3333333333333333
 40
0.3333333333333333
 40
0.3333333333333333
 40
0.4166666666666667
 40
0.4166666666666667
 40
0.4166666666666667
 40
0.4166666666666667
 40
0.5
 40
0.5
 40
0.5
 40
0.5
 40
0.5833333333333334
 40
0.5833333333333334
 40
0.5833333333333334
 40
0.5833333333333334
 40
0.6666666666666666
 40
0.6666666666666666
 40
0.6666666666666666
 40
0.6666666666666666
 40
0.75
 40
0.75
 40
0.75
 40
0.75
 40
0.8333333333333334
 40
0.8333333333333334
 40
0.8333333333333334
 40
0.8333333333333334
 40
1.0
 40
1.0
 40
1.0
 40
1.0
 10
-8.2175
 20
-7.938
 30
0.0
 10
-8.2175
 20
-7.938
 30
0.0
 10
-8.2175
 20
-7.2473
 30
0.0
 10
-8.2175
 20
-7.2473
 30
0.0
 10
-8.2175
 20
-7.2473
 30
0.0
 10
-8.2175
 20
-7.2473
 30
0.0
 10
-7.8644
 20
-7.2473
 30
0.0
 10
-7.8644
 20
-7.2473
 30
0.0
 10
-7.8644
 20
-7.2473
 30
0.0
 10
-7.8644
 20
-7.2473
 30
0.0
 10
-7.8644
 20
-6.9834
 30
0.0
 10
-7.8644
 20
-6.9834
 30
0.0
 10
-7.8644
 20
-6.9834
 30
0.0
 10
-7.8644
 20
-6.9834
 30
0.0
 10
-8.2175
 20
-6.9834
 30
0.0
 10
-8.2175
 20
-6.9834
 30
0.0
 10
-8.2175
 20
-6.9834
 30
0.0
 10
-8.2175
 20
-6.9834
 30
0.0
 10
-8.2175
 20
-5.4157
 30
0.0
 10
-8.2175
 20
-5.4157
 30
0.0
 10
-8.2175
 20
-5.4157
 30
0.0
 10
-8.2175
 20
-5.4157
 30
0.0
 10
-8.5861
 20
-5.4157
 30
0.0
 10
-8.5861
 20
-5.4157
 30
0.0
 10
-8.5861
 20
-5.4157
 30
0.0
 10
-8.5861
 20
-5.4157
 30
0.0
 10
-9.7115
 20
-7.0261
 30
0.0
 10
-9.7115
 20
-7.0261
 30
0.0
 10
-9.7115
 20
-7.0261
 30
0.0
 10
-9.7115
 20
-7.0261
 30
0.0
 10
-9.7115
 20
-7.2473
 30
0.0
 10
-9.7115
 20
-7.2473
 30
0.0
 10
-9.7115
 20
-7.2473
 30
0.0
 10
-9.7115
 20
-7.2473
 30
0.0
 10
-8.5396
 20
-7.2473
 30
0.0
 10
-8.5396
 20
-7.2473
 30
0.0
 10
-8.5396
 20
-7.2473
 30
0.0
 10
-8.5396
 20
-7.2473
 30
0.0
 10
-8.5396
 20
-7.938
 30
0.0
 10
-8.5396
 20
-7.938
 30
0.0
 10
-8.5396
 20
-7.938
 30
0.0
 10
-8.5396
 20
-7.938
 30
0.0
 10
-8.2175
 20
-7.938
 30
0.0
 10
-8.2175
 20
-7.938
 30
0.0
  0
SPLINE
  5
4E
330
1F
100
AcDbEntity
  8
Ilustrace
 62
   250
100
AcDbSpline
210
0.0
220
0.0
230
1.0
 70
    11
 71
     3
 72
    36
 73
    32
 74
     0
 42
0.0000000001
 43
0.0000000001
 40
0.0
 40
0.0
 40
0.0
 40
0.0
 40
0.1111111111111111
 40
0.1111111111111111
 40
0.1111111111111111
 40
0.1111111111111111
 40
0.2222222222222222
 40
0.2222222222222222
 40
0.2222222222222222
 40
0.2222222222222222
 40
0.3333333333333333
 40
0.3333333333333333
 40
0.3333333333333333
 40
0.3333333333333333
 40
0.4444444444444444
 40
0.4444444444444444
 40
0.4444444444444444
 40
0.4444444444444444
 40
0.5555555555555556
 40
0.5555555555555556
 40
0.5555555555555556
 40
0.5555555555555556
 40
0.6666666666666666
 40
0.6666666666666666
 40
0.6666666666666666
 40
0.6666666666666666
 40
0.7777777777777778
 40
0.7777777777777778
 40
0.7777777777777778
 40
0.7777777777777778
 40
1.0
 40
1.0
 40
1.0
 40
1.0
 10
-9.3661
 20
-6.9834
 30
0.0
 10
-9.3661
 20
-6.9834
 30
0.0
 10
-9.3661
 20
-6.9756
 30
0.0
 10
-9.3661
 20
-6.9756
 30
0.0
 10
-9.3661
 20
-6.9756
 30
0.0
 10
-9.3661
 20
-6.9756
 30
0.0
 10
-8.7491
 20
-6.118
 30
0.0
 10
-8.7491
 20
-6.118
 30
0.0
 10
-8.7491
 20
-6.118
 30
0.0
 10
-8.7149
 20
-6.0605
 30
0.0
 10
-8.6806
 20
-6.0023
 30
0.0
 10
-8.6469
 20
-5.9434
 30
0.0
 10
-8.6469
 20
-5.9434
 30
0.0
 10
-8.614
 20
-5.8839
 30
0.0
 10
-8.5777
 20
-5.818
 30
0.0
 10
-8.5396
 20
-5.7455
 30
0.0
 10
-8.5396
 20
-5.7455
 30
0.0
 10
-8.5396
 20
-5.7455
 30
0.0
 10
-8.5279
 20
-5.7455
 30
0.0
 10
-8.5279
 20
-5.7455
 30
0.0
 10
-8.5279
 20
-5.7455
 30
0.0
 10
-8.5357
 20
-5.8775
 30
0.0
 10
-8.5396
 20
-6.0094
 30
0.0
 10
-8.5396
 20
-6.1413
 30
0.0
 10
-8.5396
 20
-6.1413
 30
0.0
 10
-8.5396
 20
-6.1413
 30
0.0
 10
-8.5396
 20
-6.9834
 30
0.0
 10
-8.5396
 20
-6.9834
 30
0.0
 10
-8.5396
 20
-6.9834
 30
0.0
 10
-8.5396
 20
-6.9834
 30
0.0
 10
-9.3661
 20
-6.9834
 30
0.0
 10
-9.3661
 20
-6.9834
 30
0.0
  0
SPLINE
  5
4F
330
1F
100
AcDbEntity
  8
Ilustrace
 62
   250
100
AcDbSpline
210
0.0
220
0.0
230
1.0
 70
    11
 71
     3
 72
    44
 73
    40
 74
     0
 42
0.0000000001
 43
0.0000000001
 40
0.0
 40
0.0
 40
0.0
 40
0.0
 40
0.0909090909090909
 40
0.0909090909090909
 40
0.0909090909090909
 40
0.0909090909090909
 40
0.1818181818181818
 40
0.1818181818181818
 40
0.1818181818181818
 40
0.1818181818181818
 40
0.2727272727272727
 40
0.2727272727272727
 40
0.2727272727272727
 40
0.2727272727272727
 40
0.3636363636363636
 40
0.3636363636363636
 40
0.3636363636363636
 40
0.3636363636363636
 40
0.4545454545454545
 40
0.4545454545454545
 40
0.4545454545454545
 40
0.4545454545454545
 40
0.5454545454545454
 40
0.5454545454545454
 40
0.5454545454545454
 40
0.5454545454545454
 40
0.6363636363636364
 40
0.6363636363636364
 40
0.6363636363636364
 40
0.6363636363636364
 40
0.7272727272727273
 40
0.7272727272727273
 40
0.7272727272727273
 40
0.7272727272727273
 40
0.8181818181818182
 40
0.8181818181818182
 40
0.8181818181818182
 40
0.8181818181818182
 40
1.0
 40
1.0
 40
1.0
 40
1.0
 10
-7.5174
 20
-8.392
 30
0.0
 10
-7.4896
 20
-8.3455
 30
0.0
 10
-7.4599
 20
-8.286
 30
0.0
 10
-7.4262
 20
-8.2142
 30
0.0
 10
-7.4262
 20
-8.2142
 30
0.0
 10
-7.3932
 20
-8.1417
 30
0.0
 10
-7.3596
 20
-8.0628
 30
0.0
 10
-7.3253
 20
-7.9755
 30
0.0
 10
-7.3253
 20
-7.9755
 30
0.0
 10
-7.2911
 20
-7.8888
 30
0.0
 10
-7.2581
 20
-7.8002
 30
0.0
 10
-7.227
 20
-7.7097
 30
0.0
 10
-7.227
 20
-7.7097
 30
0.0
 10
-7.196
 20
-7.6192
 30
0.0
 10
-7.1688
 20
-7.5325
 30
0.0
 10
-7.1449
 20
-7.4491
 30
0.0
 10
-7.1449
 20
-7.4491
 30
0.0
 10
-7.1449
 20
-7.4491
 30
0.0
 10
-7.5252
 20
-7.4879
 30
0.0
 10
-7.5252
 20
-7.4879
 30
0.0
 10
-7.5252
 20
-7.4879
 30
0.0
 10
-7.5362
 20
-7.5597
 30
0.0
 10
-7.5504
 20
-7.6366
 30
0.0
 10
-7.5672
 20
-7.72
 30
0.0
 10
-7.5672
 20
-7.72
 30
0.0
 10
-7.5847
 20
-7.8035
 30
0.0
 10
-7.6041
 20
-7.8876
 30
0.0
 10
-7.6254
 20
-7.9723
 30
0.0
 10
-7.6254
 20
-7.9723
 30
0.0
 10
-7.6468
 20
-8.0576
 30
0.0
 10
-7.6688
 20
-8.1385
 30
0.0
 10
-7.6914
 20
-8.2155
 30
0.0
 10
-7.6914
 20
-8.2155
 30
0.0
 10
-7.714
 20
-8.2924
 30
0.0
 10
-7.7367
 20
-8.3603
 30
0.0
 10
-7.758
 20
-8.4192
 30
0.0
 10
-7.758
 20
-8.4192
 30
0.0
 10
-7.758
 20
-8.4192
 30
0.0
 10
-7.5174
 20
-8.392
 30
0.0
 10
-7.5174
 20
-8.392
 30
0.0
  0
SPLINE
  5
50
330
1F
100
AcDbEntity
  8
Ilustrace
 62
   250
100
AcDbSpline
210
0.0
220
0.0
230
1.0
 70
    11
 71
     3
 72
   124
 73
   120
 74
     0
 42
0.0000000001
 43
0.0000000001
 40
0.0
 40
0.0
 40
0.0
 40
0.0
 40
0.032258064516129
 40
0.032258064516129
 40
0.032258064516129
 40
0.032258064516129
 40
0.0645161290322581
 40
0.0645161290322581
 40
0.0645161290322581
 40
0.0645161290322581
 40
0.0967741935483871
 40
0.0967741935483871
 40
0.0967741935483871
 40
0.0967741935483871
 40
0.1290322580645161
 40
0.1290322580645161
 40
0.1290322580645161
 40
0.1290322580645161
 40
0.1612903225806452
 40
0.1612903225806452
 40
0.1612903225806452
 40
0.1612903225806452
 40
0.1935483870967742
 40
0.1935483870967742
 40
0.1935483870967742
 40
0.1935483870967742
 40
0.2258064516129032
 40
0.2258064516129032
 40
0.2258064516129032
 40
0.2258064516129032
 40
0.2580645161290323
 40
0.2580645161290323
 40
0.2580645161290323
 40
0.2580645161290323
 40
0.2903225806451613
 40
0.2903225806451613
 40
0.2903225806451613
 40
0.2903225806451613
 40
0.3225806451612903
 40
0.3225806451612903
 40
0.3225806451612903
 40
0.3225806451612903
 40
0.3548387096774194
 40
0.3548387096774194
 40
0.3548387096774194
 40
0.3548387096774194
 40
0.3870967741935484
 40
0.3870967741935484
 40
0.3870967741935484
 40
0.3870967741935484
 40
0.4193548387096774
 40
0.4193548387096774
 40
0.4193548387096774
 40
0.4193548387096774
 40
0.4516129032258064
 40
0.4516129032258064
 40
0.4516129032258064
 40
0.4516129032258064
 40
0.4838709677419355
 40
0.4838709677419355
 40
0.4838709677419355
 40
0.4838709677419355
 40
0.5161290322580645
 40
0.5161290322580645
 40
0.5161290322580645
 40
0.5161290322580645
 40
0.5483870967741935
 40
0.5483870967741935
 40
0.5483870967741935
 40
0.5483870967741935
 40
0.5806451612903226
 40
0.5806451612903226
 40
0.5806451612903226
 40
0.5806451612903226
 40
0.6129032258064516
 40
0.6129032258064516
 40
0.6129032258064516
 40
0.6129032258064516
 40
0.6451612903225806
 40
0.6451612903225806
 40
0.6451612903225806
 40
0.6451612903225806
 40
0.6774193548387096
 40
0.6774193548387096
 40
0.6774193548387096
 40
0.6774193548387096
 40
0.7096774193548387
 40
0.7096774193548387
 40
0.7096774193548387
 40
0.7096774193548387
 40
0.7419354838709677
 40
0.7419354838709677
 40
0.7419354838709677
 40
0.7419354838709677
 40
0.7741935483870968
 40
0.7741935483870968
 40
0.7741935483870968
 40
0.7741935483870968
 40
0.8064516129032258
 40
0.8064516129032258
 40
0.8064516129032258
 40
0.8064516129032258
 40
0.8387096774193549
 40
0.8387096774193549
 40
0.8387096774193549
 40
0.8387096774193549
 40
0.8709677419354839
 40
0.8709677419354839
 40
0.8709677419354839
 40
0.8709677419354839
 40
0.9032258064516129
 40
0.9032258064516129
 40
0.9032258064516129
 40
0.9032258064516129
 40
0.9354838709677419
 40
0.9354838709677419
 40
0.9354838709677419
 40
0.9354838709677419
 40
1.0
 40
1.0
 40
1.0
 40
1.0
 10
-5.6321
 20
-6.6225
 30
0.0
 10
-5.7363
 20
-6.6665
 30
0.0
 10
-5.8255
 20
-6.7215
 30
0.0
 10
-5.8999
 20
-6.7861
 30
0.0
 10
-5.8999
 20
-6.7861
 30
0.0
 10
-5.9743
 20
-6.8515
 30
0.0
 10
-6.0318
 20
-6.9271
 30
0.0
 10
-6.0719
 20
-7.0131
 30
0.0
 10
-6.0719
 20
-7.0131
 30
0.0
 10
-6.112
 20
-7.0992
 30
0.0
 10
-6.1321
 20
-7.1955
 30
0.0
 10
-6.1327
 20
-7.3016
 30
0.0
 10
-6.1327
 20
-7.3016
 30
0.0
 10
-6.1321
 20
-7.3947
 30
0.0
 10
-6.1133
 20
-7.4814
 30
0.0
 10
-6.0745
 20
-7.5635
 30
0.0
 10
-6.0745
 20
-7.5635
 30
0.0
 10
-6.0364
 20
-7.645
 30
0.0
 10
-5.9807
 20
-7.7168
 30
0.0
 10
-5.9077
 20
-7.7795
 30
0.0
 10
-5.9077
 20
-7.7795
 30
0.0
 10
-5.8346
 20
-7.8416
 30
0.0
 10
-5.746
 20
-7.8908
 30
0.0
 10
-5.6418
 20
-7.9264
 30
0.0
 10
-5.6418
 20
-7.9264
 30
0.0
 10
-5.5371
 20
-7.9619
 30
0.0
 10
-5.4187
 20
-7.98
 30
0.0
 10
-5.2868
 20
-7.9807
 30
0.0
 10
-5.2868
 20
-7.9807
 30
0.0
 10
-5.1658
 20
-7.98
 30
0.0
 10
-5.0533
 20
-7.9626
 30
0.0
 10
-4.9498
 20
-7.9283
 30
0.0
 10
-4.9498
 20
-7.9283
 30
0.0
 10
-4.8463
 20
-7.894
 30
0.0
 10
-4.7551
 20
-7.8442
 30
0.0
 10
-4.6775
 20
-7.7795
 30
0.0
 10
-4.6775
 20
-7.7795
 30
0.0
 10
-4.5999
 20
-7.7155
 30
0.0
 10
-4.5391
 20
-7.6386
 30
0.0
 10
-4.4958
 20
-7.5487
 30
0.0
 10
-4.4958
 20
-7.5487
 30
0.0
 10
-4.4518
 20
-7.4588
 30
0.0
 10
-4.4298
 20
-7.3585
 30
0.0
 10
-4.4292
 20
-7.2473
 30
0.0
 10
-4.4292
 20
-7.2473
 30
0.0
 10
-4.4298
 20
-7.1464
 30
0.0
 10
-4.4505
 20
-7.0545
 30
0.0
 10
-4.4913
 20
-6.9711
 30
0.0
 10
-4.4913
 20
-6.9711
 30
0.0
 10
-4.532
 20
-6.8883
 30
0.0
 10
-4.5902
 20
-6.8152
 30
0.0
 10
-4.6659
 20
-6.7525
 30
0.0
 10
-4.6659
 20
-6.7525
 30
0.0
 10
-4.7416
 20
-6.6891
 30
0.0
 10
-4.8321
 20
-6.6367
 30
0.0
 10
-4.9375
 20
-6.5953
 30
0.0
 10
-4.9375
 20
-6.5953
 30
0.0
 10
-4.9375
 20
-6.5953
 30
0.0
 10
-4.9375
 20
-6.5837
 30
0.0
 10
-4.9375
 20
-6.5837
 30
0.0
 10
-4.9375
 20
-6.5837
 30
0.0
 10
-4.8347
 20
-6.5352
 30
0.0
 10
-4.7526
 20
-6.4789
 30
0.0
 10
-4.6911
 20
-6.4143
 30
0.0
 10
-4.6911
 20
-6.4143
 30
0.0
 10
-4.6297
 20
-6.3502
 30
0.0
 10
-4.585
 20
-6.2817
 30
0.0
 10
-4.5579
 20
-6.2099
 30
0.0
 10
-4.5579
 20
-6.2099
 30
0.0
 10
-4.5314
 20
-6.1374
 30
0.0
 10
-4.5178
 20
-6.0657
 30
0.0
 10
-4.5184
 20
-5.9939
 30
0.0
 10
-4.5184
 20
-5.9939
 30
0.0
 10
-4.5184
 20
-5.9137
 30
0.0
 10
-4.534
 20
-5.8361
 30
0.0
 10
-4.565
 20
-5.7623
 30
0.0
 10
-4.565
 20
-5.7623
 30
0.0
 10
-4.596
 20
-5.6886
 30
0.0
 10
-4.642
 20
-5.6226
 30
0.0
 10
-4.7034
 20
-5.5638
 30
0.0
 10
-4.7034
 20
-5.5638
 30
0.0
 10
-4.7655
 20
-5.5056
 30
0.0
 10
-4.8425
 20
-5.459
 30
0.0
 10
-4.9343
 20
-5.4254
 30
0.0
 10
-4.9343
 20
-5.4254
 30
0.0
 10
-5.0261
 20
-5.3911
 30
0.0
 10
-5.1335
 20
-5.3736
 30
0.0
 10
-5.2557
 20
-5.373
 30
0.0
 10
-5.2557
 20
-5.373
 30
0.0
 10
-5.3676
 20
-5.3736
 30
0.0
 10
-5.4717
 20
-5.3898
 30
0.0
 10
-5.5662
 20
-5.4215
 30
0.0
 10
-5.5662
 20
-5.4215
 30
0.0
 10
-5.6612
 20
-5.4538
 30
0.0
 10
-5.744
 20
-5.4991
 30
0.0
 10
-5.8152
 20
-5.5586
 30
0.0
 10
-5.8152
 20
-5.5586
 30
0.0
 10
-5.8857
 20
-5.6181
 30
0.0
 10
-5.9406
 20
-5.6886
 30
0.0
 10
-5.9801
 20
-5.7707
 30
0.0
 10
-5.9801
 20
-5.7707
 30
0.0
 10
-6.0189
 20
-5.8529
 30
0.0
 10
-6.0389
 20
-5.9441
 30
0.0
 10
-6.0396
 20
-6.0443
 30
0.0
 10
-6.0396
 20
-6.0443
 30
0.0
 10
-6.0396
 20
-6.1174
 30
0.0
 10
-6.026
 20
-6.1885
 30
0.0
 10
-5.9976
 20
-6.2584
 30
0.0
 10
-5.9976
 20
-6.2584
 30
0.0
 10
-5.9697
 20
-6.3282
 30
0.0
 10
-5.9258
 20
-6.3936
 30
0.0
 10
-5.8663
 20
-6.4537
 30
0.0
 10
-5.8663
 20
-6.4537
 30
0.0
 10
-5.8068
 20
-6.5139
 30
0.0
 10
-5.7304
 20
-6.5662
 30
0.0
 10
-5.636
 20
-6.6109
 30
0.0
 10
-5.636
 20
-6.6109
 30
0.0
 10
-5.636
 20
-6.6109
 30
0.0
 10
-5.6321
 20
-6.6225
 30
0.0
 10
-5.6321
 20
-6.6225
 30
0.0
  0
SPLINE
  5
51
330
1F
100
AcDbEntity
  8
Ilustrace
 62
   250
100
AcDbSpline
210
0.0
220
0.0
230
1.0
 70
    11
 71
     3
 72
    56
 73
    52
 74
     0
 42
0.0000000001
 43
0.0000000001
 40
0.0
 40
0.0
 40
0.0
 40
0.0
 40
0.0714285714285714
 40
0.0714285714285714
 40
0.0714285714285714
 40
0.0714285714285714
 40
0.1428571428571428
 40
0.1428571428571428
 40
0.1428571428571428
 40
0.1428571428571428
 40
0.2142857142857143
 40
0.2142857142857143
 40
0.2142857142857143
 40
0.2142857142857143
 40
0.2857142857142857
 40
0.2857142857142857
 40
0.2857142857142857
 40
0.2857142857142857
 40
0.3571428571428572
 40
0.3571428571428572
 40
0.3571428571428572
 40
0.3571428571428572
 40
0.4285714285714285
 40
0.4285714285714285
 40
0.4285714285714285
 40
0.4285714285714285
 40
0.5
 40
0.5
 40
0.5
 40
0.5
 40
0.5714285714285714
 40
0.5714285714285714
 40
0.5714285714285714
 40
0.5714285714285714
 40
0.6428571428571429
 40
0.6428571428571429
 40
0.6428571428571429
 40
0.6428571428571429
 40
0.7142857142857143
 40
0.7142857142857143
 40
0.7142857142857143
 40
0.7142857142857143
 40
0.7857142857142857
 40
0.7857142857142857
 40
0.7857142857142857
 40
0.7857142857142857
 40
0.8571428571428571
 40
0.8571428571428571
 40
0.8571428571428571
 40
0.8571428571428571
 40
1.0
 40
1.0
 40
1.0
 40
1.0
 10
-5.279
 20
-7.7323
 30
0.0
 10
-5.3599
 20
-7.7317
 30
0.0
 10
-5.4316
 20
-7.7188
 30
0.0
 10
-5.495
 20
-7.6935
 30
0.0
 10
-5.495
 20
-7.6935
 30
0.0
 10
-5.5591
 20
-7.6677
 30
0.0
 10
-5.6127
 20
-7.6327
 30
0.0
 10
-5.6567
 20
-7.5881
 30
0.0
 10
-5.6567
 20
-7.5881
 30
0.0
 10
-5.7
 20
-7.5441
 30
0.0
 10
-5.733
 20
-7.493
 30
0.0
 10
-5.755
 20
-7.4361
 30
0.0
 10
-5.755
 20
-7.4361
 30
0.0
 10
-5.7764
 20
-7.3792
 30
0.0
 10
-5.7861
 20
-7.3184
 30
0.0
 10
-5.7835
 20
-7.255
 30
0.0
 10
-5.7835
 20
-7.255
 30
0.0
 10
-5.7835
 20
-7.1742
 30
0.0
 10
-5.766
 20
-7.0998
 30
0.0
 10
-5.7311
 20
-7.0313
 30
0.0
 10
-5.7311
 20
-7.0313
 30
0.0
 10
-5.6968
 20
-6.9627
 30
0.0
 10
-5.6457
 20
-6.9026
 30
0.0
 10
-5.5785
 20
-6.8515
 30
0.0
 10
-5.5785
 20
-6.8515
 30
0.0
 10
-5.5105
 20
-6.8004
 30
0.0
 10
-5.4278
 20
-6.7603
 30
0.0
 10
-5.3295
 20
-6.7312
 30
0.0
 10
-5.3295
 20
-6.7312
 30
0.0
 10
-5.215
 20
-6.7629
 30
0.0
 10
-5.1167
 20
-6.8023
 30
0.0
 10
-5.0339
 20
-6.8502
 30
0.0
 10
-5.0339
 20
-6.8502
 30
0.0
 10
-4.9511
 20
-6.8974
 30
0.0
 10
-4.8871
 20
-6.9562
 30
0.0
 10
-4.8425
 20
-7.0261
 30
0.0
 10
-4.8425
 20
-7.0261
 30
0.0
 10
-4.7978
 20
-7.0966
 30
0.0
 10
-4.7752
 20
-7.1819
 30
0.0
 10
-4.7745
 20
-7.2822
 30
0.0
 10
-4.7745
 20
-7.2822
 30
0.0
 10
-4.7752
 20
-7.3695
 30
0.0
 10
-4.7959
 20
-7.4471
 30
0.0
 10
-4.8373
 20
-7.5144
 30
0.0
 10
-4.8373
 20
-7.5144
 30
0.0
 10
-4.8787
 20
-7.5816
 30
0.0
 10
-4.9369
 20
-7.6347
 30
0.0
 10
-5.0119
 20
-7.6735
 30
0.0
 10
-5.0119
 20
-7.6735
 30
0.0
 10
-5.0869
 20
-7.7123
 30
0.0
 10
-5.1762
 20
-7.7317
 30
0.0
 10
-5.279
 20
-7.7323
 30
0.0
  0
SPLINE
  5
52
330
1F
100
AcDbEntity
  8
Ilustrace
 62
   250
100
AcDbSpline
210
0.0
220
0.0
230
1.0
 70
    11
 71
     3
 72
    56
 73
    52
 74
     0
 42
0.0000000001
 43
0.0000000001
 40
0.0
 40
0.0
 40
0.0
 40
0.0
 40
0.0714285714285714
 40
0.0714285714285714
 40
0.0714285714285714
 40
0.0714285714285714
 40
0.1428571428571428
 40
0.1428571428571428
 40
0.1428571428571428
 40
0.1428571428571428
 40
0.2142857142857143
 40
0.2142857142857143
 40
0.2142857142857143
 40
0.2142857142857143
 40
0.2857142857142857
 40
0.2857142857142857
 40
0.2857142857142857
 40
0.2857142857142857
 40
0.3571428571428572
 40
0.3571428571428572
 40
0.3571428571428572
 40
0.3571428571428572
 40
0.4285714285714285
 40
0.4285714285714285
 40
0.4285714285714285
 40
0.4285714285714285
 40
0.5
 40
0.5
 40
0.5
 40
0.5
 40
0.5714285714285714
 40
0.5714285714285714
 40
0.5714285714285714
 40
0.5714285714285714
 40
0.6428571428571429
 40
0.6428571428571429
 40
0.6428571428571429
 40
0.6428571428571429
 40
0.7142857142857143
 40
0.7142857142857143
 40
0.7142857142857143
 40
0.7142857142857143
 40
0.7857142857142857
 40
0.7857142857142857
 40
0.7857142857142857
 40
0.7857142857142857
 40
0.8571428571428571
 40
0.8571428571428571
 40
0.8571428571428571
 40
0.8571428571428571
 40
1.0
 40
1.0
 40
1.0
 40
1.0
 10
-5.2751
 20
-5.6175
 30
0.0
 10
-5.1988
 20
-5.6181
 30
0.0
 10
-5.1335
 20
-5.6297
 30
0.0
 10
-5.0792
 20
-5.653
 30
0.0
 10
-5.0792
 20
-5.653
 30
0.0
 10
-5.0248
 20
-5.6763
 30
0.0
 10
-4.9809
 20
-5.708
 30
0.0
 10
-4.9466
 20
-5.7475
 30
0.0
 10
-4.9466
 20
-5.7475
 30
0.0
 10
-4.913
 20
-5.7869
 30
0.0
 10
-4.8877
 20
-5.8309
 30
0.0
 10
-4.8716
 20
-5.8794
 30
0.0
 10
-4.8716
 20
-5.8794
 30
0.0
 10
-4.856
 20
-5.9279
 30
0.0
 10
-4.8483
 20
-5.9777
 30
0.0
 10
-4.8483
 20
-6.0288
 30
0.0
 10
-4.8483
 20
-6.0288
 30
0.0
 10
-4.8489
 20
-6.1051
 30
0.0
 10
-4.8657
 20
-6.173
 30
0.0
 10
-4.8994
 20
-6.2325
 30
0.0
 10
-4.8994
 20
-6.2325
 30
0.0
 10
-4.933
 20
-6.2927
 30
0.0
 10
-4.9783
 20
-6.3438
 30
0.0
 10
-5.0365
 20
-6.3858
 30
0.0
 10
-5.0365
 20
-6.3858
 30
0.0
 10
-5.094
 20
-6.4285
 30
0.0
 10
-5.1594
 20
-6.4621
 30
0.0
 10
-5.2324
 20
-6.4867
 30
0.0
 10
-5.2324
 20
-6.4867
 30
0.0
 10
-5.3301
 20
-6.4608
 30
0.0
 10
-5.4148
 20
-6.4278
 30
0.0
 10
-5.4873
 20
-6.3877
 30
0.0
 10
-5.4873
 20
-6.3877
 30
0.0
 10
-5.5597
 20
-6.347
 30
0.0
 10
-5.616
 20
-6.2965
 30
0.0
 10
-5.6554
 20
-6.2364
 30
0.0
 10
-5.6554
 20
-6.2364
 30
0.0
 10
-5.6949
 20
-6.1763
 30
0.0
 10
-5.7143
 20
-6.1045
 30
0.0
 10
-5.7136
 20
-6.021
 30
0.0
 10
-5.7136
 20
-6.021
 30
0.0
 10
-5.7136
 20
-5.9473
 30
0.0
 10
-5.6968
 20
-5.8807
 30
0.0
 10
-5.6632
 20
-5.8199
 30
0.0
 10
-5.6632
 20
-5.8199
 30
0.0
 10
-5.6295
 20
-5.7591
 30
0.0
 10
-5.5798
 20
-5.7106
 30
0.0
 10
-5.5144
 20
-5.6737
 30
0.0
 10
-5.5144
 20
-5.6737
 30
0.0
 10
-5.4498
 20
-5.6369
 30
0.0
 10
-5.3696
 20
-5.6181
 30
0.0
 10
-5.2751
 20
-5.6175
 30
0.0
  0
SPLINE
  5
53
330
1F
100
AcDbEntity
  8
Ilustrace
 62
   250
100
AcDbSpline
210
0.0
220
0.0
230
1.0
 70
    11
 71
     3
 72
    48
 73
    44
 74
     0
 42
0.0000000001
 43
0.0000000001
 40
0.0
 40
0.0
 40
0.0
 40
0.0
 40
0.0833333333333333
 40
0.0833333333333333
 40
0.0833333333333333
 40
0.0833333333333333
 40
0.1666666666666667
 40
0.1666666666666667
 40
0.1666666666666667
 40
0.1666666666666667
 40
0.25
 40
0.25
 40
0.25
 40
0.25
 40
0.3333333333333333
 40
0.3333333333333333
 40
0.3333333333333333
 40
0.3333333333333333
 40
0.4166666666666667
 40
0.4166666666666667
 40
0.4166666666666667
 40
0.4166666666666667
 40
0.5
 40
0.5
 40
0.5
 40
0.5
 40
0.5833333333333334
 40
0.5833333333333334
 40
0.5833333333333334
 40
0.5833333333333334
 40
0.6666666666666666
 40
0.6666666666666666
 40
0.6666666666666666
 40
0.6666666666666666
 40
0.75
 40
0.75
 40
0.75
 40
0.75
 40
0.8333333333333334
 40
0.8333333333333334
 40
0.8333333333333334
 40
0.8333333333333334
 40
1.0
 40
1.0
 40
1.0
 40
1.0
 10
-2.7745
 20
-7.938
 30
0.0
 10
-2.7745
 20
-7.938
 30
0.0
 10
-2.7745
 20
-7.2473
 30
0.0
 10
-2.7745
 20
-7.2473
 30
0.0
 10
-2.7745
 20
-7.2473
 30
0.0
 10
-2.7745
 20
-7.2473
 30
0.0
 10
-2.4214
 20
-7.2473
 30
0.0
 10
-2.4214
 20
-7.2473
 30
0.0
 10
-2.4214
 20
-7.2473
 30
0.0
 10
-2.4214
 20
-7.2473
 30
0.0
 10
-2.4214
 20
-6.9834
 30
0.0
 10
-2.4214
 20
-6.9834
 30
0.0
 10
-2.4214
 20
-6.9834
 30
0.0
 10
-2.4214
 20
-6.9834
 30
0.0
 10
-2.7745
 20
-6.9834
 30
0.0
 10
-2.7745
 20
-6.9834
 30
0.0
 10
-2.7745
 20
-6.9834
 30
0.0
 10
-2.7745
 20
-6.9834
 30
0.0
 10
-2.7745
 20
-5.4157
 30
0.0
 10
-2.7745
 20
-5.4157
 30
0.0
 10
-2.7745
 20
-5.4157
 30
0.0
 10
-2.7745
 20
-5.4157
 30
0.0
 10
-3.1431
 20
-5.4157
 30
0.0
 10
-3.1431
 20
-5.4157
 30
0.0
 10
-3.1431
 20
-5.4157
 30
0.0
 10
-3.1431
 20
-5.4157
 30
0.0
 10
-4.2685
 20
-7.0261
 30
0.0
 10
-4.2685
 20
-7.0261
 30
0.0
 10
-4.2685
 20
-7.0261
 30
0.0
 10
-4.2685
 20
-7.0261
 30
0.0
 10
-4.2685
 20
-7.2473
 30
0.0
 10
-4.2685
 20
-7.2473
 30
0.0
 10
-4.2685
 20
-7.2473
 30
0.0
 10
-4.2685
 20
-7.2473
 30
0.0
 10
-3.0966
 20
-7.2473
 30
0.0
 10
-3.0966
 20
-7.2473
 30
0.0
 10
-3.0966
 20
-7.2473
 30
0.0
 10
-3.0966
 20
-7.2473
 30
0.0
 10
-3.0966
 20
-7.938
 30
0.0
 10
-3.0966
 20
-7.938
 30
0.0
 10
-3.0966
 20
-7.938
 30
0.0
 10
-3.0966
 20
-7.938
 30
0.0
 10
-2.7745
 20
-7.938
 30
0.0
 10
-2.7745
 20
-7.938
 30
0.0
  0
SPLINE
  5
54
330
1F
100
AcDbEntity
  8
Ilustrace
 62
   250
100
AcDbSpline
210
0.0
220
0.0
230
1.0
 70
    11
 71
     3
 72
    36
 73
    32
 74
     0
 42
0.0000000001
 43
0.0000000001
 40
0.0
 40
0.0
 40
0.0
 40
0.0
 40
0.1111111111111111
 40
0.1111111111111111
 40
0.1111111111111111
 40
0.1111111111111111
 40
0.2222222222222222
 40
0.2222222222222222
 40
0.2222222222222222
 40
0.2222222222222222
 40
0.3333333333333333
 40
0.3333333333333333
 40
0.3333333333333333
 40
0.3333333333333333
 40
0.4444444444444444
 40
0.4444444444444444
 40
0.4444444444444444
 40
0.4444444444444444
 40
0.5555555555555556
 40
0.5555555555555556
 40
0.5555555555555556
 40
0.5555555555555556
 40
0.6666666666666666
 40
0.6666666666666666
 40
0.6666666666666666
 40
0.6666666666666666
 40
0.7777777777777778
 40
0.7777777777777778
 40
0.7777777777777778
 40
0.7777777777777778
 40
1.0
 40
1.0
 40
1.0
 40
1.0
 10
-3.9231
 20
-6.9834
 30
0.0
 10
-3.9231
 20
-6.9834
 30
0.0
 10
-3.9231
 20
-6.9756
 30
0.0
 10
-3.9231
 20
-6.9756
 30
0.0
 10
-3.9231
 20
-6.9756
 30
0.0
 10
-3.9231
 20
-6.9756
 30
0.0
 10
-3.3061
 20
-6.118
 30
0.0
 10
-3.3061
 20
-6.118
 30
0.0
 10
-3.3061
 20
-6.118
 30
0.0
 10
-3.2719
 20
-6.0605
 30
0.0
 10
-3.2376
 20
-6.0023
 30
0.0
 10
-3.2039
 20
-5.9434
 30
0.0
 10
-3.2039
 20
-5.9434
 30
0.0
 10
-3.171
 20
-5.8839
 30
0.0
 10
-3.1347
 20
-5.818
 30
0.0
 10
-3.0966
 20
-5.7455
 30
0.0
 10
-3.0966
 20
-5.7455
 30
0.0
 10
-3.0966
 20
-5.7455
 30
0.0
 10
-3.0849
 20
-5.7455
 30
0.0
 10
-3.0849
 20
-5.7455
 30
0.0
 10
-3.0849
 20
-5.7455
 30
0.0
 10
-3.0927
 20
-5.8775
 30
0.0
 10
-3.0966
 20
-6.0094
 30
0.0
 10
-3.0966
 20
-6.1413
 30
0.0
 10
-3.0966
 20
-6.1413
 30
0.0
 10
-3.0966
 20
-6.1413
 30
0.0
 10
-3.0966
 20
-6.9834
 30
0.0
 10
-3.0966
 20
-6.9834
 30
0.0
 10
-3.0966
 20
-6.9834
 30
0.0
 10
-3.0966
 20
-6.9834
 30
0.0
 10
-3.9231
 20
-6.9834
 30
0.0
 10
-3.9231
 20
-6.9834
 30
0.0
  0
SPLINE
  5
55
330
1F
100
AcDbEntity
  8
Ilustrace
 62
   250
100
AcDbSpline
210
0.0
220
0.0
230
1.0
 70
    11
 71
     3
 72
    48
 73
    44
 74
     0
 42
0.0000000001
 43
0.0000000001
 40
0.0
 40
0.0
 40
0.0
 40
0.0
 40
0.0833333333333333
 40
0.0833333333333333
 40
0.0833333333333333
 40
0.0833333333333333
 40
0.1666666666666667
 40
0.1666666666666667
 40
0.1666666666666667
 40
0.1666666666666667
 40
0.25
 40
0.25
 40
0.25
 40
0.25
 40
0.3333333333333333
 40
0.3333333333333333
 40
0.3333333333333333
 40
0.3333333333333333
 40
0.4166666666666667
 40
0.4166666666666667
 40
0.4166666666666667
 40
0.4166666666666667
 40
0.5
 40
0.5
 40
0.5
 40
0.5
 40
0.5833333333333334
 40
0.5833333333333334
 40
0.5833333333333334
 40
0.5833333333333334
 40
0.6666666666666666
 40
0.6666666666666666
 40
0.6666666666666666
 40
0.6666666666666666
 40
0.75
 40
0.75
 40
0.75
 40
0.75
 40
0.8333333333333334
 40
0.8333333333333334
 40
0.8333333333333334
 40
0.8333333333333334
 40
1.0
 40
1.0
 40
1.0
 40
1.0
 10
-0.8249
 20
-7.938
 30
0.0
 10
-0.8249
 20
-7.938
 30
0.0
 10
-0.8249
 20
-7.2473
 30
0.0
 10
-0.8249
 20
-7.2473
 30
0.0
 10
-0.8249
 20
-7.2473
 30
0.0
 10
-0.8249
 20
-7.2473
 30
0.0
 10
-0.4718
 20
-7.2473
 30
0.0
 10
-0.4718
 20
-7.2473
 30
0.0
 10
-0.4718
 20
-7.2473
 30
0.0
 10
-0.4718
 20
-7.2473
 30
0.0
 10
-0.4718
 20
-6.9834
 30
0.0
 10
-0.4718
 20
-6.9834
 30
0.0
 10
-0.4718
 20
-6.9834
 30
0.0
 10
-0.4718
 20
-6.9834
 30
0.0
 10
-0.8249
 20
-6.9834
 30
0.0
 10
-0.8249
 20
-6.9834
 30
0.0
 10
-0.8249
 20
-6.9834
 30
0.0
 10
-0.8249
 20
-6.9834
 30
0.0
 10
-0.8249
 20
-5.4157
 30
0.0
 10
-0.8249
 20
-5.4157
 30
0.0
 10
-0.8249
 20
-5.4157
 30
0.0
 10
-0.8249
 20
-5.4157
 30
0.0
 10
-1.1935
 20
-5.4157
 30
0.0
 10
-1.1935
 20
-5.4157
 30
0.0
 10
-1.1935
 20
-5.4157
 30
0.0
 10
-1.1935
 20
-5.4157
 30
0.0
 10
-2.3189
 20
-7.0261
 30
0.0
 10
-2.3189
 20
-7.0261
 30
0.0
 10
-2.3189
 20
-7.0261
 30
0.0
 10
-2.3189
 20
-7.0261
 30
0.0
 10
-2.3189
 20
-7.2473
 30
0.0
 10
-2.3189
 20
-7.2473
 30
0.0
 10
-2.3189
 20
-7.2473
 30
0.0
 10
-2.3189
 20
-7.2473
 30
0.0
 10
-1.147
 20
-7.2473
 30
0.0
 10
-1.147
 20
-7.2473
 30
0.0
 10
-1.147
 20
-7.2473
 30
0.0
 10
-1.147
 20
-7.2473
 30
0.0
 10
-1.147
 20
-7.938
 30
0.0
 10
-1.147
 20
-7.938
 30
0.0
 10
-1.147
 20
-7.938
 30
0.0
 10
-1.147
 20
-7.938
 30
0.0
 10
-0.8249
 20
-7.938
 30
0.0
 10
-0.8249
 20
-7.938
 30
0.0
  0
SPLINE
  5
56
330
1F
100
AcDbEntity
  8
Ilustrace
 62
   250
100
AcDbSpline
210
0.0
220
0.0
230
1.0
 70
    11
 71
     3
 72
    36
 73
    32
 74
     0
 42
0.0000000001
 43
0.0000000001
 40
0.0
 40
0.0
 40
0.0
 40
0.0
 40
0.1111111111111111
 40
0.1111111111111111
 40
0.1111111111111111
 40
0.1111111111111111
 40
0.2222222222222222
 40
0.2222222222222222
 40
0.2222222222222222
 40
0.2222222222222222
 40
0.3333333333333333
 40
0.3333333333333333
 40
0.3333333333333333
 40
0.3333333333333333
 40
0.4444444444444444
 40
0.4444444444444444
 40
0.4444444444444444
 40
0.4444444444444444
 40
0.5555555555555556
 40
0.5555555555555556
 40
0.5555555555555556
 40
0.5555555555555556
 40
0.6666666666666666
 40
0.6666666666666666
 40
0.6666666666666666
 40
0.6666666666666666
 40
0.7777777777777778
 40
0.7777777777777778
 40
0.7777777777777778
 40
0.7777777777777778
 40
1.0
 40
1.0
 40
1.0
 40
1.0
 10
-1.9735
 20
-6.9834
 30
0.0
 10
-1.9735
 20
-6.9834
 30
0.0
 10
-1.9735
 20
-6.9756
 30
0.0
 10
-1.9735
 20
-6.9756
 30
0.0
 10
-1.9735
 20
-6.9756
 30
0.0
 10
-1.9735
 20
-6.9756
 30
0.0
 10
-1.3565
 20
-6.118
 30
0.0
 10
-1.3565
 20
-6.118
 30
0.0
 10
-1.3565
 20
-6.118
 30
0.0
 10
-1.3223
 20
-6.0605
 30
0.0
 10
-1.288
 20
-6.0023
 30
0.0
 10
-1.2543
 20
-5.9434
 30
0.0
 10
-1.2543
 20
-5.9434
 30
0.0
 10
-1.2214
 20
-5.8839
 30
0.0
 10
-1.1851
 20
-5.818
 30
0.0
 10
-1.147
 20
-5.7455
 30
0.0
 10
-1.147
 20
-5.7455
 30
0.0
 10
-1.147
 20
-5.7455
 30
0.0
 10
-1.1353
 20
-5.7455
 30
0.0
 10
-1.1353
 20
-5.7455
 30
0.0
 10
-1.1353
 20
-5.7455
 30
0.0
 10
-1.1431
 20
-5.8775
 30
0.0
 10
-1.147
 20
-6.0094
 30
0.0
 10
-1.147
 20
-6.1413
 30
0.0
 10
-1.147
 20
-6.1413
 30
0.0
 10
-1.147
 20
-6.1413
 30
0.0
 10
-1.147
 20
-6.9834
 30
0.0
 10
-1.147
 20
-6.9834
 30
0.0
 10
-1.147
 20
-6.9834
 30
0.0
 10
-1.147
 20
-6.9834
 30
0.0
 10
-1.9735
 20
-6.9834
 30
0.0
 10
-1.9735
 20
-6.9834
 30
0.0
  0
SPLINE
  5
57
330
1F
100
AcDbEntity
  8
Ilustrace
 62
   250
100
AcDbSpline
210
0.0
220
0.0
230
1.0
 70
    11
 71
     3
 72
    44
 73
    40
 74
     0
 42
0.0000000001
 43
0.0000000001
 40
0.0
 40
0.0
 40
0.0
 40
0.0
 40
0.0909090909090909
 40
0.0909090909090909
 40
0.0909090909090909
 40
0.0909090909090909
 40
0.1818181818181818
 40
0.1818181818181818
 40
0.1818181818181818
 40
0.1818181818181818
 40
0.2727272727272727
 40
0.2727272727272727
 40
0.2727272727272727
 40
0.2727272727272727
 40
0.3636363636363636
 40
0.3636363636363636
 40
0.3636363636363636
 40
0.3636363636363636
 40
0.4545454545454545
 40
0.4545454545454545
 40
0.4545454545454545
 40
0.4545454545454545
 40
0.5454545454545454
 40
0.5454545454545454
 40
0.5454545454545454
 40
0.5454545454545454
 40
0.6363636363636364
 40
0.6363636363636364
 40
0.6363636363636364
 40
0.6363636363636364
 40
0.7272727272727273
 40
0.7272727272727273
 40
0.7272727272727273
 40
0.7272727272727273
 40
0.8181818181818182
 40
0.8181818181818182
 40
0.8181818181818182
 40
0.8181818181818182
 40
1.0
 40
1.0
 40
1.0
 40
1.0
 10
-0.1248
 20
-8.392
 30
0.0
 10
-0.097
 20
-8.3455
 30
0.0
 10
-0.0673
 20
-8.286
 30
0.0
 10
-0.0336
 20
-8.2142
 30
0.0
 10
-0.0336
 20
-8.2142
 30
0.0
 10
-0.0006
 20
-8.1417
 30
0.0
 10
0.033
 20
-8.0628
 30
0.0
 10
0.0673
 20
-7.9755
 30
0.0
 10
0.0673
 20
-7.9755
 30
0.0
 10
0.1015
 20
-7.8888
 30
0.0
 10
0.1345
 20
-7.8002
 30
0.0
 10
0.1656
 20
-7.7097
 30
0.0
 10
0.1656
 20
-7.7097
 30
0.0
 10
0.1966
 20
-7.6192
 30
0.0
 10
0.2238
 20
-7.5325
 30
0.0
 10
0.2477
 20
-7.4491
 30
0.0
 10
0.2477
 20
-7.4491
 30
0.0
 10
0.2477
 20
-7.4491
 30
0.0
 10
-0.1326
 20
-7.4879
 30
0.0
 10
-0.1326
 20
-7.4879
 30
0.0
 10
-0.1326
 20
-7.4879
 30
0.0
 10
-0.1436
 20
-7.5597
 30
0.0
 10
-0.1578
 20
-7.6366
 30
0.0
 10
-0.1746
 20
-7.72
 30
0.0
 10
-0.1746
 20
-7.72
 30
0.0
 10
-0.1921
 20
-7.8035
 30
0.0
 10
-0.2115
 20
-7.8876
 30
0.0
 10
-0.2328
 20
-7.9723
 30
0.0
 10
-0.2328
 20
-7.9723
 30
0.0
 10
-0.2542
 20
-8.0576
 30
0.0
 10
-0.2762
 20
-8.1385
 30
0.0
 10
-0.2988
 20
-8.2155
 30
0.0
 10
-0.2988
 20
-8.2155
 30
0.0
 10
-0.3214
 20
-8.2924
 30
0.0
 10
-0.3441
 20
-8.3603
 30
0.0
 10
-0.3654
 20
-8.4192
 30
0.0
 10
-0.3654
 20
-8.4192
 30
0.0
 10
-0.3654
 20
-8.4192
 30
0.0
 10
-0.1248
 20
-8.392
 30
0.0
 10
-0.1248
 20
-8.392
 30
0.0
  0
SPLINE
  5
58
330
1F
100
AcDbEntity
  8
Ilustrace
 62
   250
100
AcDbSpline
210
0.0
220
0.0
230
1.0
 70
    11
 71
     3
 72
   124
 73
   120
 74
     0
 42
0.0000000001
 43
0.0000000001
 40
0.0
 40
0.0
 40
0.0
 40
0.0
 40
0.032258064516129
 40
0.032258064516129
 40
0.032258064516129
 40
0.032258064516129
 40
0.0645161290322581
 40
0.0645161290322581
 40
0.0645161290322581
 40
0.0645161290322581
 40
0.0967741935483871
 40
0.0967741935483871
 40
0.0967741935483871
 40
0.0967741935483871
 40
0.1290322580645161
 40
0.1290322580645161
 40
0.1290322580645161
 40
0.1290322580645161
 40
0.1612903225806452
 40
0.1612903225806452
 40
0.1612903225806452
 40
0.1612903225806452
 40
0.1935483870967742
 40
0.1935483870967742
 40
0.1935483870967742
 40
0.1935483870967742
 40
0.2258064516129032
 40
0.2258064516129032
 40
0.2258064516129032
 40
0.2258064516129032
 40
0.2580645161290323
 40
0.2580645161290323
 40
0.2580645161290323
 40
0.2580645161290323
 40
0.2903225806451613
 40
0.2903225806451613
 40
0.2903225806451613
 40
0.2903225806451613
 40
0.3225806451612903
 40
0.3225806451612903
 40
0.3225806451612903
 40
0.3225806451612903
 40
0.3548387096774194
 40
0.3548387096774194
 40
0.3548387096774194
 40
0.3548387096774194
 40
0.3870967741935484
 40
0.3870967741935484
 40
0.3870967741935484
 40
0.3870967741935484
 40
0.4193548387096774
 40
0.4193548387096774
 40
0.4193548387096774
 40
0.4193548387096774
 40
0.4516129032258064
 40
0.4516129032258064
 40
0.4516129032258064
 40
0.4516129032258064
 40
0.4838709677419355
 40
0.4838709677419355
 40
0.4838709677419355
 40
0.4838709677419355
 40
0.5161290322580645
 40
0.5161290322580645
 40
0.5161290322580645
 40
0.5161290322580645
 40
0.5483870967741935
 40
0.5483870967741935
 40
0.5483870967741935
 40
0.5483870967741935
 40
0.5806451612903226
 40
0.5806451612903226
 40
0.5806451612903226
 40
0.5806451612903226
 40
0.6129032258064516
 40
0.6129032258064516
 40
0.6129032258064516
 40
0.6129032258064516
 40
0.6451612903225806
 40
0.6451612903225806
 40
0.6451612903225806
 40
0.6451612903225806
 40
0.6774193548387096
 40
0.6774193548387096
 40
0.6774193548387096
 40
0.6774193548387096
 40
0.7096774193548387
 40
0.7096774193548387
 40
0.7096774193548387
 40
0.7096774193548387
 40
0.7419354838709677
 40
0.7419354838709677
 40
0.7419354838709677
 40
0.7419354838709677
 40
0.7741935483870968
 40
0.7741935483870968
 40
0.7741935483870968
 40
0.7741935483870968
 40
0.8064516129032258
 40
0.8064516129032258
 40
0.8064516129032258
 40
0.8064516129032258
 40
0.8387096774193549
 40
0.8387096774193549
 40
0.8387096774193549
 40
0.8387096774193549
 40
0.8709677419354839
 40
0.8709677419354839
 40
0.8709677419354839
 40
0.8709677419354839
 40
0.9032258064516129
 40
0.9032258064516129
 40
0.9032258064516129
 40
0.9032258064516129
 40
0.9354838709677419
 40
0.9354838709677419
 40
0.9354838709677419
 40
0.9354838709677419
 40
1.0
 40
1.0
 40
1.0
 40
1.0
 10
1.4888
 20
-7.9768
 30
0.0
 10
1.5296
 20
-7.9787
 30
0.0
 10
1.5768
 20
-7.9787
 30
0.0
 10
1.6298
 20
-7.9755
 30
0.0
 10
1.6298
 20
-7.9755
 30
0.0
 10
1.6829
 20
-7.9729
 30
0.0
 10
1.7411
 20
-7.9671
 30
0.0
 10
1.8031
 20
-7.9574
 30
0.0
 10
1.8031
 20
-7.9574
 30
0.0
 10
1.8943
 20
-7.9471
 30
0.0
 10
1.9836
 20
-7.927
 30
0.0
 10
2.0709
 20
-7.8985
 30
0.0
 10
2.0709
 20
-7.8985
 30
0.0
 10
2.1582
 20
-7.8694
 30
0.0
 10
2.2416
 20
-7.8313
 30
0.0
 10
2.3205
 20
-7.7847
 30
0.0
 10
2.3205
 20
-7.7847
 30
0.0
 10
2.3995
 20
-7.7382
 30
0.0
 10
2.4712
 20
-7.6832
 30
0.0
 10
2.5366
 20
-7.6198
 30
0.0
 10
2.5366
 20
-7.6198
 30
0.0
 10
2.62
 20
-7.5396
 30
0.0
 10
2.6944
 20
-7.4432
 30
0.0
 10
2.7597
 20
-7.3294
 30
0.0
 10
2.7597
 20
-7.3294
 30
0.0
 10
2.825
 20
-7.2162
 30
0.0
 10
2.8761
 20
-7.0856
 30
0.0
 10
2.9136
 20
-6.9375
 30
0.0
 10
2.9136
 20
-6.9375
 30
0.0
 10
2.9511
 20
-6.7894
 30
0.0
 10
2.9705
 20
-6.6238
 30
0.0
 10
2.9712
 20
-6.4401
 30
0.0
 10
2.9712
 20
-6.4401
 30
0.0
 10
2.9712
 20
-6.2765
 30
0.0
 10
2.9518
 20
-6.1297
 30
0.0
 10
2.9136
 20
-5.9984
 30
0.0
 10
2.9136
 20
-5.9984
 30
0.0
 10
2.8755
 20
-5.8671
 30
0.0
 10
2.8198
 20
-5.7552
 30
0.0
 10
2.7474
 20
-5.6621
 30
0.0
 10
2.7474
 20
-5.6621
 30
0.0
 10
2.675
 20
-5.569
 30
0.0
 10
2.5877
 20
-5.4978
 30
0.0
 10
2.4848
 20
-5.448
 30
0.0
 10
2.4848
 20
-5.448
 30
0.0
 10
2.382
 20
-5.3982
 30
0.0
 10
2.2662
 20
-5.3736
 30
0.0
 10
2.1369
 20
-5.373
 30
0.0
 10
2.1369
 20
-5.373
 30
0.0
 10
2.0075
 20
-5.3736
 30
0.0
 10
1.8898
 20
-5.3982
 30
0.0
 10
1.7844
 20
-5.4461
 30
0.0
 10
1.7844
 20
-5.4461
 30
0.0
 10
1.679
 20
-5.4933
 30
0.0
 10
1.5884
 20
-5.5593
 30
0.0
 10
1.5128
 20
-5.642
 30
0.0
 10
1.5128
 20
-5.642
 30
0.0
 10
1.4364
 20
-5.7255
 30
0.0
 10
1.3782
 20
-5.8205
 30
0.0
 10
1.3375
 20
-5.9279
 30
0.0
 10
1.3375
 20
-5.9279
 30
0.0
 10
1.2967
 20
-6.0353
 30
0.0
 10
1.276
 20
-6.1491
 30
0.0
 10
1.2754
 20
-6.2694
 30
0.0
 10
1.2754
 20
-6.2694
 30
0.0
 10
1.276
 20
-6.3774
 30
0.0
 10
1.2935
 20
-6.4783
 30
0.0
 10
1.3278
 20
-6.5714
 30
0.0
 10
1.3278
 20
-6.5714
 30
0.0
 10
1.3627
 20
-6.6652
 30
0.0
 10
1.4125
 20
-6.7467
 30
0.0
 10
1.4772
 20
-6.8172
 30
0.0
 10
1.4772
 20
-6.8172
 30
0.0
 10
1.5419
 20
-6.887
 30
0.0
 10
1.6201
 20
-6.942
 30
0.0
 10
1.7107
 20
-6.9815
 30
0.0
 10
1.7107
 20
-6.9815
 30
0.0
 10
1.8019
 20
-7.0209
 30
0.0
 10
1.9034
 20
-7.041
 30
0.0
 10
2.0166
 20
-7.0416
 30
0.0
 10
2.0166
 20
-7.0416
 30
0.0
 10
2.1446
 20
-7.041
 30
0.0
 10
2.2591
 20
-7.0177
 30
0.0
 10
2.3594
 20
-6.9718
 30
0.0
 10
2.3594
 20
-6.9718
 30
0.0
 10
2.459
 20
-6.9258
 30
0.0
 10
2.5443
 20
-6.8599
 30
0.0
 10
2.6142
 20
-6.7738
 30
0.0
 10
2.6142
 20
-6.7738
 30
0.0
 10
2.6142
 20
-6.7738
 30
0.0
 10
2.6258
 20
-6.7738
 30
0.0
 10
2.6258
 20
-6.7738
 30
0.0
 10
2.6258
 20
-6.7738
 30
0.0
 10
2.6019
 20
-6.9213
 30
0.0
 10
2.5611
 20
-7.0507
 30
0.0
 10
2.5042
 20
-7.1613
 30
0.0
 10
2.5042
 20
-7.1613
 30
0.0
 10
2.4467
 20
-7.2725
 30
0.0
 10
2.3762
 20
-7.3656
 30
0.0
 10
2.2921
 20
-7.4413
 30
0.0
 10
2.2921
 20
-7.4413
 30
0.0
 10
2.2197
 20
-7.5111
 30
0.0
 10
2.1388
 20
-7.5655
 30
0.0
 10
2.0489
 20
-7.6056
 30
0.0
 10
2.0489
 20
-7.6056
 30
0.0
 10
1.959
 20
-7.6457
 30
0.0
 10
1.8639
 20
-7.6722
 30
0.0
 10
1.7643
 20
-7.6858
 30
0.0
 10
1.7643
 20
-7.6858
 30
0.0
 10
1.7068
 20
-7.6916
 30
0.0
 10
1.655
 20
-7.6961
 30
0.0
 10
1.6104
 20
-7.6987
 30
0.0
 10
1.6104
 20
-7.6987
 30
0.0
 10
1.5658
 20
-7.7013
 30
0.0
 10
1.525
 20
-7.7013
 30
0.0
 10
1.4888
 20
-7.6974
 30
0.0
 10
1.4888
 20
-7.6974
 30
0.0
 10
1.4888
 20
-7.6974
 30
0.0
 10
1.4888
 20
-7.9768
 30
0.0
 10
1.4888
 20
-7.9768
 30
0.0
  0
SPLINE
  5
59
330
1F
100
AcDbEntity
  8
Ilustrace
 62
   250
100
AcDbSpline
210
0.0
220
0.0
230
1.0
 70
    11
 71
     3
 72
    64
 73
    60
 74
     0
 42
0.0000000001
 43
0.0000000001
 40
0.0
 40
0.0
 40
0.0
 40
0.0
 40
0.0625
 40
0.0625
 40
0.0625
 40
0.0625
 40
0.125
 40
0.125
 40
0.125
 40
0.125
 40
0.1875
 40
0.1875
 40
0.1875
 40
0.1875
 40
0.25
 40
0.25
 40
0.25
 40
0.25
 40
0.3125
 40
0.3125
 40
0.3125
 40
0.3125
 40
0.375
 40
0.375
 40
0.375
 40
0.375
 40
0.4375
 40
0.4375
 40
0.4375
 40
0.4375
 40
0.5
 40
0.5
 40
0.5
 40
0.5
 40
0.5625
 40
0.5625
 40
0.5625
 40
0.5625
 40
0.625
 40
0.625
 40
0.625
 40
0.625
 40
0.6875
 40
0.6875
 40
0.6875
 40
0.6875
 40
0.75
 40
0.75
 40
0.75
 40
0.75
 40
0.8125
 40
0.8125
 40
0.8125
 40
0.8125
 40
0.875
 40
0.875
 40
0.875
 40
0.875
 40
1.0
 40
1.0
 40
1.0
 40
1.0
 10
2.1058
 20
-5.633
 30
0.0
 10
2.1957
 20
-5.6336
 30
0.0
 10
2.274
 20
-5.653
 30
0.0
 10
2.3393
 20
-5.6912
 30
0.0
 10
2.3393
 20
-5.6912
 30
0.0
 10
2.4046
 20
-5.7293
 30
0.0
 10
2.459
 20
-5.783
 30
0.0
 10
2.501
 20
-5.8516
 30
0.0
 10
2.501
 20
-5.8516
 30
0.0
 10
2.5437
 20
-5.9201
 30
0.0
 10
2.5747
 20
-6.001
 30
0.0
 10
2.5954
 20
-6.0928
 30
0.0
 10
2.5954
 20
-6.0928
 30
0.0
 10
2.6161
 20
-6.1853
 30
0.0
 10
2.6258
 20
-6.2856
 30
0.0
 10
2.6258
 20
-6.3936
 30
0.0
 10
2.6258
 20
-6.3936
 30
0.0
 10
2.6258
 20
-6.422
 30
0.0
 10
2.6232
 20
-6.4466
 30
0.0
 10
2.6174
 20
-6.466
 30
0.0
 10
2.6174
 20
-6.466
 30
0.0
 10
2.6122
 20
-6.486
 30
0.0
 10
2.6045
 20
-6.5048
 30
0.0
 10
2.5948
 20
-6.5216
 30
0.0
 10
2.5948
 20
-6.5216
 30
0.0
 10
2.565
 20
-6.5727
 30
0.0
 10
2.5256
 20
-6.618
 30
0.0
 10
2.4771
 20
-6.6574
 30
0.0
 10
2.4771
 20
-6.6574
 30
0.0
 10
2.4292
 20
-6.6969
 30
0.0
 10
2.3729
 20
-6.7279
 30
0.0
 10
2.3089
 20
-6.7506
 30
0.0
 10
2.3089
 20
-6.7506
 30
0.0
 10
2.2449
 20
-6.7732
 30
0.0
 10
2.1744
 20
-6.7848
 30
0.0
 10
2.0981
 20
-6.7855
 30
0.0
 10
2.0981
 20
-6.7855
 30
0.0
 10
1.9991
 20
-6.7848
 30
0.0
 10
1.9137
 20
-6.7616
 30
0.0
 10
1.8413
 20
-6.7163
 30
0.0
 10
1.8413
 20
-6.7163
 30
0.0
 10
1.7689
 20
-6.671
 30
0.0
 10
1.7126
 20
-6.6089
 30
0.0
 10
1.6732
 20
-6.5287
 30
0.0
 10
1.6732
 20
-6.5287
 30
0.0
 10
1.6337
 20
-6.4485
 30
0.0
 10
1.6137
 20
-6.3554
 30
0.0
 10
1.613
 20
-6.25
 30
0.0
 10
1.613
 20
-6.25
 30
0.0
 10
1.6137
 20
-6.1284
 30
0.0
 10
1.635
 20
-6.0217
 30
0.0
 10
1.677
 20
-5.9298
 30
0.0
 10
1.677
 20
-5.9298
 30
0.0
 10
1.7191
 20
-5.8374
 30
0.0
 10
1.7766
 20
-5.7649
 30
0.0
 10
1.8504
 20
-5.7125
 30
0.0
 10
1.8504
 20
-5.7125
 30
0.0
 10
1.9241
 20
-5.6601
 30
0.0
 10
2.0095
 20
-5.6336
 30
0.0
 10
2.1058
 20
-5.633
 30
0.0
  0
SPLINE
  5
5A
330
1F
100
AcDbEntity
  8
Ilustrace
 62
   250
100
AcDbSpline
210
0.0
220
0.0
230
1.0
 70
    11
 71
     3
 72
    48
 73
    44
 74
     0
 42
0.0000000001
 43
0.0000000001
 40
0.0
 40
0.0
 40
0.0
 40
0.0
 40
0.0833333333333333
 40
0.0833333333333333
 40
0.0833333333333333
 40
0.0833333333333333
 40
0.1666666666666667
 40
0.1666666666666667
 40
0.1666666666666667
 40
0.1666666666666667
 40
0.25
 40
0.25
 40
0.25
 40
0.25
 40
0.3333333333333333
 40
0.3333333333333333
 40
0.3333333333333333
 40
0.3333333333333333
 40
0.4166666666666667
 40
0.4166666666666667
 40
0.4166666666666667
 40
0.4166666666666667
 40
0.5
 40
0.5
 40
0.5
 40
0.5
 40
0.5833333333333334
 40
0.5833333333333334
 40
0.5833333333333334
 40
0.5833333333333334
 40
0.6666666666666666
 40
0.6666666666666666
 40
0.6666666666666666
 40
0.6666666666666666
 40
0.75
 40
0.75
 40
0.75
 40
0.75
 40
0.8333333333333334
 40
0.8333333333333334
 40
0.8333333333333334
 40
0.8333333333333334
 40
1.0
 40
1.0
 40
1.0
 40
1.0
 10
4.6181
 20
-7.938
 30
0.0
 10
4.6181
 20
-7.938
 30
0.0
 10
4.6181
 20
-7.2473
 30
0.0
 10
4.6181
 20
-7.2473
 30
0.0
 10
4.6181
 20
-7.2473
 30
0.0
 10
4.6181
 20
-7.2473
 30
0.0
 10
4.9712
 20
-7.2473
 30
0.0
 10
4.9712
 20
-7.2473
 30
0.0
 10
4.9712
 20
-7.2473
 30
0.0
 10
4.9712
 20
-7.2473
 30
0.0
 10
4.9712
 20
-6.9834
 30
0.0
 10
4.9712
 20
-6.9834
 30
0.0
 10
4.9712
 20
-6.9834
 30
0.0
 10
4.9712
 20
-6.9834
 30
0.0
 10
4.6181
 20
-6.9834
 30
0.0
 10
4.6181
 20
-6.9834
 30
0.0
 10
4.6181
 20
-6.9834
 30
0.0
 10
4.6181
 20
-6.9834
 30
0.0
 10
4.6181
 20
-5.4157
 30
0.0
 10
4.6181
 20
-5.4157
 30
0.0
 10
4.6181
 20
-5.4157
 30
0.0
 10
4.6181
 20
-5.4157
 30
0.0
 10
4.2495
 20
-5.4157
 30
0.0
 10
4.2495
 20
-5.4157
 30
0.0
 10
4.2495
 20
-5.4157
 30
0.0
 10
4.2495
 20
-5.4157
 30
0.0
 10
3.1241
 20
-7.0261
 30
0.0
 10
3.1241
 20
-7.0261
 30
0.0
 10
3.1241
 20
-7.0261
 30
0.0
 10
3.1241
 20
-7.0261
 30
0.0
 10
3.1241
 20
-7.2473
 30
0.0
 10
3.1241
 20
-7.2473
 30
0.0
 10
3.1241
 20
-7.2473
 30
0.0
 10
3.1241
 20
-7.2473
 30
0.0
 10
4.296
 20
-7.2473
 30
0.0
 10
4.296
 20
-7.2473
 30
0.0
 10
4.296
 20
-7.2473
 30
0.0
 10
4.296
 20
-7.2473
 30
0.0
 10
4.296
 20
-7.938
 30
0.0
 10
4.296
 20
-7.938
 30
0.0
 10
4.296
 20
-7.938
 30
0.0
 10
4.296
 20
-7.938
 30
0.0
 10
4.6181
 20
-7.938
 30
0.0
 10
4.6181
 20
-7.938
 30
0.0
  0
SPLINE
  5
5B
330
1F
100
AcDbEntity
  8
Ilustrace
 62
   250
100
AcDbSpline
210
0.0
220
0.0
230
1.0
 70
    11
 71
     3
 72
    36
 73
    32
 74
     0
 42
0.0000000001
 43
0.0000000001
 40
0.0
 40
0.0
 40
0.0
 40
0.0
 40
0.1111111111111111
 40
0.1111111111111111
 40
0.1111111111111111
 40
0.1111111111111111
 40
0.2222222222222222
 40
0.2222222222222222
 40
0.2222222222222222
 40
0.2222222222222222
 40
0.3333333333333333
 40
0.3333333333333333
 40
0.3333333333333333
 40
0.3333333333333333
 40
0.4444444444444444
 40
0.4444444444444444
 40
0.4444444444444444
 40
0.4444444444444444
 40
0.5555555555555556
 40
0.5555555555555556
 40
0.5555555555555556
 40
0.5555555555555556
 40
0.6666666666666666
 40
0.6666666666666666
 40
0.6666666666666666
 40
0.6666666666666666
 40
0.7777777777777778
 40
0.7777777777777778
 40
0.7777777777777778
 40
0.7777777777777778
 40
1.0
 40
1.0
 40
1.0
 40
1.0
 10
3.4695
 20
-6.9834
 30
0.0
 10
3.4695
 20
-6.9834
 30
0.0
 10
3.4695
 20
-6.9756
 30
0.0
 10
3.4695
 20
-6.9756
 30
0.0
 10
3.4695
 20
-6.9756
 30
0.0
 10
3.4695
 20
-6.9756
 30
0.0
 10
4.0865
 20
-6.118
 30
0.0
 10
4.0865
 20
-6.118
 30
0.0
 10
4.0865
 20
-6.118
 30
0.0
 10
4.1207
 20
-6.0605
 30
0.0
 10
4.155
 20
-6.0023
 30
0.0
 10
4.1887
 20
-5.9434
 30
0.0
 10
4.1887
 20
-5.9434
 30
0.0
 10
4.2216
 20
-5.8839
 30
0.0
 10
4.2579
 20
-5.818
 30
0.0
 10
4.296
 20
-5.7455
 30
0.0
 10
4.296
 20
-5.7455
 30
0.0
 10
4.296
 20
-5.7455
 30
0.0
 10
4.3077
 20
-5.7455
 30
0.0
 10
4.3077
 20
-5.7455
 30
0.0
 10
4.3077
 20
-5.7455
 30
0.0
 10
4.2999
 20
-5.8775
 30
0.0
 10
4.296
 20
-6.0094
 30
0.0
 10
4.296
 20
-6.1413
 30
0.0
 10
4.296
 20
-6.1413
 30
0.0
 10
4.296
 20
-6.1413
 30
0.0
 10
4.296
 20
-6.9834
 30
0.0
 10
4.296
 20
-6.9834
 30
0.0
 10
4.296
 20
-6.9834
 30
0.0
 10
4.296
 20
-6.9834
 30
0.0
 10
3.4695
 20
-6.9834
 30
0.0
 10
3.4695
 20
-6.9834
 30
0.0
  0
SPLINE
  5
5C
330
1F
100
AcDbEntity
  8
Ilustrace
 62
   250
100
AcDbSpline
210
0.0
220
0.0
230
1.0
 70
    11
 71
     3
 72
    48
 73
    44
 74
     0
 42
0.0000000001
 43
0.0000000001
 40
0.0
 40
0.0
 40
0.0
 40
0.0
 40
0.0833333333333333
 40
0.0833333333333333
 40
0.0833333333333333
 40
0.0833333333333333
 40
0.1666666666666667
 40
0.1666666666666667
 40
0.1666666666666667
 40
0.1666666666666667
 40
0.25
 40
0.25
 40
0.25
 40
0.25
 40
0.3333333333333333
 40
0.3333333333333333
 40
0.3333333333333333
 40
0.3333333333333333
 40
0.4166666666666667
 40
0.4166666666666667
 40
0.4166666666666667
 40
0.4166666666666667
 40
0.5
 40
0.5
 40
0.5
 40
0.5
 40
0.5833333333333334
 40
0.5833333333333334
 40
0.5833333333333334
 40
0.5833333333333334
 40
0.6666666666666666
 40
0.6666666666666666
 40
0.6666666666666666
 40
0.6666666666666666
 40
0.75
 40
0.75
 40
0.75
 40
0.75
 40
0.8333333333333334
 40
0.8333333333333334
 40
0.8333333333333334
 40
0.8333333333333334
 40
1.0
 40
1.0
 40
1.0
 40
1.0
 10
6.5677
 20
-7.938
 30
0.0
 10
6.5677
 20
-7.938
 30
0.0
 10
6.5677
 20
-7.2473
 30
0.0
 10
6.5677
 20
-7.2473
 30
0.0
 10
6.5677
 20
-7.2473
 30
0.0
 10
6.5677
 20
-7.2473
 30
0.0
 10
6.9208
 20
-7.2473
 30
0.0
 10
6.9208
 20
-7.2473
 30
0.0
 10
6.9208
 20
-7.2473
 30
0.0
 10
6.9208
 20
-7.2473
 30
0.0
 10
6.9208
 20
-6.9834
 30
0.0
 10
6.9208
 20
-6.9834
 30
0.0
 10
6.9208
 20
-6.9834
 30
0.0
 10
6.9208
 20
-6.9834
 30
0.0
 10
6.5677
 20
-6.9834
 30
0.0
 10
6.5677
 20
-6.9834
 30
0.0
 10
6.5677
 20
-6.9834
 30
0.0
 10
6.5677
 20
-6.9834
 30
0.0
 10
6.5677
 20
-5.4157
 30
0.0
 10
6.5677
 20
-5.4157
 30
0.0
 10
6.5677
 20
-5.4157
 30
0.0
 10
6.5677
 20
-5.4157
 30
0.0
 10
6.1991
 20
-5.4157
 30
0.0
 10
6.1991
 20
-5.4157
 30
0.0
 10
6.1991
 20
-5.4157
 30
0.0
 10
6.1991
 20
-5.4157
 30
0.0
 10
5.0737
 20
-7.0261
 30
0.0
 10
5.0737
 20
-7.0261
 30
0.0
 10
5.0737
 20
-7.0261
 30
0.0
 10
5.0737
 20
-7.0261
 30
0.0
 10
5.0737
 20
-7.2473
 30
0.0
 10
5.0737
 20
-7.2473
 30
0.0
 10
5.0737
 20
-7.2473
 30
0.0
 10
5.0737
 20
-7.2473
 30
0.0
 10
6.2456
 20
-7.2473
 30
0.0
 10
6.2456
 20
-7.2473
 30
0.0
 10
6.2456
 20
-7.2473
 30
0.0
 10
6.2456
 20
-7.2473
 30
0.0
 10
6.2456
 20
-7.938
 30
0.0
 10
6.2456
 20
-7.938
 30
0.0
 10
6.2456
 20
-7.938
 30
0.0
 10
6.2456
 20
-7.938
 30
0.0
 10
6.5677
 20
-7.938
 30
0.0
 10
6.5677
 20
-7.938
 30
0.0
  0
SPLINE
  5
5D
330
1F
100
AcDbEntity
  8
Ilustrace
 62
   250
100
AcDbSpline
210
0.0
220
0.0
230
1.0
 70
    11
 71
     3
 72
    36
 73
    32
 74
     0
 42
0.0000000001
 43
0.0000000001
 40
0.0
 40
0.0
 40
0.0
 40
0.0
 40
0.1111111111111111
 40
0.1111111111111111
 40
0.1111111111111111
 40
0.1111111111111111
 40
0.2222222222222222
 40
0.2222222222222222
 40
0.2222222222222222
 40
0.2222222222222222
 40
0.3333333333333333
 40
0.3333333333333333
 40
0.3333333333333333
 40
0.3333333333333333
 40
0.4444444444444444
 40
0.4444444444444444
 40
0.4444444444444444
 40
0.4444444444444444
 40
0.5555555555555556
 40
0.5555555555555556
 40
0.5555555555555556
 40
0.5555555555555556
 40
0.6666666666666666
 40
0.6666666666666666
 40
0.6666666666666666
 40
0.6666666666666666
 40
0.7777777777777778
 40
0.7777777777777778
 40
0.7777777777777778
 40
0.7777777777777778
 40
1.0
 40
1.0
 40
1.0
 40
1.0
 10
5.4191
 20
-6.9834
 30
0.0
 10
5.4191
 20
-6.9834
 30
0.0
 10
5.4191
 20
-6.9756
 30
0.0
 10
5.4191
 20
-6.9756
 30
0.0
 10
5.4191
 20
-6.9756
 30
0.0
 10
5.4191
 20
-6.9756
 30
0.0
 10
6.0361
 20
-6.118
 30
0.0
 10
6.0361
 20
-6.118
 30
0.0
 10
6.0361
 20
-6.118
 30
0.0
 10
6.0703
 20
-6.0605
 30
0.0
 10
6.1046
 20
-6.0023
 30
0.0
 10
6.1383
 20
-5.9434
 30
0.0
 10
6.1383
 20
-5.9434
 30
0.0
 10
6.1712
 20
-5.8839
 30
0.0
 10
6.2075
 20
-5.818
 30
0.0
 10
6.2456
 20
-5.7455
 30
0.0
 10
6.2456
 20
-5.7455
 30
0.0
 10
6.2456
 20
-5.7455
 30
0.0
 10
6.2573
 20
-5.7455
 30
0.0
 10
6.2573
 20
-5.7455
 30
0.0
 10
6.2573
 20
-5.7455
 30
0.0
 10
6.2495
 20
-5.8775
 30
0.0
 10
6.2456
 20
-6.0094
 30
0.0
 10
6.2456
 20
-6.1413
 30
0.0
 10
6.2456
 20
-6.1413
 30
0.0
 10
6.2456
 20
-6.1413
 30
0.0
 10
6.2456
 20
-6.9834
 30
0.0
 10
6.2456
 20
-6.9834
 30
0.0
 10
6.2456
 20
-6.9834
 30
0.0
 10
6.2456
 20
-6.9834
 30
0.0
 10
5.4191
 20
-6.9834
 30
0.0
 10
5.4191
 20
-6.9834
 30
0.0
  0
SPLINE
  5
5E
330
1F
100
AcDbEntity
  8
Ilustrace
 62
   250
100
AcDbSpline
210
0.0
220
0.0
230
1.0
 70
    11
 71
     3
 72
    68
 73
    64
 74
     0
 42
0.0000000001
 43
0.0000000001
 40
0.0
 40
0.0
 40
0.0
 40
0.0
 40
0.0588235294117647
 40
0.0588235294117647
 40
0.0588235294117647
 40
0.0588235294117647
 40
0.1176470588235294
 40
0.1176470588235294
 40
0.1176470588235294
 40
0.1176470588235294
 40
0.1764705882352941
 40
0.1764705882352941
 40
0.1764705882352941
 40
0.1764705882352941
 40
0.2352941176470588
 40
0.2352941176470588
 40
0.2352941176470588
 40
0.2352941176470588
 40
0.2941176470588235
 40
0.2941176470588235
 40
0.2941176470588235
 40
0.2941176470588235
 40
0.3529411764705883
 40
0.3529411764705883
 40
0.3529411764705883
 40
0.3529411764705883
 40
0.4117647058823529
 40
0.4117647058823529
 40
0.4117647058823529
 40
0.4117647058823529
 40
0.4705882352941176
 40
0.4705882352941176
 40
0.4705882352941176
 40
0.4705882352941176
 40
0.5294117647058824
 40
0.5294117647058824
 40
0.5294117647058824
 40
0.5294117647058824
 40
0.5882352941176471
 40
0.5882352941176471
 40
0.5882352941176471
 40
0.5882352941176471
 40
0.6470588235294118
 40
0.6470588235294118
 40
0.6470588235294118
 40
0.6470588235294118
 40
0.7058823529411765
 40
0.7058823529411765
 40
0.7058823529411765
 40
0.7058823529411765
 40
0.7647058823529411
 40
0.7647058823529411
 40
0.7647058823529411
 40
0.7647058823529411
 40
0.8235294117647058
 40
0.8235294117647058
 40
0.8235294117647058
 40
0.8235294117647058
 40
0.8823529411764706
 40
0.8823529411764706
 40
0.8823529411764706
 40
0.8823529411764706
 40
1.0
 40
1.0
 40
1.0
 40
1.0
 10
7.3066
 20
-8.4075
 30
0.0
 10
7.3687
 20
-8.3261
 30
0.0
 10
7.4288
 20
-8.2336
 30
0.0
 10
7.489
 20
-8.1294
 30
0.0
 10
7.489
 20
-8.1294
 30
0.0
 10
7.5485
 20
-8.0253
 30
0.0
 10
7.6021
 20
-7.9089
 30
0.0
 10
7.6513
 20
-7.7789
 30
0.0
 10
7.6513
 20
-7.7789
 30
0.0
 10
7.6998
 20
-7.6489
 30
0.0
 10
7.7386
 20
-7.5053
 30
0.0
 10
7.7684
 20
-7.3469
 30
0.0
 10
7.7684
 20
-7.3469
 30
0.0
 10
7.7975
 20
-7.1884
 30
0.0
 10
7.813
 20
-7.0144
 30
0.0
 10
7.8149
 20
-6.8243
 30
0.0
 10
7.8149
 20
-6.8243
 30
0.0
 10
7.8143
 20
-6.6342
 30
0.0
 10
7.7994
 20
-6.4602
 30
0.0
 10
7.7697
 20
-6.3011
 30
0.0
 10
7.7697
 20
-6.3011
 30
0.0
 10
7.7406
 20
-6.1426
 30
0.0
 10
7.7017
 20
-5.9984
 30
0.0
 10
7.6526
 20
-5.8684
 30
0.0
 10
7.6526
 20
-5.8684
 30
0.0
 10
7.6034
 20
-5.739
 30
0.0
 10
7.5491
 20
-5.6226
 30
0.0
 10
7.489
 20
-5.5192
 30
0.0
 10
7.489
 20
-5.5192
 30
0.0
 10
7.4295
 20
-5.4157
 30
0.0
 10
7.3687
 20
-5.3245
 30
0.0
 10
7.3066
 20
-5.2449
 30
0.0
 10
7.3066
 20
-5.2449
 30
0.0
 10
7.3066
 20
-5.2449
 30
0.0
 10
7.0427
 20
-5.2449
 30
0.0
 10
7.0427
 20
-5.2449
 30
0.0
 10
7.0427
 20
-5.2449
 30
0.0
 10
7.1352
 20
-5.3736
 30
0.0
 10
7.218
 20
-5.5159
 30
0.0
 10
7.2911
 20
-5.6718
 30
0.0
 10
7.2911
 20
-5.6718
 30
0.0
 10
7.3635
 20
-5.8277
 30
0.0
 10
7.4211
 20
-6.0003
 30
0.0
 10
7.4631
 20
-6.1905
 30
0.0
 10
7.4631
 20
-6.1905
 30
0.0
 10
7.5051
 20
-6.3806
 30
0.0
 10
7.5271
 20
-6.5921
 30
0.0
 10
7.5278
 20
-6.8243
 30
0.0
 10
7.5278
 20
-6.8243
 30
0.0
 10
7.5271
 20
-7.0565
 30
0.0
 10
7.5051
 20
-7.2686
 30
0.0
 10
7.4625
 20
-7.4601
 30
0.0
 10
7.4625
 20
-7.4601
 30
0.0
 10
7.4198
 20
-7.6515
 30
0.0
 10
7.3622
 20
-7.8248
 30
0.0
 10
7.2891
 20
-7.9813
 30
0.0
 10
7.2891
 20
-7.9813
 30
0.0
 10
7.2167
 20
-8.1378
 30
0.0
 10
7.1345
 20
-8.2801
 30
0.0
 10
7.0427
 20
-8.4075
 30
0.0
 10
7.0427
 20
-8.4075
 30
0.0
 10
7.0427
 20
-8.4075
 30
0.0
 10
7.3066
 20
-8.4075
 30
0.0
 10
7.3066
 20
-8.4075
 30
0.0
  0
SPLINE
  5
5F
330
1F
100
AcDbEntity
  8
Ilustrace
 62
   250
370
    15
100
AcDbSpline
210
0.0
220
0.0
230
1.0
 70
    24
 71
     3
 72
     8
 73
     4
 74
     0
 42
0.0000000001
 43
0.0000000001
 40
0.0
 40
0.0
 40
0.0
 40
0.0
 40
1.0
 40
1.0
 40
1.0
 40
1.0
 10
-82.5321
 20
-9.9852
 30
0.0
 10
-82.5321
 20
-9.9852
 30
0.0
 10
-82.5321
 20
-2.586
 30
0.0
 10
-82.5321
 20
-2.586
 30
0.0
  0
SPLINE
  5
60
330
1F
100
AcDbEntity
  8
Ilustrace
 62
   250
370
    18
100
AcDbSpline
210
0.0
220
0.0
230
1.0
 70
    24
 71
     3
 72
     8
 73
     4
 74
     0
 42
0.0000000001
 43
0.0000000001
 40
0.0
 40
0.0
 40
0.0
 40
0.0
 40
1.0
 40
1.0
 40
1.0
 40
1.0
 10
79.4535
 20
-9.9951
 30
0.0
 10
79.4535
 20
-9.9951
 30
0.0
 10
79.4535
 20
-2.4792
 30
0.0
 10
79.4535
 20
-2.4792
 30
0.0
  0
SPLINE
  5
61
330
1F
100
AcDbEntity
  8
Ilustrace
 62
   250
370
    18
100
AcDbSpline
210
0.0
220
0.0
230
1.0
 70
    24
 71
     3
 72
     8
 73
     4
 74
     0
 42
0.0000000001
 43
0.0000000001
 40
0.0
 40
0.0
 40
0.0
 40
0.0
 40
1.0
 40
1.0
 40
1.0
 40
1.0
 10
72.2493
 20
-9.3765
 30
0.0
 10
72.2493
 20
-9.3765
 30
0.0
 10
81.124
 20
-9.3765
 30
0.0
 10
81.124
 20
-9.3765
 30
0.0
  0
SPLINE
  5
62
330
1F
100
AcDbEntity
  8
Ilustrace
 62
   250
100
AcDbSpline
210
0.0
220
0.0
230
1.0
 70
    11
 71
     3
 72
   124
 73
   120
 74
     0
 42
0.0000000001
 43
0.0000000001
 40
0.0
 40
0.0
 40
0.0
 40
0.0
 40
0.032258064516129
 40
0.032258064516129
 40
0.032258064516129
 40
0.032258064516129
 40
0.0645161290322581
 40
0.0645161290322581
 40
0.0645161290322581
 40
0.0645161290322581
 40
0.0967741935483871
 40
0.0967741935483871
 40
0.0967741935483871
 40
0.0967741935483871
 40
0.1290322580645161
 40
0.1290322580645161
 40
0.1290322580645161
 40
0.1290322580645161
 40
0.1612903225806452
 40
0.1612903225806452
 40
0.1612903225806452
 40
0.1612903225806452
 40
0.1935483870967742
 40
0.1935483870967742
 40
0.1935483870967742
 40
0.1935483870967742
 40
0.2258064516129032
 40
0.2258064516129032
 40
0.2258064516129032
 40
0.2258064516129032
 40
0.2580645161290323
 40
0.2580645161290323
 40
0.2580645161290323
 40
0.2580645161290323
 40
0.2903225806451613
 40
0.2903225806451613
 40
0.2903225806451613
 40
0.2903225806451613
 40
0.3225806451612903
 40
0.3225806451612903
 40
0.3225806451612903
 40
0.3225806451612903
 40
0.3548387096774194
 40
0.3548387096774194
 40
0.3548387096774194
 40
0.3548387096774194
 40
0.3870967741935484
 40
0.3870967741935484
 40
0.3870967741935484
 40
0.3870967741935484
 40
0.4193548387096774
 40
0.4193548387096774
 40
0.4193548387096774
 40
0.4193548387096774
 40
0.4516129032258064
 40
0.4516129032258064
 40
0.4516129032258064
 40
0.4516129032258064
 40
0.4838709677419355
 40
0.4838709677419355
 40
0.4838709677419355
 40
0.4838709677419355
 40
0.5161290322580645
 40
0.5161290322580645
 40
0.5161290322580645
 40
0.5161290322580645
 40
0.5483870967741935
 40
0.5483870967741935
 40
0.5483870967741935
 40
0.5483870967741935
 40
0.5806451612903226
 40
0.5806451612903226
 40
0.5806451612903226
 40
0.5806451612903226
 40
0.6129032258064516
 40
0.6129032258064516
 40
0.6129032258064516
 40
0.6129032258064516
 40
0.6451612903225806
 40
0.6451612903225806
 40
0.6451612903225806
 40
0.6451612903225806
 40
0.6774193548387096
 40
0.6774193548387096
 40
0.6774193548387096
 40
0.6774193548387096
 40
0.7096774193548387
 40
0.7096774193548387
 40
0.7096774193548387
 40
0.7096774193548387
 40
0.7419354838709677
 40
0.7419354838709677
 40
0.7419354838709677
 40
0.7419354838709677
 40
0.7741935483870968
 40
0.7741935483870968
 40
0.7741935483870968
 40
0.7741935483870968
 40
0.8064516129032258
 40
0.8064516129032258
 40
0.8064516129032258
 40
0.8064516129032258
 40
0.8387096774193549
 40
0.8387096774193549
 40
0.8387096774193549
 40
0.8387096774193549
 40
0.8709677419354839
 40
0.8709677419354839
 40
0.8709677419354839
 40
0.8709677419354839
 40
0.9032258064516129
 40
0.9032258064516129
 40
0.9032258064516129
 40
0.9032258064516129
 40
0.9354838709677419
 40
0.9354838709677419
 40
0.9354838709677419
 40
0.9354838709677419
 40
1.0
 40
1.0
 40
1.0
 40
1.0
 10
76.7153
 20
-8.8705
 30
0.0
 10
76.7153
 20
-8.8705
 30
0.0
 10
76.7153
 20
-8.5872
 30
0.0
 10
76.7153
 20
-8.5872
 30
0.0
 10
76.7153
 20
-8.5872
 30
0.0
 10
76.7153
 20
-8.5872
 30
0.0
 10
75.5861
 20
-8.5872
 30
0.0
 10
75.5861
 20
-8.5872
 30
0.0
 10
75.5861
 20
-8.5872
 30
0.0
 10
75.5861
 20
-8.5872
 30
0.0
 10
75.5861
 20
-8.5795
 30
0.0
 10
75.5861
 20
-8.5795
 30
0.0
 10
75.5861
 20
-8.5795
 30
0.0
 10
75.5861
 20
-8.5795
 30
0.0
 10
75.784
 20
-8.3932
 30
0.0
 10
75.784
 20
-8.3932
 30
0.0
 10
75.784
 20
-8.3932
 30
0.0
 10
75.9172
 20
-8.2658
 30
0.0
 10
76.0375
 20
-8.1448
 30
0.0
 10
76.1442
 20
-8.031
 30
0.0
 10
76.1442
 20
-8.031
 30
0.0
 10
76.251
 20
-7.9172
 30
0.0
 10
76.3422
 20
-7.8059
 30
0.0
 10
76.4178
 20
-7.6986
 30
0.0
 10
76.4178
 20
-7.6986
 30
0.0
 10
76.4941
 20
-7.5912
 30
0.0
 10
76.5517
 20
-7.4832
 30
0.0
 10
76.5924
 20
-7.3746
 30
0.0
 10
76.5924
 20
-7.3746
 30
0.0
 10
76.6325
 20
-7.2666
 30
0.0
 10
76.6526
 20
-7.1547
 30
0.0
 10
76.6532
 20
-7.0389
 30
0.0
 10
76.6532
 20
-7.0389
 30
0.0
 10
76.6532
 20
-6.9477
 30
0.0
 10
76.639
 20
-6.8585
 30
0.0
 10
76.6093
 20
-6.7718
 30
0.0
 10
76.6093
 20
-6.7718
 30
0.0
 10
76.5795
 20
-6.6851
 30
0.0
 10
76.5329
 20
-6.6069
 30
0.0
 10
76.4709
 20
-6.537
 30
0.0
 10
76.4709
 20
-6.537
 30
0.0
 10
76.4088
 20
-6.4665
 30
0.0
 10
76.3286
 20
-6.4109
 30
0.0
 10
76.2309
 20
-6.3695
 30
0.0
 10
76.2309
 20
-6.3695
 30
0.0
 10
76.1333
 20
-6.3275
 30
0.0
 10
76.0168
 20
-6.3061
 30
0.0
 10
75.881
 20
-6.3055
 30
0.0
 10
75.881
 20
-6.3055
 30
0.0
 10
75.7853
 20
-6.3061
 30
0.0
 10
75.6941
 20
-6.3171
 30
0.0
 10
75.6074
 20
-6.3398
 30
0.0
 10
75.6074
 20
-6.3398
 30
0.0
 10
75.5208
 20
-6.3624
 30
0.0
 10
75.4406
 20
-6.3928
 30
0.0
 10
75.3669
 20
-6.4316
 30
0.0
 10
75.3669
 20
-6.4316
 30
0.0
 10
75.2938
 20
-6.4698
 30
0.0
 10
75.2285
 20
-6.5131
 30
0.0
 10
75.1709
 20
-6.5616
 30
0.0
 10
75.1709
 20
-6.5616
 30
0.0
 10
75.1709
 20
-6.5616
 30
0.0
 10
75.2795
 20
-6.8022
 30
0.0
 10
75.2795
 20
-6.8022
 30
0.0
 10
75.2795
 20
-6.8022
 30
0.0
 10
75.3184
 20
-6.7692
 30
0.0
 10
75.3649
 20
-6.7362
 30
0.0
 10
75.4192
 20
-6.7039
 30
0.0
 10
75.4192
 20
-6.7039
 30
0.0
 10
75.4736
 20
-6.6709
 30
0.0
 10
75.5337
 20
-6.6444
 30
0.0
 10
75.6003
 20
-6.6224
 30
0.0
 10
75.6003
 20
-6.6224
 30
0.0
 10
75.6669
 20
-6.6011
 30
0.0
 10
75.7387
 20
-6.5894
 30
0.0
 10
75.8151
 20
-6.5888
 30
0.0
 10
75.8151
 20
-6.5888
 30
0.0
 10
75.9088
 20
-6.5894
 30
0.0
 10
75.9877
 20
-6.603
 30
0.0
 10
76.0518
 20
-6.6295
 30
0.0
 10
76.0518
 20
-6.6295
 30
0.0
 10
76.1151
 20
-6.6567
 30
0.0
 10
76.1662
 20
-6.6929
 30
0.0
 10
76.2044
 20
-6.7388
 30
0.0
 10
76.2044
 20
-6.7388
 30
0.0
 10
76.2426
 20
-6.7854
 30
0.0
 10
76.2704
 20
-6.8378
 30
0.0
 10
76.2872
 20
-6.8966
 30
0.0
 10
76.2872
 20
-6.8966
 30
0.0
 10
76.304
 20
-6.9555
 30
0.0
 10
76.3124
 20
-7.0169
 30
0.0
 10
76.3118
 20
-7.0816
 30
0.0
 10
76.3118
 20
-7.0816
 30
0.0
 10
76.3118
 20
-7.176
 30
0.0
 10
76.293
 20
-7.2691
 30
0.0
 10
76.2555
 20
-7.3616
 30
0.0
 10
76.2555
 20
-7.3616
 30
0.0
 10
76.218
 20
-7.4548
 30
0.0
 10
76.1611
 20
-7.5518
 30
0.0
 10
76.0841
 20
-7.654
 30
0.0
 10
76.0841
 20
-7.654
 30
0.0
 10
76.0071
 20
-7.7561
 30
0.0
 10
75.9095
 20
-7.868
 30
0.0
 10
75.7911
 20
-7.9896
 30
0.0
 10
75.7911
 20
-7.9896
 30
0.0
 10
75.6734
 20
-8.1112
 30
0.0
 10
75.5337
 20
-8.2483
 30
0.0
 10
75.3727
 20
-8.401
 30
0.0
 10
75.3727
 20
-8.401
 30
0.0
 10
75.3727
 20
-8.401
 30
0.0
 10
75.1049
 20
-8.661
 30
0.0
 10
75.1049
 20
-8.661
 30
0.0
 10
75.1049
 20
-8.661
 30
0.0
 10
75.1049
 20
-8.661
 30
0.0
 10
75.1049
 20
-8.8705
 30
0.0
 10
75.1049
 20
-8.8705
 30
0.0
 10
75.1049
 20
-8.8705
 30
0.0
 10
75.1049
 20
-8.8705
 30
0.0
 10
76.7153
 20
-8.8705
 30
0.0
 10
76.7153
 20
-8.8705
 30
0.0
  0
SPLINE
  5
63
330
1F
100
AcDbEntity
  8
Ilustrace
 62
   250
100
AcDbSpline
210
0.0
220
0.0
230
1.0
 70
    11
 71
     3
 72
   124
 73
   120
 74
     0
 42
0.0000000001
 43
0.0000000001
 40
0.0
 40
0.0
 40
0.0
 40
0.0
 40
0.032258064516129
 40
0.032258064516129
 40
0.032258064516129
 40
0.032258064516129
 40
0.0645161290322581
 40
0.0645161290322581
 40
0.0645161290322581
 40
0.0645161290322581
 40
0.0967741935483871
 40
0.0967741935483871
 40
0.0967741935483871
 40
0.0967741935483871
 40
0.1290322580645161
 40
0.1290322580645161
 40
0.1290322580645161
 40
0.1290322580645161
 40
0.1612903225806452
 40
0.1612903225806452
 40
0.1612903225806452
 40
0.1612903225806452
 40
0.1935483870967742
 40
0.1935483870967742
 40
0.1935483870967742
 40
0.1935483870967742
 40
0.2258064516129032
 40
0.2258064516129032
 40
0.2258064516129032
 40
0.2258064516129032
 40
0.2580645161290323
 40
0.2580645161290323
 40
0.2580645161290323
 40
0.2580645161290323
 40
0.2903225806451613
 40
0.2903225806451613
 40
0.2903225806451613
 40
0.2903225806451613
 40
0.3225806451612903
 40
0.3225806451612903
 40
0.3225806451612903
 40
0.3225806451612903
 40
0.3548387096774194
 40
0.3548387096774194
 40
0.3548387096774194
 40
0.3548387096774194
 40
0.3870967741935484
 40
0.3870967741935484
 40
0.3870967741935484
 40
0.3870967741935484
 40
0.4193548387096774
 40
0.4193548387096774
 40
0.4193548387096774
 40
0.4193548387096774
 40
0.4516129032258064
 40
0.4516129032258064
 40
0.4516129032258064
 40
0.4516129032258064
 40
0.4838709677419355
 40
0.4838709677419355
 40
0.4838709677419355
 40
0.4838709677419355
 40
0.5161290322580645
 40
0.5161290322580645
 40
0.5161290322580645
 40
0.5161290322580645
 40
0.5483870967741935
 40
0.5483870967741935
 40
0.5483870967741935
 40
0.5483870967741935
 40
0.5806451612903226
 40
0.5806451612903226
 40
0.5806451612903226
 40
0.5806451612903226
 40
0.6129032258064516
 40
0.6129032258064516
 40
0.6129032258064516
 40
0.6129032258064516
 40
0.6451612903225806
 40
0.6451612903225806
 40
0.6451612903225806
 40
0.6451612903225806
 40
0.6774193548387096
 40
0.6774193548387096
 40
0.6774193548387096
 40
0.6774193548387096
 40
0.7096774193548387
 40
0.7096774193548387
 40
0.7096774193548387
 40
0.7096774193548387
 40
0.7419354838709677
 40
0.7419354838709677
 40
0.7419354838709677
 40
0.7419354838709677
 40
0.7741935483870968
 40
0.7741935483870968
 40
0.7741935483870968
 40
0.7741935483870968
 40
0.8064516129032258
 40
0.8064516129032258
 40
0.8064516129032258
 40
0.8064516129032258
 40
0.8387096774193549
 40
0.8387096774193549
 40
0.8387096774193549
 40
0.8387096774193549
 40
0.8709677419354839
 40
0.8709677419354839
 40
0.8709677419354839
 40
0.8709677419354839
 40
0.9032258064516129
 40
0.9032258064516129
 40
0.9032258064516129
 40
0.9032258064516129
 40
0.9354838709677419
 40
0.9354838709677419
 40
0.9354838709677419
 40
0.9354838709677419
 40
1.0
 40
1.0
 40
1.0
 40
1.0
 10
78.5353
 20
-6.3094
 30
0.0
 10
78.5042
 20
-6.3094
 30
0.0
 10
78.4674
 20
-6.3107
 30
0.0
 10
78.426
 20
-6.3133
 30
0.0
 10
78.426
 20
-6.3133
 30
0.0
 10
78.3839
 20
-6.3158
 30
0.0
 10
78.3374
 20
-6.321
 30
0.0
 10
78.2869
 20
-6.3288
 30
0.0
 10
78.2869
 20
-6.3288
 30
0.0
 10
78.1272
 20
-6.3482
 30
0.0
 10
77.9791
 20
-6.3896
 30
0.0
 10
77.8426
 20
-6.4523
 30
0.0
 10
77.8426
 20
-6.4523
 30
0.0
 10
77.7062
 20
-6.515
 30
0.0
 10
77.5852
 20
-6.5978
 30
0.0
 10
77.4798
 20
-6.7013
 30
0.0
 10
77.4798
 20
-6.7013
 30
0.0
 10
77.3951
 20
-6.7841
 30
0.0
 10
77.3207
 20
-6.8824
 30
0.0
 10
77.2573
 20
-6.9962
 30
0.0
 10
77.2573
 20
-6.9962
 30
0.0
 10
77.1933
 20
-7.1094
 30
0.0
 10
77.1435
 20
-7.2368
 30
0.0
 10
77.1073
 20
-7.3778
 30
0.0
 10
77.1073
 20
-7.3778
 30
0.0
 10
77.0717
 20
-7.5188
 30
0.0
 10
77.0536
 20
-7.6727
 30
0.0
 10
77.0529
 20
-7.8383
 30
0.0
 10
77.0529
 20
-7.8383
 30
0.0
 10
77.0536
 20
-8.0026
 30
0.0
 10
77.0749
 20
-8.1507
 30
0.0
 10
77.1163
 20
-8.2826
 30
0.0
 10
77.1163
 20
-8.2826
 30
0.0
 10
77.1584
 20
-8.4152
 30
0.0
 10
77.2185
 20
-8.5277
 30
0.0
 10
77.2968
 20
-8.6215
 30
0.0
 10
77.2968
 20
-8.6215
 30
0.0
 10
77.3744
 20
-8.7153
 30
0.0
 10
77.4682
 20
-8.7877
 30
0.0
 10
77.5768
 20
-8.8375
 30
0.0
 10
77.5768
 20
-8.8375
 30
0.0
 10
77.6855
 20
-8.8873
 30
0.0
 10
77.807
 20
-8.9125
 30
0.0
 10
77.9416
 20
-8.9132
 30
0.0
 10
77.9416
 20
-8.9132
 30
0.0
 10
78.0735
 20
-8.9119
 30
0.0
 10
78.1919
 20
-8.8873
 30
0.0
 10
78.296
 20
-8.8395
 30
0.0
 10
78.296
 20
-8.8395
 30
0.0
 10
78.3995
 20
-8.7909
 30
0.0
 10
78.4881
 20
-8.725
 30
0.0
 10
78.5605
 20
-8.6416
 30
0.0
 10
78.5605
 20
-8.6416
 30
0.0
 10
78.6329
 20
-8.5581
 30
0.0
 10
78.6886
 20
-8.463
 30
0.0
 10
78.7261
 20
-8.3563
 30
0.0
 10
78.7261
 20
-8.3563
 30
0.0
 10
78.7642
 20
-8.2503
 30
0.0
 10
78.7836
 20
-8.1384
 30
0.0
 10
78.7836
 20
-8.0207
 30
0.0
 10
78.7836
 20
-8.0207
 30
0.0
 10
78.783
 20
-7.8978
 30
0.0
 10
78.7642
 20
-7.7865
 30
0.0
 10
78.7274
 20
-7.6869
 30
0.0
 10
78.7274
 20
-7.6869
 30
0.0
 10
78.6905
 20
-7.5873
 30
0.0
 10
78.6381
 20
-7.5013
 30
0.0
 10
78.5709
 20
-7.4295
 30
0.0
 10
78.5709
 20
-7.4295
 30
0.0
 10
78.503
 20
-7.3584
 30
0.0
 10
78.4228
 20
-7.3028
 30
0.0
 10
78.3303
 20
-7.2646
 30
0.0
 10
78.3303
 20
-7.2646
 30
0.0
 10
78.2378
 20
-7.2258
 30
0.0
 10
78.1349
 20
-7.2064
 30
0.0
 10
78.0231
 20
-7.2058
 30
0.0
 10
78.0231
 20
-7.2058
 30
0.0
 10
77.9299
 20
-7.2064
 30
0.0
 10
77.8446
 20
-7.22
 30
0.0
 10
77.7669
 20
-7.2459
 30
0.0
 10
77.7669
 20
-7.2459
 30
0.0
 10
77.6893
 20
-7.2724
 30
0.0
 10
77.6201
 20
-7.3073
 30
0.0
 10
77.56
 20
-7.3519
 30
0.0
 10
77.56
 20
-7.3519
 30
0.0
 10
77.5005
 20
-7.3959
 30
0.0
 10
77.45
 20
-7.4457
 30
0.0
 10
77.4099
 20
-7.5007
 30
0.0
 10
77.4099
 20
-7.5007
 30
0.0
 10
77.4099
 20
-7.5007
 30
0.0
 10
77.4022
 20
-7.5007
 30
0.0
 10
77.4022
 20
-7.5007
 30
0.0
 10
77.4022
 20
-7.5007
 30
0.0
 10
77.4164
 20
-7.3953
 30
0.0
 10
77.4449
 20
-7.2937
 30
0.0
 10
77.4882
 20
-7.1961
 30
0.0
 10
77.4882
 20
-7.1961
 30
0.0
 10
77.5309
 20
-7.0991
 30
0.0
 10
77.5878
 20
-7.0098
 30
0.0
 10
77.6602
 20
-6.929
 30
0.0
 10
77.6602
 20
-6.929
 30
0.0
 10
77.7327
 20
-6.8488
 30
0.0
 10
77.82
 20
-6.7802
 30
0.0
 10
77.9228
 20
-6.7246
 30
0.0
 10
77.9228
 20
-6.7246
 30
0.0
 10
78.0256
 20
-6.669
 30
0.0
 10
78.1447
 20
-6.6302
 30
0.0
 10
78.2792
 20
-6.6082
 30
0.0
 10
78.2792
 20
-6.6082
 30
0.0
 10
78.3277
 20
-6.6004
 30
0.0
 10
78.3742
 20
-6.5946
 30
0.0
 10
78.4176
 20
-6.5914
 30
0.0
 10
78.4176
 20
-6.5914
 30
0.0
 10
78.4609
 20
-6.5875
 30
0.0
 10
78.5004
 20
-6.5868
 30
0.0
 10
78.5353
 20
-6.5888
 30
0.0
 10
78.5353
 20
-6.5888
 30
0.0
 10
78.5353
 20
-6.5888
 30
0.0
 10
78.5353
 20
-6.3094
 30
0.0
 10
78.5353
 20
-6.3094
 30
0.0
  0
SPLINE
  5
64
330
1F
100
AcDbEntity
  8
Ilustrace
 62
   250
100
AcDbSpline
210
0.0
220
0.0
230
1.0
 70
    11
 71
     3
 72
    64
 73
    60
 74
     0
 42
0.0000000001
 43
0.0000000001
 40
0.0
 40
0.0
 40
0.0
 40
0.0
 40
0.0625
 40
0.0625
 40
0.0625
 40
0.0625
 40
0.125
 40
0.125
 40
0.125
 40
0.125
 40
0.1875
 40
0.1875
 40
0.1875
 40
0.1875
 40
0.25
 40
0.25
 40
0.25
 40
0.25
 40
0.3125
 40
0.3125
 40
0.3125
 40
0.3125
 40
0.375
 40
0.375
 40
0.375
 40
0.375
 40
0.4375
 40
0.4375
 40
0.4375
 40
0.4375
 40
0.5
 40
0.5
 40
0.5
 40
0.5
 40
0.5625
 40
0.5625
 40
0.5625
 40
0.5625
 40
0.625
 40
0.625
 40
0.625
 40
0.625
 40
0.6875
 40
0.6875
 40
0.6875
 40
0.6875
 40
0.75
 40
0.75
 40
0.75
 40
0.75
 40
0.8125
 40
0.8125
 40
0.8125
 40
0.8125
 40
0.875
 40
0.875
 40
0.875
 40
0.875
 40
1.0
 40
1.0
 40
1.0
 40
1.0
 10
77.9493
 20
-8.6493
 30
0.0
 10
77.8588
 20
-8.6487
 30
0.0
 10
77.7792
 20
-8.6306
 30
0.0
 10
77.71
 20
-8.5943
 30
0.0
 10
77.71
 20
-8.5943
 30
0.0
 10
77.6415
 20
-8.5581
 30
0.0
 10
77.5833
 20
-8.5077
 30
0.0
 10
77.5361
 20
-8.4424
 30
0.0
 10
77.5361
 20
-8.4424
 30
0.0
 10
77.4888
 20
-8.377
 30
0.0
 10
77.4533
 20
-8.3001
 30
0.0
 10
77.4287
 20
-8.2121
 30
0.0
 10
77.4287
 20
-8.2121
 30
0.0
 10
77.4041
 20
-8.1242
 30
0.0
 10
77.3918
 20
-8.0278
 30
0.0
 10
77.3905
 20
-7.9237
 30
0.0
 10
77.3905
 20
-7.9237
 30
0.0
 10
77.3905
 20
-7.8926
 30
0.0
 10
77.3944
 20
-7.8655
 30
0.0
 10
77.4009
 20
-7.8409
 30
0.0
 10
77.4009
 20
-7.8409
 30
0.0
 10
77.4074
 20
-7.8169
 30
0.0
 10
77.4158
 20
-7.7956
 30
0.0
 10
77.4255
 20
-7.7762
 30
0.0
 10
77.4255
 20
-7.7762
 30
0.0
 10
77.4572
 20
-7.7135
 30
0.0
 10
77.4979
 20
-7.6591
 30
0.0
 10
77.549
 20
-7.6126
 30
0.0
 10
77.549
 20
-7.6126
 30
0.0
 10
77.5994
 20
-7.5667
 30
0.0
 10
77.6564
 20
-7.5304
 30
0.0
 10
77.7197
 20
-7.5046
 30
0.0
 10
77.7197
 20
-7.5046
 30
0.0
 10
77.7831
 20
-7.4793
 30
0.0
 10
77.8491
 20
-7.4658
 30
0.0
 10
77.9183
 20
-7.4658
 30
0.0
 10
77.9183
 20
-7.4658
 30
0.0
 10
78.0237
 20
-7.4664
 30
0.0
 10
78.1149
 20
-7.4897
 30
0.0
 10
78.1932
 20
-7.5356
 30
0.0
 10
78.1932
 20
-7.5356
 30
0.0
 10
78.2708
 20
-7.5815
 30
0.0
 10
78.3309
 20
-7.6475
 30
0.0
 10
78.3736
 20
-7.7335
 30
0.0
 10
78.3736
 20
-7.7335
 30
0.0
 10
78.4163
 20
-7.8195
 30
0.0
 10
78.4376
 20
-7.923
 30
0.0
 10
78.4383
 20
-8.044
 30
0.0
 10
78.4383
 20
-8.044
 30
0.0
 10
78.4376
 20
-8.1649
 30
0.0
 10
78.4169
 20
-8.271
 30
0.0
 10
78.3762
 20
-8.3615
 30
0.0
 10
78.3762
 20
-8.3615
 30
0.0
 10
78.3354
 20
-8.4521
 30
0.0
 10
78.2785
 20
-8.5219
 30
0.0
 10
78.2054
 20
-8.5723
 30
0.0
 10
78.2054
 20
-8.5723
 30
0.0
 10
78.1324
 20
-8.6228
 30
0.0
 10
78.047
 20
-8.6487
 30
0.0
 10
77.9493
 20
-8.6493
 30
0.0
  0
SPLINE
  5
65
330
1F
100
AcDbEntity
  8
Ilustrace
 62
   250
370
    18
100
AcDbSpline
210
0.0
220
0.0
230
1.0
 70
    24
 71
     3
 72
     8
 73
     4
 74
     0
 42
0.0000000001
 43
0.0000000001
 40
0.0
 40
0.0
 40
0.0
 40
0.0
 40
1.0
 40
1.0
 40
1.0
 40
1.0
 10
74.1995
 20
-9.7691
 30
0.0
 10
74.1995
 20
-9.7691
 30
0.0
 10
74.1995
 20
-2.4442
 30
0.0
 10
74.1995
 20
-2.4442
 30
0.0
  0
SPLINE
  5
66
330
1F
100
AcDbEntity
  8
Ilustrace
 62
   250
370
    18
100
AcDbSpline
210
0.0
220
0.0
230
1.0
 70
    24
 71
     3
 72
     8
 73
     4
 74
     0
 42
0.0000000001
 43
0.0000000001
 40
0.0
 40
0.0
 40
0.0
 40
0.0
 40
1.0
 40
1.0
 40
1.0
 40
1.0
 10
77.7493
 20
-5.7806
 30
0.0
 10
77.7493
 20
-5.7806
 30
0.0
 10
77.7493
 20
-2.4442
 30
0.0
 10
77.7493
 20
-2.4442
 30
0.0
  0
SPLINE
  5
67
330
1F
100
AcDbEntity
  8
Ilustrace
 62
   250
370
    15
100
AcDbSpline
210
0.0
220
0.0
230
1.0
 70
    24
 71
     3
 72
     8
 73
     4
 74
     0
 42
0.0000000001
 43
0.0000000001
 40
0.0
 40
0.0
 40
0.0
 40
0.0
 40
1.0
 40
1.0
 40
1.0
 40
1.0
 10
62.8567
 20
-2.2482
 30
0.0
 10
62.8567
 20
-2.2482
 30
0.0
 10
68.831
 20
-2.2482
 30
0.0
 10
68.831
 20
-2.2482
 30
0.0
  0
SPLINE
  5
68
330
1F
100
AcDbEntity
  8
Ilustrace
 62
   250
370
    15
100
AcDbSpline
210
0.0
220
0.0
230
1.0
 70
    24
 71
     3
 72
     8
 73
     4
 74
     0
 42
0.0000000001
 43
0.0000000001
 40
0.0
 40
0.0
 40
0.0
 40
0.0
 40
1.0
 40
1.0
 40
1.0
 40
1.0
 10
62.7467
 20
9.9949
 30
0.0
 10
62.7467
 20
9.9949
 30
0.0
 10
68.794
 20
9.9949
 30
0.0
 10
68.794
 20
9.9949
 30
0.0
  0
SPLINE
  5
69
330
1F
100
AcDbEntity
  8
Ilustrace
 62
   250
370
    15
100
AcDbSpline
210
0.0
220
0.0
230
1.0
 70
    24
 71
     3
 72
     8
 73
     4
 74
     0
 42
0.0000000001
 43
0.0000000001
 40
0.0
 40
0.0
 40
0.0
 40
0.0
 40
1.0
 40
1.0
 40
1.0
 40
1.0
 10
68.5176
 20
9.7108
 30
0.0
 10
68.5176
 20
9.7108
 30
0.0
 10
68.5176
 20
-2.0128
 30
0.0
 10
68.5176
 20
-2.0128
 30
0.0
  0
SPLINE
  5
6A
330
1F
100
AcDbEntity
  8
Ilustrace
 62
   250
100
AcDbSpline
210
0.0
220
0.0
230
1.0
 70
    11
 71
     3
 72
   124
 73
   120
 74
     0
 42
0.0000000001
 43
0.0000000001
 40
0.0
 40
0.0
 40
0.0
 40
0.0
 40
0.032258064516129
 40
0.032258064516129
 40
0.032258064516129
 40
0.032258064516129
 40
0.0645161290322581
 40
0.0645161290322581
 40
0.0645161290322581
 40
0.0645161290322581
 40
0.0967741935483871
 40
0.0967741935483871
 40
0.0967741935483871
 40
0.0967741935483871
 40
0.1290322580645161
 40
0.1290322580645161
 40
0.1290322580645161
 40
0.1290322580645161
 40
0.1612903225806452
 40
0.1612903225806452
 40
0.1612903225806452
 40
0.1612903225806452
 40
0.1935483870967742
 40
0.1935483870967742
 40
0.1935483870967742
 40
0.1935483870967742
 40
0.2258064516129032
 40
0.2258064516129032
 40
0.2258064516129032
 40
0.2258064516129032
 40
0.2580645161290323
 40
0.2580645161290323
 40
0.2580645161290323
 40
0.2580645161290323
 40
0.2903225806451613
 40
0.2903225806451613
 40
0.2903225806451613
 40
0.2903225806451613
 40
0.3225806451612903
 40
0.3225806451612903
 40
0.3225806451612903
 40
0.3225806451612903
 40
0.3548387096774194
 40
0.3548387096774194
 40
0.3548387096774194
 40
0.3548387096774194
 40
0.3870967741935484
 40
0.3870967741935484
 40
0.3870967741935484
 40
0.3870967741935484
 40
0.4193548387096774
 40
0.4193548387096774
 40
0.4193548387096774
 40
0.4193548387096774
 40
0.4516129032258064
 40
0.4516129032258064
 40
0.4516129032258064
 40
0.4516129032258064
 40
0.4838709677419355
 40
0.4838709677419355
 40
0.4838709677419355
 40
0.4838709677419355
 40
0.5161290322580645
 40
0.5161290322580645
 40
0.5161290322580645
 40
0.5161290322580645
 40
0.5483870967741935
 40
0.5483870967741935
 40
0.5483870967741935
 40
0.5483870967741935
 40
0.5806451612903226
 40
0.5806451612903226
 40
0.5806451612903226
 40
0.5806451612903226
 40
0.6129032258064516
 40
0.6129032258064516
 40
0.6129032258064516
 40
0.6129032258064516
 40
0.6451612903225806
 40
0.6451612903225806
 40
0.6451612903225806
 40
0.6451612903225806
 40
0.6774193548387096
 40
0.6774193548387096
 40
0.6774193548387096
 40
0.6774193548387096
 40
0.7096774193548387
 40
0.7096774193548387
 40
0.7096774193548387
 40
0.7096774193548387
 40
0.7419354838709677
 40
0.7419354838709677
 40
0.7419354838709677
 40
0.7419354838709677
 40
0.7741935483870968
 40
0.7741935483870968
 40
0.7741935483870968
 40
0.7741935483870968
 40
0.8064516129032258
 40
0.8064516129032258
 40
0.8064516129032258
 40
0.8064516129032258
 40
0.8387096774193549
 40
0.8387096774193549
 40
0.8387096774193549
 40
0.8387096774193549
 40
0.8709677419354839
 40
0.8709677419354839
 40
0.8709677419354839
 40
0.8709677419354839
 40
0.9032258064516129
 40
0.9032258064516129
 40
0.9032258064516129
 40
0.9032258064516129
 40
0.9354838709677419
 40
0.9354838709677419
 40
0.9354838709677419
 40
0.9354838709677419
 40
1.0
 40
1.0
 40
1.0
 40
1.0
 10
65.3996
 20
3.7967
 30
0.0
 10
65.3996
 20
3.7656
 30
0.0
 10
65.4009
 20
3.7288
 30
0.0
 10
65.4035
 20
3.6874
 30
0.0
 10
65.4035
 20
3.6874
 30
0.0
 10
65.406
 20
3.6453
 30
0.0
 10
65.4112
 20
3.5988
 30
0.0
 10
65.419
 20
3.5483
 30
0.0
 10
65.419
 20
3.5483
 30
0.0
 10
65.4384
 20
3.3886
 30
0.0
 10
65.4798
 20
3.2405
 30
0.0
 10
65.5425
 20
3.104
 30
0.0
 10
65.5425
 20
3.104
 30
0.0
 10
65.6052
 20
2.9676
 30
0.0
 10
65.688
 20
2.8466
 30
0.0
 10
65.7915
 20
2.7412
 30
0.0
 10
65.7915
 20
2.7412
 30
0.0
 10
65.8743
 20
2.6565
 30
0.0
 10
65.9726
 20
2.5821
 30
0.0
 10
66.0864
 20
2.5187
 30
0.0
 10
66.0864
 20
2.5187
 30
0.0
 10
66.1996
 20
2.4547
 30
0.0
 10
66.327
 20
2.4049
 30
0.0
 10
66.468
 20
2.3687
 30
0.0
 10
66.468
 20
2.3687
 30
0.0
 10
66.609
 20
2.3331
 30
0.0
 10
66.7629
 20
2.315
 30
0.0
 10
66.9285
 20
2.3143
 30
0.0
 10
66.9285
 20
2.3143
 30
0.0
 10
67.0928
 20
2.315
 30
0.0
 10
67.2409
 20
2.3363
 30
0.0
 10
67.3728
 20
2.3777
 30
0.0
 10
67.3728
 20
2.3777
 30
0.0
 10
67.5054
 20
2.4198
 30
0.0
 10
67.6179
 20
2.4799
 30
0.0
 10
67.7117
 20
2.5582
 30
0.0
 10
67.7117
 20
2.5582
 30
0.0
 10
67.8055
 20
2.6358
 30
0.0
 10
67.8779
 20
2.7296
 30
0.0
 10
67.9277
 20
2.8382
 30
0.0
 10
67.9277
 20
2.8382
 30
0.0
 10
67.9775
 20
2.9469
 30
0.0
 10
68.0027
 20
3.0684
 30
0.0
 10
68.0034
 20
3.203
 30
0.0
 10
68.0034
 20
3.203
 30
0.0
 10
68.0021
 20
3.3349
 30
0.0
 10
67.9775
 20
3.4533
 30
0.0
 10
67.9297
 20
3.5574
 30
0.0
 10
67.9297
 20
3.5574
 30
0.0
 10
67.8811
 20
3.6609
 30
0.0
 10
67.8152
 20
3.7495
 30
0.0
 10
67.7318
 20
3.8219
 30
0.0
 10
67.7318
 20
3.8219
 30
0.0
 10
67.6483
 20
3.8943
 30
0.0
 10
67.5532
 20
3.95
 30
0.0
 10
67.4465
 20
3.9875
 30
0.0
 10
67.4465
 20
3.9875
 30
0.0
 10
67.3405
 20
4.0256
 30
0.0
 10
67.2286
 20
4.045
 30
0.0
 10
67.1109
 20
4.045
 30
0.0
 10
67.1109
 20
4.045
 30
0.0
 10
66.988
 20
4.0444
 30
0.0
 10
66.8767
 20
4.0256
 30
0.0
 10
66.7771
 20
3.9888
 30
0.0
 10
66.7771
 20
3.9888
 30
0.0
 10
66.6775
 20
3.9519
 30
0.0
 10
66.5915
 20
3.8995
 30
0.0
 10
66.5197
 20
3.8323
 30
0.0
 10
66.5197
 20
3.8323
 30
0.0
 10
66.4486
 20
3.7644
 30
0.0
 10
66.393
 20
3.6842
 30
0.0
 10
66.3548
 20
3.5917
 30
0.0
 10
66.3548
 20
3.5917
 30
0.0
 10
66.316
 20
3.4992
 30
0.0
 10
66.2966
 20
3.3963
 30
0.0
 10
66.296
 20
3.2845
 30
0.0
 10
66.296
 20
3.2845
 30
0.0
 10
66.2966
 20
3.1913
 30
0.0
 10
66.3102
 20
3.106
 30
0.0
 10
66.3361
 20
3.0283
 30
0.0
 10
66.3361
 20
3.0283
 30
0.0
 10
66.3626
 20
2.9507
 30
0.0
 10
66.3975
 20
2.8815
 30
0.0
 10
66.4421
 20
2.8214
 30
0.0
 10
66.4421
 20
2.8214
 30
0.0
 10
66.4861
 20
2.7619
 30
0.0
 10
66.5359
 20
2.7114
 30
0.0
 10
66.5909
 20
2.6713
 30
0.0
 10
66.5909
 20
2.6713
 30
0.0
 10
66.5909
 20
2.6713
 30
0.0
 10
66.5909
 20
2.6636
 30
0.0
 10
66.5909
 20
2.6636
 30
0.0
 10
66.5909
 20
2.6636
 30
0.0
 10
66.4855
 20
2.6778
 30
0.0
 10
66.3839
 20
2.7063
 30
0.0
 10
66.2863
 20
2.7496
 30
0.0
 10
66.2863
 20
2.7496
 30
0.0
 10
66.1893
 20
2.7923
 30
0.0
 10
66.1
 20
2.8492
 30
0.0
 10
66.0192
 20
2.9216
 30
0.0
 10
66.0192
 20
2.9216
 30
0.0
 10
65.939
 20
2.9941
 30
0.0
 10
65.8704
 20
3.0814
 30
0.0
 10
65.8148
 20
3.1842
 30
0.0
 10
65.8148
 20
3.1842
 30
0.0
 10
65.7592
 20
3.287
 30
0.0
 10
65.7204
 20
3.4061
 30
0.0
 10
65.6984
 20
3.5406
 30
0.0
 10
65.6984
 20
3.5406
 30
0.0
 10
65.6906
 20
3.5891
 30
0.0
 10
65.6848
 20
3.6356
 30
0.0
 10
65.6816
 20
3.679
 30
0.0
 10
65.6816
 20
3.679
 30
0.0
 10
65.6777
 20
3.7223
 30
0.0
 10
65.677
 20
3.7618
 30
0.0
 10
65.679
 20
3.7967
 30
0.0
 10
65.679
 20
3.7967
 30
0.0
 10
65.679
 20
3.7967
 30
0.0
 10
65.3996
 20
3.7967
 30
0.0
 10
65.3996
 20
3.7967
 30
0.0
  0
SPLINE
  5
6B
330
1F
100
AcDbEntity
  8
Ilustrace
 62
   250
100
AcDbSpline
210
0.0
220
0.0
230
1.0
 70
    11
 71
     3
 72
    64
 73
    60
 74
     0
 42
0.0000000001
 43
0.0000000001
 40
0.0
 40
0.0
 40
0.0
 40
0.0
 40
0.0625
 40
0.0625
 40
0.0625
 40
0.0625
 40
0.125
 40
0.125
 40
0.125
 40
0.125
 40
0.1875
 40
0.1875
 40
0.1875
 40
0.1875
 40
0.25
 40
0.25
 40
0.25
 40
0.25
 40
0.3125
 40
0.3125
 40
0.3125
 40
0.3125
 40
0.375
 40
0.375
 40
0.375
 40
0.375
 40
0.4375
 40
0.4375
 40
0.4375
 40
0.4375
 40
0.5
 40
0.5
 40
0.5
 40
0.5
 40
0.5625
 40
0.5625
 40
0.5625
 40
0.5625
 40
0.625
 40
0.625
 40
0.625
 40
0.625
 40
0.6875
 40
0.6875
 40
0.6875
 40
0.6875
 40
0.75
 40
0.75
 40
0.75
 40
0.75
 40
0.8125
 40
0.8125
 40
0.8125
 40
0.8125
 40
0.875
 40
0.875
 40
0.875
 40
0.875
 40
1.0
 40
1.0
 40
1.0
 40
1.0
 10
67.7395
 20
3.2107
 30
0.0
 10
67.7389
 20
3.1202
 30
0.0
 10
67.7208
 20
3.0406
 30
0.0
 10
67.6845
 20
2.9714
 30
0.0
 10
67.6845
 20
2.9714
 30
0.0
 10
67.6483
 20
2.9029
 30
0.0
 10
67.5979
 20
2.8447
 30
0.0
 10
67.5326
 20
2.7975
 30
0.0
 10
67.5326
 20
2.7975
 30
0.0
 10
67.4672
 20
2.7502
 30
0.0
 10
67.3903
 20
2.7147
 30
0.0
 10
67.3023
 20
2.6901
 30
0.0
 10
67.3023
 20
2.6901
 30
0.0
 10
67.2144
 20
2.6655
 30
0.0
 10
67.118
 20
2.6532
 30
0.0
 10
67.0139
 20
2.6519
 30
0.0
 10
67.0139
 20
2.6519
 30
0.0
 10
66.9828
 20
2.6519
 30
0.0
 10
66.9557
 20
2.6558
 30
0.0
 10
66.9311
 20
2.6623
 30
0.0
 10
66.9311
 20
2.6623
 30
0.0
 10
66.9071
 20
2.6688
 30
0.0
 10
66.8858
 20
2.6772
 30
0.0
 10
66.8664
 20
2.6869
 30
0.0
 10
66.8664
 20
2.6869
 30
0.0
 10
66.8037
 20
2.7186
 30
0.0
 10
66.7493
 20
2.7593
 30
0.0
 10
66.7028
 20
2.8104
 30
0.0
 10
66.7028
 20
2.8104
 30
0.0
 10
66.6569
 20
2.8608
 30
0.0
 10
66.6206
 20
2.9178
 30
0.0
 10
66.5948
 20
2.9811
 30
0.0
 10
66.5948
 20
2.9811
 30
0.0
 10
66.5695
 20
3.0445
 30
0.0
 10
66.556
 20
3.1105
 30
0.0
 10
66.556
 20
3.1797
 30
0.0
 10
66.556
 20
3.1797
 30
0.0
 10
66.5566
 20
3.2851
 30
0.0
 10
66.5799
 20
3.3763
 30
0.0
 10
66.6258
 20
3.4546
 30
0.0
 10
66.6258
 20
3.4546
 30
0.0
 10
66.6717
 20
3.5322
 30
0.0
 10
66.7377
 20
3.5923
 30
0.0
 10
66.8237
 20
3.635
 30
0.0
 10
66.8237
 20
3.635
 30
0.0
 10
66.9097
 20
3.6777
 30
0.0
 10
67.0132
 20
3.699
 30
0.0
 10
67.1342
 20
3.6997
 30
0.0
 10
67.1342
 20
3.6997
 30
0.0
 10
67.2551
 20
3.699
 30
0.0
 10
67.3612
 20
3.6783
 30
0.0
 10
67.4517
 20
3.6376
 30
0.0
 10
67.4517
 20
3.6376
 30
0.0
 10
67.5423
 20
3.5968
 30
0.0
 10
67.6121
 20
3.5399
 30
0.0
 10
67.6625
 20
3.4668
 30
0.0
 10
67.6625
 20
3.4668
 30
0.0
 10
67.713
 20
3.3938
 30
0.0
 10
67.7389
 20
3.3084
 30
0.0
 10
67.7395
 20
3.2107
 30
0.0
  0
SPLINE
  5
6C
330
1F
100
AcDbEntity
  8
Ilustrace
 62
   250
100
AcDbSpline
210
0.0
220
0.0
230
1.0
 70
    11
 71
     3
 72
   124
 73
   120
 74
     0
 42
0.0000000001
 43
0.0000000001
 40
0.0
 40
0.0
 40
0.0
 40
0.0
 40
0.032258064516129
 40
0.032258064516129
 40
0.032258064516129
 40
0.032258064516129
 40
0.0645161290322581
 40
0.0645161290322581
 40
0.0645161290322581
 40
0.0645161290322581
 40
0.0967741935483871
 40
0.0967741935483871
 40
0.0967741935483871
 40
0.0967741935483871
 40
0.1290322580645161
 40
0.1290322580645161
 40
0.1290322580645161
 40
0.1290322580645161
 40
0.1612903225806452
 40
0.1612903225806452
 40
0.1612903225806452
 40
0.1612903225806452
 40
0.1935483870967742
 40
0.1935483870967742
 40
0.1935483870967742
 40
0.1935483870967742
 40
0.2258064516129032
 40
0.2258064516129032
 40
0.2258064516129032
 40
0.2258064516129032
 40
0.2580645161290323
 40
0.2580645161290323
 40
0.2580645161290323
 40
0.2580645161290323
 40
0.2903225806451613
 40
0.2903225806451613
 40
0.2903225806451613
 40
0.2903225806451613
 40
0.3225806451612903
 40
0.3225806451612903
 40
0.3225806451612903
 40
0.3225806451612903
 40
0.3548387096774194
 40
0.3548387096774194
 40
0.3548387096774194
 40
0.3548387096774194
 40
0.3870967741935484
 40
0.3870967741935484
 40
0.3870967741935484
 40
0.3870967741935484
 40
0.4193548387096774
 40
0.4193548387096774
 40
0.4193548387096774
 40
0.4193548387096774
 40
0.4516129032258064
 40
0.4516129032258064
 40
0.4516129032258064
 40
0.4516129032258064
 40
0.4838709677419355
 40
0.4838709677419355
 40
0.4838709677419355
 40
0.4838709677419355
 40
0.5161290322580645
 40
0.5161290322580645
 40
0.5161290322580645
 40
0.5161290322580645
 40
0.5483870967741935
 40
0.5483870967741935
 40
0.5483870967741935
 40
0.5483870967741935
 40
0.5806451612903226
 40
0.5806451612903226
 40
0.5806451612903226
 40
0.5806451612903226
 40
0.6129032258064516
 40
0.6129032258064516
 40
0.6129032258064516
 40
0.6129032258064516
 40
0.6451612903225806
 40
0.6451612903225806
 40
0.6451612903225806
 40
0.6451612903225806
 40
0.6774193548387096
 40
0.6774193548387096
 40
0.6774193548387096
 40
0.6774193548387096
 40
0.7096774193548387
 40
0.7096774193548387
 40
0.7096774193548387
 40
0.7096774193548387
 40
0.7419354838709677
 40
0.7419354838709677
 40
0.7419354838709677
 40
0.7419354838709677
 40
0.7741935483870968
 40
0.7741935483870968
 40
0.7741935483870968
 40
0.7741935483870968
 40
0.8064516129032258
 40
0.8064516129032258
 40
0.8064516129032258
 40
0.8064516129032258
 40
0.8387096774193549
 40
0.8387096774193549
 40
0.8387096774193549
 40
0.8387096774193549
 40
0.8709677419354839
 40
0.8709677419354839
 40
0.8709677419354839
 40
0.8709677419354839
 40
0.9032258064516129
 40
0.9032258064516129
 40
0.9032258064516129
 40
0.9032258064516129
 40
0.9354838709677419
 40
0.9354838709677419
 40
0.9354838709677419
 40
0.9354838709677419
 40
1.0
 40
1.0
 40
1.0
 40
1.0
 10
67.9607
 20
5.9581
 30
0.0
 10
67.9607
 20
5.9581
 30
0.0
 10
67.6774
 20
5.9581
 30
0.0
 10
67.6774
 20
5.9581
 30
0.0
 10
67.6774
 20
5.9581
 30
0.0
 10
67.6774
 20
5.9581
 30
0.0
 10
67.6774
 20
4.8289
 30
0.0
 10
67.6774
 20
4.8289
 30
0.0
 10
67.6774
 20
4.8289
 30
0.0
 10
67.6774
 20
4.8289
 30
0.0
 10
67.6697
 20
4.8289
 30
0.0
 10
67.6697
 20
4.8289
 30
0.0
 10
67.6697
 20
4.8289
 30
0.0
 10
67.6697
 20
4.8289
 30
0.0
 10
67.4834
 20
5.0268
 30
0.0
 10
67.4834
 20
5.0268
 30
0.0
 10
67.4834
 20
5.0268
 30
0.0
 10
67.356
 20
5.16
 30
0.0
 10
67.235
 20
5.2803
 30
0.0
 10
67.1212
 20
5.387
 30
0.0
 10
67.1212
 20
5.387
 30
0.0
 10
67.0074
 20
5.4938
 30
0.0
 10
66.8961
 20
5.585
 30
0.0
 10
66.7888
 20
5.6606
 30
0.0
 10
66.7888
 20
5.6606
 30
0.0
 10
66.6814
 20
5.7369
 30
0.0
 10
66.5734
 20
5.7945
 30
0.0
 10
66.4648
 20
5.8352
 30
0.0
 10
66.4648
 20
5.8352
 30
0.0
 10
66.3568
 20
5.8753
 30
0.0
 10
66.2449
 20
5.8954
 30
0.0
 10
66.1291
 20
5.896
 30
0.0
 10
66.1291
 20
5.896
 30
0.0
 10
66.0379
 20
5.896
 30
0.0
 10
65.9487
 20
5.8818
 30
0.0
 10
65.862
 20
5.8521
 30
0.0
 10
65.862
 20
5.8521
 30
0.0
 10
65.7753
 20
5.8223
 30
0.0
 10
65.6971
 20
5.7757
 30
0.0
 10
65.6272
 20
5.7137
 30
0.0
 10
65.6272
 20
5.7137
 30
0.0
 10
65.5567
 20
5.6516
 30
0.0
 10
65.5011
 20
5.5714
 30
0.0
 10
65.4597
 20
5.4737
 30
0.0
 10
65.4597
 20
5.4737
 30
0.0
 10
65.4177
 20
5.3761
 30
0.0
 10
65.3963
 20
5.2596
 30
0.0
 10
65.3957
 20
5.1238
 30
0.0
 10
65.3957
 20
5.1238
 30
0.0
 10
65.3963
 20
5.0281
 30
0.0
 10
65.4073
 20
4.9369
 30
0.0
 10
65.43
 20
4.8502
 30
0.0
 10
65.43
 20
4.8502
 30
0.0
 10
65.4526
 20
4.7636
 30
0.0
 10
65.483
 20
4.6834
 30
0.0
 10
65.5218
 20
4.6097
 30
0.0
 10
65.5218
 20
4.6097
 30
0.0
 10
65.56
 20
4.5366
 30
0.0
 10
65.6033
 20
4.4713
 30
0.0
 10
65.6518
 20
4.4137
 30
0.0
 10
65.6518
 20
4.4137
 30
0.0
 10
65.6518
 20
4.4137
 30
0.0
 10
65.8924
 20
4.5223
 30
0.0
 10
65.8924
 20
4.5223
 30
0.0
 10
65.8924
 20
4.5223
 30
0.0
 10
65.8594
 20
4.5612
 30
0.0
 10
65.8264
 20
4.6077
 30
0.0
 10
65.7941
 20
4.662
 30
0.0
 10
65.7941
 20
4.662
 30
0.0
 10
65.7611
 20
4.7164
 30
0.0
 10
65.7346
 20
4.7765
 30
0.0
 10
65.7126
 20
4.8431
 30
0.0
 10
65.7126
 20
4.8431
 30
0.0
 10
65.6913
 20
4.9097
 30
0.0
 10
65.6796
 20
4.9815
 30
0.0
 10
65.679
 20
5.0579
 30
0.0
 10
65.679
 20
5.0579
 30
0.0
 10
65.6796
 20
5.1516
 30
0.0
 10
65.6932
 20
5.2305
 30
0.0
 10
65.7197
 20
5.2946
 30
0.0
 10
65.7197
 20
5.2946
 30
0.0
 10
65.7469
 20
5.3579
 30
0.0
 10
65.7831
 20
5.409
 30
0.0
 10
65.829
 20
5.4472
 30
0.0
 10
65.829
 20
5.4472
 30
0.0
 10
65.8756
 20
5.4854
 30
0.0
 10
65.928
 20
5.5132
 30
0.0
 10
65.9868
 20
5.53
 30
0.0
 10
65.9868
 20
5.53
 30
0.0
 10
66.0457
 20
5.5468
 30
0.0
 10
66.1071
 20
5.5552
 30
0.0
 10
66.1718
 20
5.5546
 30
0.0
 10
66.1718
 20
5.5546
 30
0.0
 10
66.2662
 20
5.5546
 30
0.0
 10
66.3593
 20
5.5358
 30
0.0
 10
66.4518
 20
5.4983
 30
0.0
 10
66.4518
 20
5.4983
 30
0.0
 10
66.545
 20
5.4608
 30
0.0
 10
66.642
 20
5.4039
 30
0.0
 10
66.7442
 20
5.3269
 30
0.0
 10
66.7442
 20
5.3269
 30
0.0
 10
66.8463
 20
5.2499
 30
0.0
 10
66.9582
 20
5.1523
 30
0.0
 10
67.0798
 20
5.0339
 30
0.0
 10
67.0798
 20
5.0339
 30
0.0
 10
67.2014
 20
4.9162
 30
0.0
 10
67.3385
 20
4.7765
 30
0.0
 10
67.4912
 20
4.6155
 30
0.0
 10
67.4912
 20
4.6155
 30
0.0
 10
67.4912
 20
4.6155
 30
0.0
 10
67.7512
 20
4.3477
 30
0.0
 10
67.7512
 20
4.3477
 30
0.0
 10
67.7512
 20
4.3477
 30
0.0
 10
67.7512
 20
4.3477
 30
0.0
 10
67.9607
 20
4.3477
 30
0.0
 10
67.9607
 20
4.3477
 30
0.0
 10
67.9607
 20
4.3477
 30
0.0
 10
67.9607
 20
4.3477
 30
0.0
 10
67.9607
 20
5.9581
 30
0.0
 10
67.9607
 20
5.9581
 30
0.0
  0
SPLINE
  5
6D
330
1F
100
AcDbEntity
  8
Ilustrace
 62
   250
370
     9
100
AcDbSpline
210
0.0
220
0.0
230
1.0
 70
    11
 71
     3
 72
    32
 73
    28
 74
     0
 42
0.0000000001
 43
0.0000000001
 40
0.0
 40
0.0
 40
0.0
 40
0.0
 40
0.125
 40
0.125
 40
0.125
 40
0.125
 40
0.25
 40
0.25
 40
0.25
 40
0.25
 40
0.375
 40
0.375
 40
0.375
 40
0.375
 40
0.5
 40
0.5
 40
0.5
 40
0.5
 40
0.625
 40
0.625
 40
0.625
 40
0.625
 40
0.75
 40
0.75
 40
0.75
 40
0.75
 40
1.0
 40
1.0
 40
1.0
 40
1.0
 10
-81.1671
 20
-9.938
 30
0.0
 10
-81.1671
 20
-9.938
 30
0.0
 10
-81.1671
 20
-9.938
 30
0.0
 10
-81.1671
 20
-9.938
 30
0.0
 10
-81.1671
 20
-9.938
 30
0.0
 10
-81.1671
 20
-9.938
 30
0.0
 10
-81.1671
 20
-9.938
 30
0.0
 10
-81.1671
 20
-9.938
 30
0.0
 10
-81.1671
 20
-9.938
 30
0.0
 10
-81.1671
 20
-9.938
 30
0.0
 10
-82.4399
 20
-9.4946
 30
0.0
 10
-82.4399
 20
-9.4946
 30
0.0
 10
-82.4399
 20
-9.4946
 30
0.0
 10
-82.4399
 20
-9.4946
 30
0.0
 10
-81.1671
 20
-9.0512
 30
0.0
 10
-81.1671
 20
-9.0512
 30
0.0
 10
-81.1671
 20
-9.0512
 30
0.0
 10
-81.1671
 20
-9.0512
 30
0.0
 10
-81.1671
 20
-9.0512
 30
0.0
 10
-81.1671
 20
-9.0512
 30
0.0
 10
-81.1671
 20
-9.0512
 30
0.0
 10
-81.1671
 20
-9.0512
 30
0.0
 10
-81.1671
 20
-9.0512
 30
0.0
 10
-81.1671
 20
-9.0512
 30
0.0
 10
-81.1671
 20
-9.0512
 30
0.0
 10
-81.1671
 20
-9.0512
 30
0.0
 10
-81.1671
 20
-9.938
 30
0.0
 10
-81.1671
 20
-9.938
 30
0.0
  0
SPLINE
  5
6E
330
1F
100
AcDbEntity
  8
Ilustrace
 62
   250
370
     9
100
AcDbSpline
210
0.0
220
0.0
230
1.0
 70
    11
 71
     3
 72
    32
 73
    28
 74
     0
 42
0.0000000001
 43
0.0000000001
 40
0.0
 40
0.0
 40
0.0
 40
0.0
 40
0.125
 40
0.125
 40
0.125
 40
0.125
 40
0.25
 40
0.25
 40
0.25
 40
0.25
 40
0.375
 40
0.375
 40
0.375
 40
0.375
 40
0.5
 40
0.5
 40
0.5
 40
0.5
 40
0.625
 40
0.625
 40
0.625
 40
0.625
 40
0.75
 40
0.75
 40
0.75
 40
0.75
 40
1.0
 40
1.0
 40
1.0
 40
1.0
 10
80.7281
 20
-9.8243
 30
0.0
 10
80.7281
 20
-9.8243
 30
0.0
 10
80.7281
 20
-9.8243
 30
0.0
 10
80.7281
 20
-9.8243
 30
0.0
 10
80.7281
 20
-9.8243
 30
0.0
 10
80.7281
 20
-9.8243
 30
0.0
 10
80.7281
 20
-9.8243
 30
0.0
 10
80.7281
 20
-9.8243
 30
0.0
 10
80.7281
 20
-9.8243
 30
0.0
 10
80.7281
 20
-9.8243
 30
0.0
 10
79.4553
 20
-9.3809
 30
0.0
 10
79.4553
 20
-9.3809
 30
0.0
 10
79.4553
 20
-9.3809
 30
0.0
 10
79.4553
 20
-9.3809
 30
0.0
 10
80.7281
 20
-8.9375
 30
0.0
 10
80.7281
 20
-8.9375
 30
0.0
 10
80.7281
 20
-8.9375
 30
0.0
 10
80.7281
 20
-8.9375
 30
0.0
 10
80.7281
 20
-8.9375
 30
0.0
 10
80.7281
 20
-8.9375
 30
0.0
 10
80.7281
 20
-8.9375
 30
0.0
 10
80.7281
 20
-8.9375
 30
0.0
 10
80.7281
 20
-8.9375
 30
0.0
 10
80.7281
 20
-8.9375
 30
0.0
 10
80.7281
 20
-8.9375
 30
0.0
 10
80.7281
 20
-8.9375
 30
0.0
 10
80.7281
 20
-9.8243
 30
0.0
 10
80.7281
 20
-9.8243
 30
0.0
  0
SPLINE
  5
6F
330
1F
100
AcDbEntity
  8
Ilustrace
 62
   250
370
     9
100
AcDbSpline
210
0.0
220
0.0
230
1.0
 70
    11
 71
     3
 72
    32
 73
    28
 74
     0
 42
0.0000000001
 43
0.0000000001
 40
0.0
 40
0.0
 40
0.0
 40
0.0
 40
0.125
 40
0.125
 40
0.125
 40
0.125
 40
0.25
 40
0.25
 40
0.25
 40
0.25
 40
0.375
 40
0.375
 40
0.375
 40
0.375
 40
0.5
 40
0.5
 40
0.5
 40
0.5
 40
0.625
 40
0.625
 40
0.625
 40
0.625
 40
0.75
 40
0.75
 40
0.75
 40
0.75
 40
1.0
 40
1.0
 40
1.0
 40
1.0
 10
68.0985
 20
8.6105
 30
0.0
 10
68.0985
 20
8.6105
 30
0.0
 10
68.0985
 20
8.6105
 30
0.0
 10
68.0985
 20
8.6105
 30
0.0
 10
68.0985
 20
8.6105
 30
0.0
 10
68.0985
 20
8.6105
 30
0.0
 10
68.0985
 20
8.6105
 30
0.0
 10
68.0985
 20
8.6105
 30
0.0
 10
68.0985
 20
8.6105
 30
0.0
 10
68.0985
 20
8.6105
 30
0.0
 10
68.5419
 20
9.8833
 30
0.0
 10
68.5419
 20
9.8833
 30
0.0
 10
68.5419
 20
9.8833
 30
0.0
 10
68.5419
 20
9.8833
 30
0.0
 10
68.9853
 20
8.6105
 30
0.0
 10
68.9853
 20
8.6105
 30
0.0
 10
68.9853
 20
8.6105
 30
0.0
 10
68.9853
 20
8.6105
 30
0.0
 10
68.9853
 20
8.6105
 30
0.0
 10
68.9853
 20
8.6105
 30
0.0
 10
68.9853
 20
8.6105
 30
0.0
 10
68.9853
 20
8.6105
 30
0.0
 10
68.9853
 20
8.6105
 30
0.0
 10
68.9853
 20
8.6105
 30
0.0
 10
68.9853
 20
8.6105
 30
0.0
 10
68.9853
 20
8.6105
 30
0.0
 10
68.0985
 20
8.6105
 30
0.0
 10
68.0985
 20
8.6105
 30
0.0
  0
SPLINE
  5
70
330
1F
100
AcDbEntity
  8
Ilustrace
 62
   250
370
     9
100
AcDbSpline
210
0.0
220
0.0
230
1.0
 70
    11
 71
     3
 72
    32
 73
    28
 74
     0
 42
0.0000000001
 43
0.0000000001
 40
0.0
 40
0.0
 40
0.0
 40
0.0
 40
0.125
 40
0.125
 40
0.125
 40
0.125
 40
0.25
 40
0.25
 40
0.25
 40
0.25
 40
0.375
 40
0.375
 40
0.375
 40
0.375
 40
0.5
 40
0.5
 40
0.5
 40
0.5
 40
0.625
 40
0.625
 40
0.625
 40
0.625
 40
0.75
 40
0.75
 40
0.75
 40
0.75
 40
1.0
 40
1.0
 40
1.0
 40
1.0
 10
61.1957
 20
-9.9664
 30
0.0
 10
61.1957
 20
-9.9664
 30
0.0
 10
61.1957
 20
-9.9664
 30
0.0
 10
61.1957
 20
-9.9664
 30
0.0
 10
61.1957
 20
-9.9664
 30
0.0
 10
61.1957
 20
-9.9664
 30
0.0
 10
61.1957
 20
-9.9664
 30
0.0
 10
61.1957
 20
-9.9664
 30
0.0
 10
61.1957
 20
-9.9664
 30
0.0
 10
61.1957
 20
-9.9664
 30
0.0
 10
62.4685
 20
-9.523
 30
0.0
 10
62.4685
 20
-9.523
 30
0.0
 10
62.4685
 20
-9.523
 30
0.0
 10
62.4685
 20
-9.523
 30
0.0
 10
61.1957
 20
-9.0796
 30
0.0
 10
61.1957
 20
-9.0796
 30
0.0
 10
61.1957
 20
-9.0796
 30
0.0
 10
61.1957
 20
-9.0796
 30
0.0
 10
61.1957
 20
-9.0796
 30
0.0
 10
61.1957
 20
-9.0796
 30
0.0
 10
61.1957
 20
-9.0796
 30
0.0
 10
61.1957
 20
-9.0796
 30
0.0
 10
61.1957
 20
-9.0796
 30
0.0
 10
61.1957
 20
-9.0796
 30
0.0
 10
61.1957
 20
-9.0796
 30
0.0
 10
61.1957
 20
-9.0796
 30
0.0
 10
61.1957
 20
-9.9664
 30
0.0
 10
61.1957
 20
-9.9664
 30
0.0
  0
SPLINE
  5
71
330
1F
100
AcDbEntity
  8
Ilustrace
 62
   250
370
     9
100
AcDbSpline
210
0.0
220
0.0
230
1.0
 70
    11
 71
     3
 72
    32
 73
    28
 74
     0
 42
0.0000000001
 43
0.0000000001
 40
0.0
 40
0.0
 40
0.0
 40
0.0
 40
0.125
 40
0.125
 40
0.125
 40
0.125
 40
0.25
 40
0.25
 40
0.25
 40
0.25
 40
0.375
 40
0.375
 40
0.375
 40
0.375
 40
0.5
 40
0.5
 40
0.5
 40
0.5
 40
0.625
 40
0.625
 40
0.625
 40
0.625
 40
0.75
 40
0.75
 40
0.75
 40
0.75
 40
1.0
 40
1.0
 40
1.0
 40
1.0
 10
72.9279
 20
-9.8197
 30
0.0
 10
72.9279
 20
-9.8197
 30
0.0
 10
72.9279
 20
-9.8197
 30
0.0
 10
72.9279
 20
-9.8197
 30
0.0
 10
72.9279
 20
-9.8197
 30
0.0
 10
72.9279
 20
-9.8197
 30
0.0
 10
72.9279
 20
-9.8197
 30
0.0
 10
72.9279
 20
-9.8197
 30
0.0
 10
72.9279
 20
-9.8197
 30
0.0
 10
72.9279
 20
-9.8197
 30
0.0
 10
74.2007
 20
-9.3763
 30
0.0
 10
74.2007
 20
-9.3763
 30
0.0
 10
74.2007
 20
-9.3763
 30
0.0
 10
74.2007
 20
-9.3763
 30
0.0
 10
72.9279
 20
-8.9329
 30
0.0
 10
72.9279
 20
-8.9329
 30
0.0
 10
72.9279
 20
-8.9329
 30
0.0
 10
72.9279
 20
-8.9329
 30
0.0
 10
72.9279
 20
-8.9329
 30
0.0
 10
72.9279
 20
-8.9329
 30
0.0
 10
72.9279
 20
-8.9329
 30
0.0
 10
72.9279
 20
-8.9329
 30
0.0
 10
72.9279
 20
-8.9329
 30
0.0
 10
72.9279
 20
-8.9329
 30
0.0
 10
72.9279
 20
-8.9329
 30
0.0
 10
72.9279
 20
-8.9329
 30
0.0
 10
72.9279
 20
-9.8197
 30
0.0
 10
72.9279
 20
-9.8197
 30
0.0
  0
SPLINE
  5
72
330
1F
100
AcDbEntity
  8
Ilustrace
 62
   250
370
     9
100
AcDbSpline
210
0.0
220
0.0
230
1.0
 70
    11
 71
     3
 72
    32
 73
    28
 74
     0
 42
0.0000000001
 43
0.0000000001
 40
0.0
 40
0.0
 40
0.0
 40
0.0
 40
0.125
 40
0.125
 40
0.125
 40
0.125
 40
0.25
 40
0.25
 40
0.25
 40
0.25
 40
0.375
 40
0.375
 40
0.375
 40
0.375
 40
0.5
 40
0.5
 40
0.5
 40
0.5
 40
0.625
 40
0.625
 40
0.625
 40
0.625
 40
0.75
 40
0.75
 40
0.75
 40
0.75
 40
1.0
 40
1.0
 40
1.0
 40
1.0
 10
68.0592
 20
-0.9083
 30
0.0
 10
68.0592
 20
-0.9083
 30
0.0
 10
68.0592
 20
-0.9083
 30
0.0
 10
68.0592
 20
-0.9083
 30
0.0
 10
68.0592
 20
-0.9083
 30
0.0
 10
68.0592
 20
-0.9083
 30
0.0
 10
68.0592
 20
-0.9083
 30
0.0
 10
68.0592
 20
-0.9083
 30
0.0
 10
68.0592
 20
-0.9083
 30
0.0
 10
68.0592
 20
-0.9083
 30
0.0
 10
68.5026
 20
-2.1811
 30
0.0
 10
68.5026
 20
-2.1811
 30
0.0
 10
68.5026
 20
-2.1811
 30
0.0
 10
68.5026
 20
-2.1811
 30
0.0
 10
68.946
 20
-0.9083
 30
0.0
 10
68.946
 20
-0.9083
 30
0.0
 10
68.946
 20
-0.9083
 30
0.0
 10
68.946
 20
-0.9083
 30
0.0
 10
68.946
 20
-0.9083
 30
0.0
 10
68.946
 20
-0.9083
 30
0.0
 10
68.946
 20
-0.9083
 30
0.0
 10
68.946
 20
-0.9083
 30
0.0
 10
68.946
 20
-0.9083
 30
0.0
 10
68.946
 20
-0.9083
 30
0.0
 10
68.946
 20
-0.9083
 30
0.0
 10
68.946
 20
-0.9083
 30
0.0
 10
68.0592
 20
-0.9083
 30
0.0
 10
68.0592
 20
-0.9083
 30
0.0
  0
SPLINE
  5
73
330
1F
100
AcDbEntity
  8
Ilustrace
 62
   254
370
    30
100
AcDbSpline
210
0.0
220
0.0
230
1.0
 70
    11
 71
     3
 72
    20
 73
    16
 74
     0
 42
0.0000000001
 43
0.0000000001
 40
0.0
 40
0.0
 40
0.0
 40
0.0
 40
0.2
 40
0.2
 40
0.2
 40
0.2
 40
0.4
 40
0.4
 40
0.4
 40
0.4
 40
0.6
 40
0.6
 40
0.6
 40
0.6
 40
1.0
 40
1.0
 40
1.0
 40
1.0
 10
-82.5091
 20
8.3533
 30
0.0
 10
-82.5091
 20
8.3533
 30
0.0
 10
62.4909
 20
8.3525
 30
0.0
 10
62.4909
 20
8.3525
 30
0.0
 10
62.4909
 20
8.3525
 30
0.0
 10
62.4909
 20
8.3525
 30
0.0
 10
62.4909
 20
9.9108
 30
0.0
 10
62.4909
 20
9.9108
 30
0.0
 10
62.4909
 20
9.9108
 30
0.0
 10
62.4909
 20
9.9108
 30
0.0
 10
-82.5091
 20
9.9108
 30
0.0
 10
-82.5091
 20
9.9108
 30
0.0
 10
-82.5091
 20
9.9108
 30
0.0
 10
-82.5091
 20
9.9108
 30
0.0
 10
-82.5091
 20
8.3533
 30
0.0
 10
-82.5091
 20
8.3533
 30
0.0
  0
SPLINE
  5
74
330
1F
100
AcDbEntity
  8
Ilustrace
 62
   254
370
    30
100
AcDbSpline
210
0.0
220
0.0
230
1.0
 70
    11
 71
     3
 72
    20
 73
    16
 74
     0
 42
0.0000000001
 43
0.0000000001
 40
0.0
 40
0.0
 40
0.0
 40
0.0
 40
0.2
 40
0.2
 40
0.2
 40
0.2
 40
0.4
 40
0.4
 40
0.4
 40
0.4
 40
0.6
 40
0.6
 40
0.6
 40
0.6
 40
1.0
 40
1.0
 40
1.0
 40
1.0
 10
62.4909
 20
5.7222
 30
0.0
 10
62.4909
 20
5.7222
 30
0.0
 10
-82.5091
 20
5.7214
 30
0.0
 10
-82.5091
 20
5.7214
 30
0.0
 10
-82.5091
 20
5.7214
 30
0.0
 10
-82.5091
 20
5.7214
 30
0.0
 10
-82.5091
 20
7.2797
 30
0.0
 10
-82.5091
 20
7.2797
 30
0.0
 10
-82.5091
 20
7.2797
 30
0.0
 10
-82.5091
 20
7.2797
 30
0.0
 10
62.4909
 20
7.2797
 30
0.0
 10
62.4909
 20
7.2797
 30
0.0
 10
62.4909
 20
7.2797
 30
0.0
 10
62.4909
 20
7.2797
 30
0.0
 10
62.4909
 20
5.7222
 30
0.0
 10
62.4909
 20
5.7222
 30
0.0
  0
SPLINE
  5
75
330
1F
100
AcDbEntity
  8
Ilustrace
 62
   254
370
    30
100
AcDbSpline
210
0.0
220
0.0
230
1.0
 70
    11
 71
     3
 72
    20
 73
    16
 74
     0
 42
0.0000000001
 43
0.0000000001
 40
0.0
 40
0.0
 40
0.0
 40
0.0
 40
0.2
 40
0.2
 40
0.2
 40
0.2
 40
0.4
 40
0.4
 40
0.4
 40
0.4
 40
0.6
 40
0.6
 40
0.6
 40
0.6
 40
1.0
 40
1.0
 40
1.0
 40
1.0
 10
62.4909
 20
3.0912
 30
0.0
 10
62.4909
 20
3.0912
 30
0.0
 10
-82.5091
 20
3.0903
 30
0.0
 10
-82.5091
 20
3.0903
 30
0.0
 10
-82.5091
 20
3.0903
 30
0.0
 10
-82.5091
 20
3.0903
 30
0.0
 10
-82.5091
 20
4.6487
 30
0.0
 10
-82.5091
 20
4.6487
 30
0.0
 10
-82.5091
 20
4.6487
 30
0.0
 10
-82.5091
 20
4.6487
 30
0.0
 10
62.4909
 20
4.6487
 30
0.0
 10
62.4909
 20
4.6487
 30
0.0
 10
62.4909
 20
4.6487
 30
0.0
 10
62.4909
 20
4.6487
 30
0.0
 10
62.4909
 20
3.0912
 30
0.0
 10
62.4909
 20
3.0912
 30
0.0
  0
SPLINE
  5
76
330
1F
100
AcDbEntity
  8
Ilustrace
 62
   254
370
    30
100
AcDbSpline
210
0.0
220
0.0
230
1.0
 70
    11
 71
     3
 72
    20
 73
    16
 74
     0
 42
0.0000000001
 43
0.0000000001
 40
0.0
 40
0.0
 40
0.0
 40
0.0
 40
0.2
 40
0.2
 40
0.2
 40
0.2
 40
0.4
 40
0.4
 40
0.4
 40
0.4
 40
0.6
 40
0.6
 40
0.6
 40
0.6
 40
1.0
 40
1.0
 40
1.0
 40
1.0
 10
62.4909
 20
0.4601
 30
0.0
 10
62.4909
 20
0.4601
 30
0.0
 10
-82.5091
 20
0.4593
 30
0.0
 10
-82.5091
 20
0.4593
 30
0.0
 10
-82.5091
 20
0.4593
 30
0.0
 10
-82.5091
 20
0.4593
 30
0.0
 10
-82.5091
 20
2.0176
 30
0.0
 10
-82.5091
 20
2.0176
 30
0.0
 10
-82.5091
 20
2.0176
 30
0.0
 10
-82.5091
 20
2.0176
 30
0.0
 10
62.4909
 20
2.0176
 30
0.0
 10
62.4909
 20
2.0176
 30
0.0
 10
62.4909
 20
2.0176
 30
0.0
 10
62.4909
 20
2.0176
 30
0.0
 10
62.4909
 20
0.4601
 30
0.0
 10
62.4909
 20
0.4601
 30
0.0
  0
SPLINE
  5
77
330
1F
100
AcDbEntity
  8
Ilustrace
 62
   254
370
    30
100
AcDbSpline
210
0.0
220
0.0
230
1.0
 70
    11
 71
     3
 72
    20
 73
    16
 74
     0
 42
0.0000000001
 43
0.0000000001
 40
0.0
 40
0.0
 40
0.0
 40
0.0
 40
0.2
 40
0.2
 40
0.2
 40
0.2
 40
0.4
 40
0.4
 40
0.4
 40
0.4
 40
0.6
 40
0.6
 40
0.6
 40
0.6
 40
1.0
 40
1.0
 40
1.0
 40
1.0
 10
62.4909
 20
-2.1709
 30
0.0
 10
62.4909
 20
-2.1709
 30
0.0
 10
-82.5091
 20
-2.1718
 30
0.0
 10
-82.5091
 20
-2.1718
 30
0.0
 10
-82.5091
 20
-2.1718
 30
0.0
 10
-82.5091
 20
-2.1718
 30
0.0
 10
-82.5091
 20
-0.6135
 30
0.0
 10
-82.5091
 20
-0.6135
 30
0.0
 10
-82.5091
 20
-0.6135
 30
0.0
 10
-82.5091
 20
-0.6135
 30
0.0
 10
62.4909
 20
-0.6135
 30
0.0
 10
62.4909
 20
-0.6135
 30
0.0
 10
62.4909
 20
-0.6135
 30
0.0
 10
62.4909
 20
-0.6135
 30
0.0
 10
62.4909
 20
-2.1709
 30
0.0
 10
62.4909
 20
-2.1709
 30
0.0
  0
SPLINE
  5
78
330
1F
100
AcDbEntity
  8
Ilustrace
 62
   254
370
    30
100
AcDbSpline
210
0.0
220
0.0
230
1.0
 70
    11
 71
     3
 72
    36
 73
    32
 74
     0
 42
0.0000000001
 43
0.0000000001
 40
0.0
 40
0.0
 40
0.0
 40
0.0
 40
0.1111111111111111
 40
0.1111111111111111
 40
0.1111111111111111
 40
0.1111111111111111
 40
0.2222222222222222
 40
0.2222222222222222
 40
0.2222222222222222
 40
0.2222222222222222
 40
0.3333333333333333
 40
0.3333333333333333
 40
0.3333333333333333
 40
0.3333333333333333
 40
0.4444444444444444
 40
0.4444444444444444
 40
0.4444444444444444
 40
0.4444444444444444
 40
0.5555555555555556
 40
0.5555555555555556
 40
0.5555555555555556
 40
0.5555555555555556
 40
0.6666666666666666
 40
0.6666666666666666
 40
0.6666666666666666
 40
0.6666666666666666
 40
0.7777777777777778
 40
0.7777777777777778
 40
0.7777777777777778
 40
0.7777777777777778
 40
1.0
 40
1.0
 40
1.0
 40
1.0
 10
57.6186
 20
3.0903
 30
0.0
 10
57.6186
 20
3.0903
 30
0.0
 10
57.6186
 20
2.0185
 30
0.0
 10
57.6186
 20
2.0185
 30
0.0
 10
57.6186
 20
2.0185
 30
0.0
 10
57.6186
 20
2.012
 30
0.0
 10
57.6251
 20
2.0379
 30
0.0
 10
57.6186
 20
2.0379
 30
0.0
 10
57.6186
 20
2.0379
 30
0.0
 10
57.6186
 20
2.0379
 30
0.0
 10
56.839
 20
2.0379
 30
0.0
 10
56.839
 20
2.0379
 30
0.0
 10
56.839
 20
2.0379
 30
0.0
 10
56.8325
 20
2.0379
 30
0.0
 10
56.839
 20
2.012
 30
0.0
 10
56.839
 20
2.0185
 30
0.0
 10
56.839
 20
2.0185
 30
0.0
 10
56.839
 20
2.0185
 30
0.0
 10
56.839
 20
3.0903
 30
0.0
 10
56.839
 20
3.0903
 30
0.0
 10
56.839
 20
3.0903
 30
0.0
 10
56.839
 20
3.0968
 30
0.0
 10
56.8325
 20
3.0709
 30
0.0
 10
56.839
 20
3.0709
 30
0.0
 10
56.839
 20
3.0709
 30
0.0
 10
56.839
 20
3.0709
 30
0.0
 10
57.6186
 20
3.0709
 30
0.0
 10
57.6186
 20
3.0709
 30
0.0
 10
57.6186
 20
3.0709
 30
0.0
 10
57.6251
 20
3.0709
 30
0.0
 10
57.6186
 20
3.0968
 30
0.0
 10
57.6186
 20
3.0903
 30
0.0
  0
SPLINE
  5
79
330
1F
100
AcDbEntity
  8
Ilustrace
 62
   254
370
    30
100
AcDbSpline
210
0.0
220
0.0
230
1.0
 70
    11
 71
     3
 72
    36
 73
    32
 74
     0
 42
0.0000000001
 43
0.0000000001
 40
0.0
 40
0.0
 40
0.0
 40
0.0
 40
0.1111111111111111
 40
0.1111111111111111
 40
0.1111111111111111
 40
0.1111111111111111
 40
0.2222222222222222
 40
0.2222222222222222
 40
0.2222222222222222
 40
0.2222222222222222
 40
0.3333333333333333
 40
0.3333333333333333
 40
0.3333333333333333
 40
0.3333333333333333
 40
0.4444444444444444
 40
0.4444444444444444
 40
0.4444444444444444
 40
0.4444444444444444
 40
0.5555555555555556
 40
0.5555555555555556
 40
0.5555555555555556
 40
0.5555555555555556
 40
0.6666666666666666
 40
0.6666666666666666
 40
0.6666666666666666
 40
0.6666666666666666
 40
0.7777777777777778
 40
0.7777777777777778
 40
0.7777777777777778
 40
0.7777777777777778
 40
1.0
 40
1.0
 40
1.0
 40
1.0
 10
57.6186
 20
0.4593
 30
0.0
 10
57.6186
 20
0.4593
 30
0.0
 10
57.6186
 20
-0.6126
 30
0.0
 10
57.6186
 20
-0.6126
 30
0.0
 10
57.6186
 20
-0.6126
 30
0.0
 10
57.6186
 20
-0.6191
 30
0.0
 10
57.6251
 20
-0.5932
 30
0.0
 10
57.6186
 20
-0.5932
 30
0.0
 10
57.6186
 20
-0.5932
 30
0.0
 10
57.6186
 20
-0.5932
 30
0.0
 10
56.839
 20
-0.5932
 30
0.0
 10
56.839
 20
-0.5932
 30
0.0
 10
56.839
 20
-0.5932
 30
0.0
 10
56.8325
 20
-0.5932
 30
0.0
 10
56.839
 20
-0.6191
 30
0.0
 10
56.839
 20
-0.6126
 30
0.0
 10
56.839
 20
-0.6126
 30
0.0
 10
56.839
 20
-0.6126
 30
0.0
 10
56.839
 20
0.4593
 30
0.0
 10
56.839
 20
0.4593
 30
0.0
 10
56.839
 20
0.4593
 30
0.0
 10
56.839
 20
0.4658
 30
0.0
 10
56.8325
 20
0.4399
 30
0.0
 10
56.839
 20
0.4399
 30
0.0
 10
56.839
 20
0.4399
 30
0.0
 10
56.839
 20
0.4399
 30
0.0
 10
57.6186
 20
0.4399
 30
0.0
 10
57.6186
 20
0.4399
 30
0.0
 10
57.6186
 20
0.4399
 30
0.0
 10
57.6251
 20
0.4399
 30
0.0
 10
57.6186
 20
0.4658
 30
0.0
 10
57.6186
 20
0.4593
 30
0.0
  0
SPLINE
  5
7A
330
1F
100
AcDbEntity
  8
Ilustrace
 62
   254
370
    30
100
AcDbSpline
210
0.0
220
0.0
230
1.0
 70
    11
 71
     3
 72
    36
 73
    32
 74
     0
 42
0.0000000001
 43
0.0000000001
 40
0.0
 40
0.0
 40
0.0
 40
0.0
 40
0.1111111111111111
 40
0.1111111111111111
 40
0.1111111111111111
 40
0.1111111111111111
 40
0.2222222222222222
 40
0.2222222222222222
 40
0.2222222222222222
 40
0.2222222222222222
 40
0.3333333333333333
 40
0.3333333333333333
 40
0.3333333333333333
 40
0.3333333333333333
 40
0.4444444444444444
 40
0.4444444444444444
 40
0.4444444444444444
 40
0.4444444444444444
 40
0.5555555555555556
 40
0.5555555555555556
 40
0.5555555555555556
 40
0.5555555555555556
 40
0.6666666666666666
 40
0.6666666666666666
 40
0.6666666666666666
 40
0.6666666666666666
 40
0.7777777777777778
 40
0.7777777777777778
 40
0.7777777777777778
 40
0.7777777777777778
 40
1.0
 40
1.0
 40
1.0
 40
1.0
 10
57.6186
 20
5.7214
 30
0.0
 10
57.6186
 20
5.7214
 30
0.0
 10
57.6186
 20
4.6496
 30
0.0
 10
57.6186
 20
4.6496
 30
0.0
 10
57.6186
 20
4.6496
 30
0.0
 10
57.6186
 20
4.6431
 30
0.0
 10
57.6251
 20
4.669
 30
0.0
 10
57.6186
 20
4.669
 30
0.0
 10
57.6186
 20
4.669
 30
0.0
 10
57.6186
 20
4.669
 30
0.0
 10
56.839
 20
4.669
 30
0.0
 10
56.839
 20
4.669
 30
0.0
 10
56.839
 20
4.669
 30
0.0
 10
56.8325
 20
4.669
 30
0.0
 10
56.839
 20
4.6431
 30
0.0
 10
56.839
 20
4.6496
 30
0.0
 10
56.839
 20
4.6496
 30
0.0
 10
56.839
 20
4.6496
 30
0.0
 10
56.839
 20
5.7214
 30
0.0
 10
56.839
 20
5.7214
 30
0.0
 10
56.839
 20
5.7214
 30
0.0
 10
56.839
 20
5.7279
 30
0.0
 10
56.8325
 20
5.702
 30
0.0
 10
56.839
 20
5.702
 30
0.0
 10
56.839
 20
5.702
 30
0.0
 10
56.839
 20
5.702
 30
0.0
 10
57.6186
 20
5.702
 30
0.0
 10
57.6186
 20
5.702
 30
0.0
 10
57.6186
 20
5.702
 30
0.0
 10
57.6251
 20
5.702
 30
0.0
 10
57.6186
 20
5.7279
 30
0.0
 10
57.6186
 20
5.7214
 30
0.0
  0
SPLINE
  5
7B
330
1F
100
AcDbEntity
  8
Ilustrace
 62
   254
370
    30
100
AcDbSpline
210
0.0
220
0.0
230
1.0
 70
    11
 71
     3
 72
    36
 73
    32
 74
     0
 42
0.0000000001
 43
0.0000000001
 40
0.0
 40
0.0
 40
0.0
 40
0.0
 40
0.1111111111111111
 40
0.1111111111111111
 40
0.1111111111111111
 40
0.1111111111111111
 40
0.2222222222222222
 40
0.2222222222222222
 40
0.2222222222222222
 40
0.2222222222222222
 40
0.3333333333333333
 40
0.3333333333333333
 40
0.3333333333333333
 40
0.3333333333333333
 40
0.4444444444444444
 40
0.4444444444444444
 40
0.4444444444444444
 40
0.4444444444444444
 40
0.5555555555555556
 40
0.5555555555555556
 40
0.5555555555555556
 40
0.5555555555555556
 40
0.6666666666666666
 40
0.6666666666666666
 40
0.6666666666666666
 40
0.6666666666666666
 40
0.7777777777777778
 40
0.7777777777777778
 40
0.7777777777777778
 40
0.7777777777777778
 40
1.0
 40
1.0
 40
1.0
 40
1.0
 10
57.6186
 20
8.3525
 30
0.0
 10
57.6186
 20
8.3525
 30
0.0
 10
57.6186
 20
7.2805
 30
0.0
 10
57.6186
 20
7.2805
 30
0.0
 10
57.6186
 20
7.2805
 30
0.0
 10
57.6186
 20
7.274
 30
0.0
 10
57.6251
 20
7.3001
 30
0.0
 10
57.6186
 20
7.3001
 30
0.0
 10
57.6186
 20
7.3001
 30
0.0
 10
57.6186
 20
7.3001
 30
0.0
 10
56.839
 20
7.3001
 30
0.0
 10
56.839
 20
7.3001
 30
0.0
 10
56.839
 20
7.3001
 30
0.0
 10
56.8325
 20
7.3001
 30
0.0
 10
56.839
 20
7.274
 30
0.0
 10
56.839
 20
7.2805
 30
0.0
 10
56.839
 20
7.2805
 30
0.0
 10
56.839
 20
7.2805
 30
0.0
 10
56.839
 20
8.3525
 30
0.0
 10
56.839
 20
8.3525
 30
0.0
 10
56.839
 20
8.3525
 30
0.0
 10
56.839
 20
8.359
 30
0.0
 10
56.8325
 20
8.3329
 30
0.0
 10
56.839
 20
8.3329
 30
0.0
 10
56.839
 20
8.3329
 30
0.0
 10
56.839
 20
8.3329
 30
0.0
 10
57.6186
 20
8.3329
 30
0.0
 10
57.6186
 20
8.3329
 30
0.0
 10
57.6186
 20
8.3329
 30
0.0
 10
57.6251
 20
8.3329
 30
0.0
 10
57.6186
 20
8.359
 30
0.0
 10
57.6186
 20
8.3525
 30
0.0
  0
SPLINE
  5
7C
330
1F
100
AcDbEntity
  8
Ilustrace
 62
   254
370
    30
100
AcDbSpline
210
0.0
220
0.0
230
1.0
 70
    11
 71
     3
 72
    36
 73
    32
 74
     0
 42
0.0000000001
 43
0.0000000001
 40
0.0
 40
0.0
 40
0.0
 40
0.0
 40
0.1111111111111111
 40
0.1111111111111111
 40
0.1111111111111111
 40
0.1111111111111111
 40
0.2222222222222222
 40
0.2222222222222222
 40
0.2222222222222222
 40
0.2222222222222222
 40
0.3333333333333333
 40
0.3333333333333333
 40
0.3333333333333333
 40
0.3333333333333333
 40
0.4444444444444444
 40
0.4444444444444444
 40
0.4444444444444444
 40
0.4444444444444444
 40
0.5555555555555556
 40
0.5555555555555556
 40
0.5555555555555556
 40
0.5555555555555556
 40
0.6666666666666666
 40
0.6666666666666666
 40
0.6666666666666666
 40
0.6666666666666666
 40
0.7777777777777778
 40
0.7777777777777778
 40
0.7777777777777778
 40
0.7777777777777778
 40
1.0
 40
1.0
 40
1.0
 40
1.0
 10
12.7932
 20
3.0903
 30
0.0
 10
12.7932
 20
3.0903
 30
0.0
 10
12.7932
 20
2.0185
 30
0.0
 10
12.7932
 20
2.0185
 30
0.0
 10
12.7932
 20
2.0185
 30
0.0
 10
12.7932
 20
2.012
 30
0.0
 10
12.7997
 20
2.0379
 30
0.0
 10
12.7932
 20
2.0379
 30
0.0
 10
12.7932
 20
2.0379
 30
0.0
 10
12.7932
 20
2.0379
 30
0.0
 10
12.0137
 20
2.0379
 30
0.0
 10
12.0137
 20
2.0379
 30
0.0
 10
12.0137
 20
2.0379
 30
0.0
 10
12.0072
 20
2.0379
 30
0.0
 10
12.0137
 20
2.012
 30
0.0
 10
12.0137
 20
2.0185
 30
0.0
 10
12.0137
 20
2.0185
 30
0.0
 10
12.0137
 20
2.0185
 30
0.0
 10
12.0137
 20
3.0903
 30
0.0
 10
12.0137
 20
3.0903
 30
0.0
 10
12.0137
 20
3.0903
 30
0.0
 10
12.0137
 20
3.0968
 30
0.0
 10
12.0072
 20
3.0709
 30
0.0
 10
12.0137
 20
3.0709
 30
0.0
 10
12.0137
 20
3.0709
 30
0.0
 10
12.0137
 20
3.0709
 30
0.0
 10
12.7932
 20
3.0709
 30
0.0
 10
12.7932
 20
3.0709
 30
0.0
 10
12.7932
 20
3.0709
 30
0.0
 10
12.7997
 20
3.0709
 30
0.0
 10
12.7932
 20
3.0968
 30
0.0
 10
12.7932
 20
3.0903
 30
0.0
  0
SPLINE
  5
7D
330
1F
100
AcDbEntity
  8
Ilustrace
 62
   254
370
    30
100
AcDbSpline
210
0.0
220
0.0
230
1.0
 70
    11
 71
     3
 72
    36
 73
    32
 74
     0
 42
0.0000000001
 43
0.0000000001
 40
0.0
 40
0.0
 40
0.0
 40
0.0
 40
0.1111111111111111
 40
0.1111111111111111
 40
0.1111111111111111
 40
0.1111111111111111
 40
0.2222222222222222
 40
0.2222222222222222
 40
0.2222222222222222
 40
0.2222222222222222
 40
0.3333333333333333
 40
0.3333333333333333
 40
0.3333333333333333
 40
0.3333333333333333
 40
0.4444444444444444
 40
0.4444444444444444
 40
0.4444444444444444
 40
0.4444444444444444
 40
0.5555555555555556
 40
0.5555555555555556
 40
0.5555555555555556
 40
0.5555555555555556
 40
0.6666666666666666
 40
0.6666666666666666
 40
0.6666666666666666
 40
0.6666666666666666
 40
0.7777777777777778
 40
0.7777777777777778
 40
0.7777777777777778
 40
0.7777777777777778
 40
1.0
 40
1.0
 40
1.0
 40
1.0
 10
12.7932
 20
0.4593
 30
0.0
 10
12.7932
 20
0.4593
 30
0.0
 10
12.7932
 20
-0.6126
 30
0.0
 10
12.7932
 20
-0.6126
 30
0.0
 10
12.7932
 20
-0.6126
 30
0.0
 10
12.7932
 20
-0.6191
 30
0.0
 10
12.7997
 20
-0.5932
 30
0.0
 10
12.7932
 20
-0.5932
 30
0.0
 10
12.7932
 20
-0.5932
 30
0.0
 10
12.7932
 20
-0.5932
 30
0.0
 10
12.0137
 20
-0.5932
 30
0.0
 10
12.0137
 20
-0.5932
 30
0.0
 10
12.0137
 20
-0.5932
 30
0.0
 10
12.0072
 20
-0.5932
 30
0.0
 10
12.0137
 20
-0.6191
 30
0.0
 10
12.0137
 20
-0.6126
 30
0.0
 10
12.0137
 20
-0.6126
 30
0.0
 10
12.0137
 20
-0.6126
 30
0.0
 10
12.0137
 20
0.4593
 30
0.0
 10
12.0137
 20
0.4593
 30
0.0
 10
12.0137
 20
0.4593
 30
0.0
 10
12.0137
 20
0.4658
 30
0.0
 10
12.0072
 20
0.4399
 30
0.0
 10
12.0137
 20
0.4399
 30
0.0
 10
12.0137
 20
0.4399
 30
0.0
 10
12.0137
 20
0.4399
 30
0.0
 10
12.7932
 20
0.4399
 30
0.0
 10
12.7932
 20
0.4399
 30
0.0
 10
12.7932
 20
0.4399
 30
0.0
 10
12.7997
 20
0.4399
 30
0.0
 10
12.7932
 20
0.4658
 30
0.0
 10
12.7932
 20
0.4593
 30
0.0
  0
SPLINE
  5
7E
330
1F
100
AcDbEntity
  8
Ilustrace
 62
   254
370
    30
100
AcDbSpline
210
0.0
220
0.0
230
1.0
 70
    11
 71
     3
 72
    36
 73
    32
 74
     0
 42
0.0000000001
 43
0.0000000001
 40
0.0
 40
0.0
 40
0.0
 40
0.0
 40
0.1111111111111111
 40
0.1111111111111111
 40
0.1111111111111111
 40
0.1111111111111111
 40
0.2222222222222222
 40
0.2222222222222222
 40
0.2222222222222222
 40
0.2222222222222222
 40
0.3333333333333333
 40
0.3333333333333333
 40
0.3333333333333333
 40
0.3333333333333333
 40
0.4444444444444444
 40
0.4444444444444444
 40
0.4444444444444444
 40
0.4444444444444444
 40
0.5555555555555556
 40
0.5555555555555556
 40
0.5555555555555556
 40
0.5555555555555556
 40
0.6666666666666666
 40
0.6666666666666666
 40
0.6666666666666666
 40
0.6666666666666666
 40
0.7777777777777778
 40
0.7777777777777778
 40
0.7777777777777778
 40
0.7777777777777778
 40
1.0
 40
1.0
 40
1.0
 40
1.0
 10
12.7932
 20
5.7214
 30
0.0
 10
12.7932
 20
5.7214
 30
0.0
 10
12.7932
 20
4.6496
 30
0.0
 10
12.7932
 20
4.6496
 30
0.0
 10
12.7932
 20
4.6496
 30
0.0
 10
12.7932
 20
4.6431
 30
0.0
 10
12.7997
 20
4.669
 30
0.0
 10
12.7932
 20
4.669
 30
0.0
 10
12.7932
 20
4.669
 30
0.0
 10
12.7932
 20
4.669
 30
0.0
 10
12.0137
 20
4.669
 30
0.0
 10
12.0137
 20
4.669
 30
0.0
 10
12.0137
 20
4.669
 30
0.0
 10
12.0072
 20
4.669
 30
0.0
 10
12.0137
 20
4.6431
 30
0.0
 10
12.0137
 20
4.6496
 30
0.0
 10
12.0137
 20
4.6496
 30
0.0
 10
12.0137
 20
4.6496
 30
0.0
 10
12.0137
 20
5.7214
 30
0.0
 10
12.0137
 20
5.7214
 30
0.0
 10
12.0137
 20
5.7214
 30
0.0
 10
12.0137
 20
5.7279
 30
0.0
 10
12.0072
 20
5.702
 30
0.0
 10
12.0137
 20
5.702
 30
0.0
 10
12.0137
 20
5.702
 30
0.0
 10
12.0137
 20
5.702
 30
0.0
 10
12.7932
 20
5.702
 30
0.0
 10
12.7932
 20
5.702
 30
0.0
 10
12.7932
 20
5.702
 30
0.0
 10
12.7997
 20
5.702
 30
0.0
 10
12.7932
 20
5.7279
 30
0.0
 10
12.7932
 20
5.7214
 30
0.0
  0
SPLINE
  5
7F
330
1F
100
AcDbEntity
  8
Ilustrace
 62
   254
370
    30
100
AcDbSpline
210
0.0
220
0.0
230
1.0
 70
    11
 71
     3
 72
    36
 73
    32
 74
     0
 42
0.0000000001
 43
0.0000000001
 40
0.0
 40
0.0
 40
0.0
 40
0.0
 40
0.1111111111111111
 40
0.1111111111111111
 40
0.1111111111111111
 40
0.1111111111111111
 40
0.2222222222222222
 40
0.2222222222222222
 40
0.2222222222222222
 40
0.2222222222222222
 40
0.3333333333333333
 40
0.3333333333333333
 40
0.3333333333333333
 40
0.3333333333333333
 40
0.4444444444444444
 40
0.4444444444444444
 40
0.4444444444444444
 40
0.4444444444444444
 40
0.5555555555555556
 40
0.5555555555555556
 40
0.5555555555555556
 40
0.5555555555555556
 40
0.6666666666666666
 40
0.6666666666666666
 40
0.6666666666666666
 40
0.6666666666666666
 40
0.7777777777777778
 40
0.7777777777777778
 40
0.7777777777777778
 40
0.7777777777777778
 40
1.0
 40
1.0
 40
1.0
 40
1.0
 10
12.7932
 20
8.3525
 30
0.0
 10
12.7932
 20
8.3525
 30
0.0
 10
12.7932
 20
7.2805
 30
0.0
 10
12.7932
 20
7.2805
 30
0.0
 10
12.7932
 20
7.2805
 30
0.0
 10
12.7932
 20
7.274
 30
0.0
 10
12.7997
 20
7.3001
 30
0.0
 10
12.7932
 20
7.3001
 30
0.0
 10
12.7932
 20
7.3001
 30
0.0
 10
12.7932
 20
7.3001
 30
0.0
 10
12.0137
 20
7.3001
 30
0.0
 10
12.0137
 20
7.3001
 30
0.0
 10
12.0137
 20
7.3001
 30
0.0
 10
12.0072
 20
7.3001
 30
0.0
 10
12.0137
 20
7.274
 30
0.0
 10
12.0137
 20
7.2805
 30
0.0
 10
12.0137
 20
7.2805
 30
0.0
 10
12.0137
 20
7.2805
 30
0.0
 10
12.0137
 20
8.3525
 30
0.0
 10
12.0137
 20
8.3525
 30
0.0
 10
12.0137
 20
8.3525
 30
0.0
 10
12.0137
 20
8.359
 30
0.0
 10
12.0072
 20
8.3329
 30
0.0
 10
12.0137
 20
8.3329
 30
0.0
 10
12.0137
 20
8.3329
 30
0.0
 10
12.0137
 20
8.3329
 30
0.0
 10
12.7932
 20
8.3329
 30
0.0
 10
12.7932
 20
8.3329
 30
0.0
 10
12.7932
 20
8.3329
 30
0.0
 10
12.7997
 20
8.3329
 30
0.0
 10
12.7932
 20
8.359
 30
0.0
 10
12.7932
 20
8.3525
 30
0.0
  0
SPLINE
  5
80
330
1F
100
AcDbEntity
  8
Ilustrace
 62
   254
370
    30
100
AcDbSpline
210
0.0
220
0.0
230
1.0
 70
    11
 71
     3
 72
    36
 73
    32
 74
     0
 42
0.0000000001
 43
0.0000000001
 40
0.0
 40
0.0
 40
0.0
 40
0.0
 40
0.1111111111111111
 40
0.1111111111111111
 40
0.1111111111111111
 40
0.1111111111111111
 40
0.2222222222222222
 40
0.2222222222222222
 40
0.2222222222222222
 40
0.2222222222222222
 40
0.3333333333333333
 40
0.3333333333333333
 40
0.3333333333333333
 40
0.3333333333333333
 40
0.4444444444444444
 40
0.4444444444444444
 40
0.4444444444444444
 40
0.4444444444444444
 40
0.5555555555555556
 40
0.5555555555555556
 40
0.5555555555555556
 40
0.5555555555555556
 40
0.6666666666666666
 40
0.6666666666666666
 40
0.6666666666666666
 40
0.6666666666666666
 40
0.7777777777777778
 40
0.7777777777777778
 40
0.7777777777777778
 40
0.7777777777777778
 40
1.0
 40
1.0
 40
1.0
 40
1.0
 10
-32.032
 20
3.0903
 30
0.0
 10
-32.032
 20
3.0903
 30
0.0
 10
-32.032
 20
2.0185
 30
0.0
 10
-32.032
 20
2.0185
 30
0.0
 10
-32.032
 20
2.0185
 30
0.0
 10
-32.032
 20
2.012
 30
0.0
 10
-32.0255
 20
2.0379
 30
0.0
 10
-32.032
 20
2.0379
 30
0.0
 10
-32.032
 20
2.0379
 30
0.0
 10
-32.032
 20
2.0379
 30
0.0
 10
-32.8116
 20
2.0379
 30
0.0
 10
-32.8116
 20
2.0379
 30
0.0
 10
-32.8116
 20
2.0379
 30
0.0
 10
-32.8181
 20
2.0379
 30
0.0
 10
-32.8116
 20
2.012
 30
0.0
 10
-32.8116
 20
2.0185
 30
0.0
 10
-32.8116
 20
2.0185
 30
0.0
 10
-32.8116
 20
2.0185
 30
0.0
 10
-32.8116
 20
3.0903
 30
0.0
 10
-32.8116
 20
3.0903
 30
0.0
 10
-32.8116
 20
3.0903
 30
0.0
 10
-32.8116
 20
3.0968
 30
0.0
 10
-32.8181
 20
3.0709
 30
0.0
 10
-32.8116
 20
3.0709
 30
0.0
 10
-32.8116
 20
3.0709
 30
0.0
 10
-32.8116
 20
3.0709
 30
0.0
 10
-32.032
 20
3.0709
 30
0.0
 10
-32.032
 20
3.0709
 30
0.0
 10
-32.032
 20
3.0709
 30
0.0
 10
-32.0255
 20
3.0709
 30
0.0
 10
-32.032
 20
3.0968
 30
0.0
 10
-32.032
 20
3.0903
 30
0.0
  0
SPLINE
  5
81
330
1F
100
AcDbEntity
  8
Ilustrace
 62
   254
370
    30
100
AcDbSpline
210
0.0
220
0.0
230
1.0
 70
    11
 71
     3
 72
    36
 73
    32
 74
     0
 42
0.0000000001
 43
0.0000000001
 40
0.0
 40
0.0
 40
0.0
 40
0.0
 40
0.1111111111111111
 40
0.1111111111111111
 40
0.1111111111111111
 40
0.1111111111111111
 40
0.2222222222222222
 40
0.2222222222222222
 40
0.2222222222222222
 40
0.2222222222222222
 40
0.3333333333333333
 40
0.3333333333333333
 40
0.3333333333333333
 40
0.3333333333333333
 40
0.4444444444444444
 40
0.4444444444444444
 40
0.4444444444444444
 40
0.4444444444444444
 40
0.5555555555555556
 40
0.5555555555555556
 40
0.5555555555555556
 40
0.5555555555555556
 40
0.6666666666666666
 40
0.6666666666666666
 40
0.6666666666666666
 40
0.6666666666666666
 40
0.7777777777777778
 40
0.7777777777777778
 40
0.7777777777777778
 40
0.7777777777777778
 40
1.0
 40
1.0
 40
1.0
 40
1.0
 10
-32.032
 20
0.4593
 30
0.0
 10
-32.032
 20
0.4593
 30
0.0
 10
-32.032
 20
-0.6126
 30
0.0
 10
-32.032
 20
-0.6126
 30
0.0
 10
-32.032
 20
-0.6126
 30
0.0
 10
-32.032
 20
-0.6191
 30
0.0
 10
-32.0255
 20
-0.5932
 30
0.0
 10
-32.032
 20
-0.5932
 30
0.0
 10
-32.032
 20
-0.5932
 30
0.0
 10
-32.032
 20
-0.5932
 30
0.0
 10
-32.8116
 20
-0.5932
 30
0.0
 10
-32.8116
 20
-0.5932
 30
0.0
 10
-32.8116
 20
-0.5932
 30
0.0
 10
-32.8181
 20
-0.5932
 30
0.0
 10
-32.8116
 20
-0.6191
 30
0.0
 10
-32.8116
 20
-0.6126
 30
0.0
 10
-32.8116
 20
-0.6126
 30
0.0
 10
-32.8116
 20
-0.6126
 30
0.0
 10
-32.8116
 20
0.4593
 30
0.0
 10
-32.8116
 20
0.4593
 30
0.0
 10
-32.8116
 20
0.4593
 30
0.0
 10
-32.8116
 20
0.4658
 30
0.0
 10
-32.8181
 20
0.4399
 30
0.0
 10
-32.8116
 20
0.4399
 30
0.0
 10
-32.8116
 20
0.4399
 30
0.0
 10
-32.8116
 20
0.4399
 30
0.0
 10
-32.032
 20
0.4399
 30
0.0
 10
-32.032
 20
0.4399
 30
0.0
 10
-32.032
 20
0.4399
 30
0.0
 10
-32.0255
 20
0.4399
 30
0.0
 10
-32.032
 20
0.4658
 30
0.0
 10
-32.032
 20
0.4593
 30
0.0
  0
SPLINE
  5
82
330
1F
100
AcDbEntity
  8
Ilustrace
 62
   254
370
    30
100
AcDbSpline
210
0.0
220
0.0
230
1.0
 70
    11
 71
     3
 72
    36
 73
    32
 74
     0
 42
0.0000000001
 43
0.0000000001
 40
0.0
 40
0.0
 40
0.0
 40
0.0
 40
0.1111111111111111
 40
0.1111111111111111
 40
0.1111111111111111
 40
0.1111111111111111
 40
0.2222222222222222
 40
0.2222222222222222
 40
0.2222222222222222
 40
0.2222222222222222
 40
0.3333333333333333
 40
0.3333333333333333
 40
0.3333333333333333
 40
0.3333333333333333
 40
0.4444444444444444
 40
0.4444444444444444
 40
0.4444444444444444
 40
0.4444444444444444
 40
0.5555555555555556
 40
0.5555555555555556
 40
0.5555555555555556
 40
0.5555555555555556
 40
0.6666666666666666
 40
0.6666666666666666
 40
0.6666666666666666
 40
0.6666666666666666
 40
0.7777777777777778
 40
0.7777777777777778
 40
0.7777777777777778
 40
0.7777777777777778
 40
1.0
 40
1.0
 40
1.0
 40
1.0
 10
-32.032
 20
5.7214
 30
0.0
 10
-32.032
 20
5.7214
 30
0.0
 10
-32.032
 20
4.6496
 30
0.0
 10
-32.032
 20
4.6496
 30
0.0
 10
-32.032
 20
4.6496
 30
0.0
 10
-32.032
 20
4.6431
 30
0.0
 10
-32.0255
 20
4.669
 30
0.0
 10
-32.032
 20
4.669
 30
0.0
 10
-32.032
 20
4.669
 30
0.0
 10
-32.032
 20
4.669
 30
0.0
 10
-32.8116
 20
4.669
 30
0.0
 10
-32.8116
 20
4.669
 30
0.0
 10
-32.8116
 20
4.669
 30
0.0
 10
-32.8181
 20
4.669
 30
0.0
 10
-32.8116
 20
4.6431
 30
0.0
 10
-32.8116
 20
4.6496
 30
0.0
 10
-32.8116
 20
4.6496
 30
0.0
 10
-32.8116
 20
4.6496
 30
0.0
 10
-32.8116
 20
5.7214
 30
0.0
 10
-32.8116
 20
5.7214
 30
0.0
 10
-32.8116
 20
5.7214
 30
0.0
 10
-32.8116
 20
5.7279
 30
0.0
 10
-32.8181
 20
5.702
 30
0.0
 10
-32.8116
 20
5.702
 30
0.0
 10
-32.8116
 20
5.702
 30
0.0
 10
-32.8116
 20
5.702
 30
0.0
 10
-32.032
 20
5.702
 30
0.0
 10
-32.032
 20
5.702
 30
0.0
 10
-32.032
 20
5.702
 30
0.0
 10
-32.0255
 20
5.702
 30
0.0
 10
-32.032
 20
5.7279
 30
0.0
 10
-32.032
 20
5.7214
 30
0.0
  0
SPLINE
  5
83
330
1F
100
AcDbEntity
  8
Ilustrace
 62
   254
370
    30
100
AcDbSpline
210
0.0
220
0.0
230
1.0
 70
    11
 71
     3
 72
    36
 73
    32
 74
     0
 42
0.0000000001
 43
0.0000000001
 40
0.0
 40
0.0
 40
0.0
 40
0.0
 40
0.1111111111111111
 40
0.1111111111111111
 40
0.1111111111111111
 40
0.1111111111111111
 40
0.2222222222222222
 40
0.2222222222222222
 40
0.2222222222222222
 40
0.2222222222222222
 40
0.3333333333333333
 40
0.3333333333333333
 40
0.3333333333333333
 40
0.3333333333333333
 40
0.4444444444444444
 40
0.4444444444444444
 40
0.4444444444444444
 40
0.4444444444444444
 40
0.5555555555555556
 40
0.5555555555555556
 40
0.5555555555555556
 40
0.5555555555555556
 40
0.6666666666666666
 40
0.6666666666666666
 40
0.6666666666666666
 40
0.6666666666666666
 40
0.7777777777777778
 40
0.7777777777777778
 40
0.7777777777777778
 40
0.7777777777777778
 40
1.0
 40
1.0
 40
1.0
 40
1.0
 10
-32.032
 20
8.3525
 30
0.0
 10
-32.032
 20
8.3525
 30
0.0
 10
-32.032
 20
7.2805
 30
0.0
 10
-32.032
 20
7.2805
 30
0.0
 10
-32.032
 20
7.2805
 30
0.0
 10
-32.032
 20
7.274
 30
0.0
 10
-32.0255
 20
7.3001
 30
0.0
 10
-32.032
 20
7.3001
 30
0.0
 10
-32.032
 20
7.3001
 30
0.0
 10
-32.032
 20
7.3001
 30
0.0
 10
-32.8116
 20
7.3001
 30
0.0
 10
-32.8116
 20
7.3001
 30
0.0
 10
-32.8116
 20
7.3001
 30
0.0
 10
-32.8181
 20
7.3001
 30
0.0
 10
-32.8116
 20
7.274
 30
0.0
 10
-32.8116
 20
7.2805
 30
0.0
 10
-32.8116
 20
7.2805
 30
0.0
 10
-32.8116
 20
7.2805
 30
0.0
 10
-32.8116
 20
8.3525
 30
0.0
 10
-32.8116
 20
8.3525
 30
0.0
 10
-32.8116
 20
8.3525
 30
0.0
 10
-32.8116
 20
8.359
 30
0.0
 10
-32.8181
 20
8.3329
 30
0.0
 10
-32.8116
 20
8.3329
 30
0.0
 10
-32.8116
 20
8.3329
 30
0.0
 10
-32.8116
 20
8.3329
 30
0.0
 10
-32.032
 20
8.3329
 30
0.0
 10
-32.032
 20
8.3329
 30
0.0
 10
-32.032
 20
8.3329
 30
0.0
 10
-32.0255
 20
8.3329
 30
0.0
 10
-32.032
 20
8.359
 30
0.0
 10
-32.032
 20
8.3525
 30
0.0
  0
SPLINE
  5
84
330
1F
100
AcDbEntity
  8
Ilustrace
 62
   254
370
    30
100
AcDbSpline
210
0.0
220
0.0
230
1.0
 70
    11
 71
     3
 72
    36
 73
    32
 74
     0
 42
0.0000000001
 43
0.0000000001
 40
0.0
 40
0.0
 40
0.0
 40
0.0
 40
0.1111111111111111
 40
0.1111111111111111
 40
0.1111111111111111
 40
0.1111111111111111
 40
0.2222222222222222
 40
0.2222222222222222
 40
0.2222222222222222
 40
0.2222222222222222
 40
0.3333333333333333
 40
0.3333333333333333
 40
0.3333333333333333
 40
0.3333333333333333
 40
0.4444444444444444
 40
0.4444444444444444
 40
0.4444444444444444
 40
0.4444444444444444
 40
0.5555555555555556
 40
0.5555555555555556
 40
0.5555555555555556
 40
0.5555555555555556
 40
0.6666666666666666
 40
0.6666666666666666
 40
0.6666666666666666
 40
0.6666666666666666
 40
0.7777777777777778
 40
0.7777777777777778
 40
0.7777777777777778
 40
0.7777777777777778
 40
1.0
 40
1.0
 40
1.0
 40
1.0
 10
-76.8572
 20
3.0903
 30
0.0
 10
-76.8572
 20
3.0903
 30
0.0
 10
-76.8572
 20
2.0185
 30
0.0
 10
-76.8572
 20
2.0185
 30
0.0
 10
-76.8572
 20
2.0185
 30
0.0
 10
-76.8572
 20
2.012
 30
0.0
 10
-76.8507
 20
2.0379
 30
0.0
 10
-76.8572
 20
2.0379
 30
0.0
 10
-76.8572
 20
2.0379
 30
0.0
 10
-76.8572
 20
2.0379
 30
0.0
 10
-77.6367
 20
2.0379
 30
0.0
 10
-77.6367
 20
2.0379
 30
0.0
 10
-77.6367
 20
2.0379
 30
0.0
 10
-77.6432
 20
2.0379
 30
0.0
 10
-77.6367
 20
2.012
 30
0.0
 10
-77.6367
 20
2.0185
 30
0.0
 10
-77.6367
 20
2.0185
 30
0.0
 10
-77.6367
 20
2.0185
 30
0.0
 10
-77.6367
 20
3.0903
 30
0.0
 10
-77.6367
 20
3.0903
 30
0.0
 10
-77.6367
 20
3.0903
 30
0.0
 10
-77.6367
 20
3.0968
 30
0.0
 10
-77.6432
 20
3.0709
 30
0.0
 10
-77.6367
 20
3.0709
 30
0.0
 10
-77.6367
 20
3.0709
 30
0.0
 10
-77.6367
 20
3.0709
 30
0.0
 10
-76.8572
 20
3.0709
 30
0.0
 10
-76.8572
 20
3.0709
 30
0.0
 10
-76.8572
 20
3.0709
 30
0.0
 10
-76.8507
 20
3.0709
 30
0.0
 10
-76.8572
 20
3.0968
 30
0.0
 10
-76.8572
 20
3.0903
 30
0.0
  0
SPLINE
  5
85
330
1F
100
AcDbEntity
  8
Ilustrace
 62
   254
370
    30
100
AcDbSpline
210
0.0
220
0.0
230
1.0
 70
    11
 71
     3
 72
    36
 73
    32
 74
     0
 42
0.0000000001
 43
0.0000000001
 40
0.0
 40
0.0
 40
0.0
 40
0.0
 40
0.1111111111111111
 40
0.1111111111111111
 40
0.1111111111111111
 40
0.1111111111111111
 40
0.2222222222222222
 40
0.2222222222222222
 40
0.2222222222222222
 40
0.2222222222222222
 40
0.3333333333333333
 40
0.3333333333333333
 40
0.3333333333333333
 40
0.3333333333333333
 40
0.4444444444444444
 40
0.4444444444444444
 40
0.4444444444444444
 40
0.4444444444444444
 40
0.5555555555555556
 40
0.5555555555555556
 40
0.5555555555555556
 40
0.5555555555555556
 40
0.6666666666666666
 40
0.6666666666666666
 40
0.6666666666666666
 40
0.6666666666666666
 40
0.7777777777777778
 40
0.7777777777777778
 40
0.7777777777777778
 40
0.7777777777777778
 40
1.0
 40
1.0
 40
1.0
 40
1.0
 10
-76.8572
 20
0.4593
 30
0.0
 10
-76.8572
 20
0.4593
 30
0.0
 10
-76.8572
 20
-0.6126
 30
0.0
 10
-76.8572
 20
-0.6126
 30
0.0
 10
-76.8572
 20
-0.6126
 30
0.0
 10
-76.8572
 20
-0.6191
 30
0.0
 10
-76.8507
 20
-0.5932
 30
0.0
 10
-76.8572
 20
-0.5932
 30
0.0
 10
-76.8572
 20
-0.5932
 30
0.0
 10
-76.8572
 20
-0.5932
 30
0.0
 10
-77.6367
 20
-0.5932
 30
0.0
 10
-77.6367
 20
-0.5932
 30
0.0
 10
-77.6367
 20
-0.5932
 30
0.0
 10
-77.6432
 20
-0.5932
 30
0.0
 10
-77.6367
 20
-0.6191
 30
0.0
 10
-77.6367
 20
-0.6126
 30
0.0
 10
-77.6367
 20
-0.6126
 30
0.0
 10
-77.6367
 20
-0.6126
 30
0.0
 10
-77.6367
 20
0.4593
 30
0.0
 10
-77.6367
 20
0.4593
 30
0.0
 10
-77.6367
 20
0.4593
 30
0.0
 10
-77.6367
 20
0.4658
 30
0.0
 10
-77.6432
 20
0.4399
 30
0.0
 10
-77.6367
 20
0.4399
 30
0.0
 10
-77.6367
 20
0.4399
 30
0.0
 10
-77.6367
 20
0.4399
 30
0.0
 10
-76.8572
 20
0.4399
 30
0.0
 10
-76.8572
 20
0.4399
 30
0.0
 10
-76.8572
 20
0.4399
 30
0.0
 10
-76.8507
 20
0.4399
 30
0.0
 10
-76.8572
 20
0.4658
 30
0.0
 10
-76.8572
 20
0.4593
 30
0.0
  0
SPLINE
  5
86
330
1F
100
AcDbEntity
  8
Ilustrace
 62
   254
370
    30
100
AcDbSpline
210
0.0
220
0.0
230
1.0
 70
    11
 71
     3
 72
    36
 73
    32
 74
     0
 42
0.0000000001
 43
0.0000000001
 40
0.0
 40
0.0
 40
0.0
 40
0.0
 40
0.1111111111111111
 40
0.1111111111111111
 40
0.1111111111111111
 40
0.1111111111111111
 40
0.2222222222222222
 40
0.2222222222222222
 40
0.2222222222222222
 40
0.2222222222222222
 40
0.3333333333333333
 40
0.3333333333333333
 40
0.3333333333333333
 40
0.3333333333333333
 40
0.4444444444444444
 40
0.4444444444444444
 40
0.4444444444444444
 40
0.4444444444444444
 40
0.5555555555555556
 40
0.5555555555555556
 40
0.5555555555555556
 40
0.5555555555555556
 40
0.6666666666666666
 40
0.6666666666666666
 40
0.6666666666666666
 40
0.6666666666666666
 40
0.7777777777777778
 40
0.7777777777777778
 40
0.7777777777777778
 40
0.7777777777777778
 40
1.0
 40
1.0
 40
1.0
 40
1.0
 10
-76.8572
 20
5.7214
 30
0.0
 10
-76.8572
 20
5.7214
 30
0.0
 10
-76.8572
 20
4.6496
 30
0.0
 10
-76.8572
 20
4.6496
 30
0.0
 10
-76.8572
 20
4.6496
 30
0.0
 10
-76.8572
 20
4.6431
 30
0.0
 10
-76.8507
 20
4.669
 30
0.0
 10
-76.8572
 20
4.669
 30
0.0
 10
-76.8572
 20
4.669
 30
0.0
 10
-76.8572
 20
4.669
 30
0.0
 10
-77.6367
 20
4.669
 30
0.0
 10
-77.6367
 20
4.669
 30
0.0
 10
-77.6367
 20
4.669
 30
0.0
 10
-77.6432
 20
4.669
 30
0.0
 10
-77.6367
 20
4.6431
 30
0.0
 10
-77.6367
 20
4.6496
 30
0.0
 10
-77.6367
 20
4.6496
 30
0.0
 10
-77.6367
 20
4.6496
 30
0.0
 10
-77.6367
 20
5.7214
 30
0.0
 10
-77.6367
 20
5.7214
 30
0.0
 10
-77.6367
 20
5.7214
 30
0.0
 10
-77.6367
 20
5.7279
 30
0.0
 10
-77.6432
 20
5.702
 30
0.0
 10
-77.6367
 20
5.702
 30
0.0
 10
-77.6367
 20
5.702
 30
0.0
 10
-77.6367
 20
5.702
 30
0.0
 10
-76.8572
 20
5.702
 30
0.0
 10
-76.8572
 20
5.702
 30
0.0
 10
-76.8572
 20
5.702
 30
0.0
 10
-76.8507
 20
5.702
 30
0.0
 10
-76.8572
 20
5.7279
 30
0.0
 10
-76.8572
 20
5.7214
 30
0.0
  0
SPLINE
  5
87
330
1F
100
AcDbEntity
  8
Ilustrace
 62
   254
370
    30
100
AcDbSpline
210
0.0
220
0.0
230
1.0
 70
    11
 71
     3
 72
    36
 73
    32
 74
     0
 42
0.0000000001
 43
0.0000000001
 40
0.0
 40
0.0
 40
0.0
 40
0.0
 40
0.1111111111111111
 40
0.1111111111111111
 40
0.1111111111111111
 40
0.1111111111111111
 40
0.2222222222222222
 40
0.2222222222222222
 40
0.2222222222222222
 40
0.2222222222222222
 40
0.3333333333333333
 40
0.3333333333333333
 40
0.3333333333333333
 40
0.3333333333333333
 40
0.4444444444444444
 40
0.4444444444444444
 40
0.4444444444444444
 40
0.4444444444444444
 40
0.5555555555555556
 40
0.5555555555555556
 40
0.5555555555555556
 40
0.5555555555555556
 40
0.6666666666666666
 40
0.6666666666666666
 40
0.6666666666666666
 40
0.6666666666666666
 40
0.7777777777777778
 40
0.7777777777777778
 40
0.7777777777777778
 40
0.7777777777777778
 40
1.0
 40
1.0
 40
1.0
 40
1.0
 10
-76.8572
 20
8.3525
 30
0.0
 10
-76.8572
 20
8.3525
 30
0.0
 10
-76.8572
 20
7.2805
 30
0.0
 10
-76.8572
 20
7.2805
 30
0.0
 10
-76.8572
 20
7.2805
 30
0.0
 10
-76.8572
 20
7.274
 30
0.0
 10
-76.8507
 20
7.3001
 30
0.0
 10
-76.8572
 20
7.3001
 30
0.0
 10
-76.8572
 20
7.3001
 30
0.0
 10
-76.8572
 20
7.3001
 30
0.0
 10
-77.6367
 20
7.3001
 30
0.0
 10
-77.6367
 20
7.3001
 30
0.0
 10
-77.6367
 20
7.3001
 30
0.0
 10
-77.6432
 20
7.3001
 30
0.0
 10
-77.6367
 20
7.274
 30
0.0
 10
-77.6367
 20
7.2805
 30
0.0
 10
-77.6367
 20
7.2805
 30
0.0
 10
-77.6367
 20
7.2805
 30
0.0
 10
-77.6367
 20
8.3525
 30
0.0
 10
-77.6367
 20
8.3525
 30
0.0
 10
-77.6367
 20
8.3525
 30
0.0
 10
-77.6367
 20
8.359
 30
0.0
 10
-77.6432
 20
8.3329
 30
0.0
 10
-77.6367
 20
8.3329
 30
0.0
 10
-77.6367
 20
8.3329
 30
0.0
 10
-77.6367
 20
8.3329
 30
0.0
 10
-76.8572
 20
8.3329
 30
0.0
 10
-76.8572
 20
8.3329
 30
0.0
 10
-76.8572
 20
8.3329
 30
0.0
 10
-76.8507
 20
8.3329
 30
0.0
 10
-76.8572
 20
8.359
 30
0.0
 10
-76.8572
 20
8.3525
 30
0.0
  0
SPLINE
  5
88
330
1F
100
AcDbEntity
  8
Ilustrace
 62
   250
100
AcDbSpline
210
0.0
220
0.0
230
1.0
 70
    11
 71
     3
 72
   604
 73
   600
 74
     0
 42
0.0000000001
 43
0.0000000001
 40
0.0
 40
0.0
 40
0.0
 40
0.0
 40
0.0066225165562914
 40
0.0066225165562914
 40
0.0066225165562914
 40
0.0066225165562914
 40
0.0132450331125828
 40
0.0132450331125828
 40
0.0132450331125828
 40
0.0132450331125828
 40
0.0198675496688742
 40
0.0198675496688742
 40
0.0198675496688742
 40
0.0198675496688742
 40
0.0264900662251656
 40
0.0264900662251656
 40
0.0264900662251656
 40
0.0264900662251656
 40
0.033112582781457
 40
0.033112582781457
 40
0.033112582781457
 40
0.033112582781457
 40
0.0397350993377483
 40
0.0397350993377483
 40
0.0397350993377483
 40
0.0397350993377483
 40
0.0463576158940397
 40
0.0463576158940397
 40
0.0463576158940397
 40
0.0463576158940397
 40
0.0529801324503311
 40
0.0529801324503311
 40
0.0529801324503311
 40
0.0529801324503311
 40
0.0596026490066225
 40
0.0596026490066225
 40
0.0596026490066225
 40
0.0596026490066225
 40
0.0662251655629139
 40
0.0662251655629139
 40
0.0662251655629139
 40
0.0662251655629139
 40
0.0728476821192053
 40
0.0728476821192053
 40
0.0728476821192053
 40
0.0728476821192053
 40
0.0794701986754967
 40
0.0794701986754967
 40
0.0794701986754967
 40
0.0794701986754967
 40
0.0860927152317881
 40
0.0860927152317881
 40
0.0860927152317881
 40
0.0860927152317881
 40
0.0927152317880795
 40
0.0927152317880795
 40
0.0927152317880795
 40
0.0927152317880795
 40
0.0993377483443709
 40
0.0993377483443709
 40
0.0993377483443709
 40
0.0993377483443709
 40
0.1059602649006623
 40
0.1059602649006623
 40
0.1059602649006623
 40
0.1059602649006623
 40
0.1125827814569536
 40
0.1125827814569536
 40
0.1125827814569536
 40
0.1125827814569536
 40
0.119205298013245
 40
0.119205298013245
 40
0.119205298013245
 40
0.119205298013245
 40
0.1258278145695364
 40
0.1258278145695364
 40
0.1258278145695364
 40
0.1258278145695364
 40
0.1324503311258278
 40
0.1324503311258278
 40
0.1324503311258278
 40
0.1324503311258278
 40
0.1390728476821192
 40
0.1390728476821192
 40
0.1390728476821192
 40
0.1390728476821192
 40
0.1456953642384106
 40
0.1456953642384106
 40
0.1456953642384106
 40
0.1456953642384106
 40
0.152317880794702
 40
0.152317880794702
 40
0.152317880794702
 40
0.152317880794702
 40
0.1589403973509934
 40
0.1589403973509934
 40
0.1589403973509934
 40
0.1589403973509934
 40
0.1655629139072848
 40
0.1655629139072848
 40
0.1655629139072848
 40
0.1655629139072848
 40
0.1721854304635762
 40
0.1721854304635762
 40
0.1721854304635762
 40
0.1721854304635762
 40
0.1788079470198675
 40
0.1788079470198675
 40
0.1788079470198675
 40
0.1788079470198675
 40
0.1854304635761589
 40
0.1854304635761589
 40
0.1854304635761589
 40
0.1854304635761589
 40
0.1920529801324503
 40
0.1920529801324503
 40
0.1920529801324503
 40
0.1920529801324503
 40
0.1986754966887417
 40
0.1986754966887417
 40
0.1986754966887417
 40
0.1986754966887417
 40
0.2052980132450331
 40
0.2052980132450331
 40
0.2052980132450331
 40
0.2052980132450331
 40
0.2119205298013245
 40
0.2119205298013245
 40
0.2119205298013245
 40
0.2119205298013245
 40
0.2185430463576159
 40
0.2185430463576159
 40
0.2185430463576159
 40
0.2185430463576159
 40
0.2251655629139073
 40
0.2251655629139073
 40
0.2251655629139073
 40
0.2251655629139073
 40
0.2317880794701987
 40
0.2317880794701987
 40
0.2317880794701987
 40
0.2317880794701987
 40
0.2384105960264901
 40
0.2384105960264901
 40
0.2384105960264901
 40
0.2384105960264901
 40
0.2450331125827815
 40
0.2450331125827815
 40
0.2450331125827815
 40
0.2450331125827815
 40
0.2516556291390729
 40
0.2516556291390729
 40
0.2516556291390729
 40
0.2516556291390729
 40
0.2582781456953642
 40
0.2582781456953642
 40
0.2582781456953642
 40
0.2582781456953642
 40
0.2649006622516556
 40
0.2649006622516556
 40
0.2649006622516556
 40
0.2649006622516556
 40
0.271523178807947
 40
0.271523178807947
 40
0.271523178807947
 40
0.271523178807947
 40
0.2781456953642384
 40
0.2781456953642384
 40
0.2781456953642384
 40
0.2781456953642384
 40
0.2847682119205298
 40
0.2847682119205298
 40
0.2847682119205298
 40
0.2847682119205298
 40
0.2913907284768212
 40
0.2913907284768212
 40
0.2913907284768212
 40
0.2913907284768212
 40
0.2980132450331126
 40
0.2980132450331126
 40
0.2980132450331126
 40
0.2980132450331126
 40
0.304635761589404
 40
0.304635761589404
 40
0.304635761589404
 40
0.304635761589404
 40
0.3112582781456953
 40
0.3112582781456953
 40
0.3112582781456953
 40
0.3112582781456953
 40
0.3178807947019868
 40
0.3178807947019868
 40
0.3178807947019868
 40
0.3178807947019868
 40
0.3245033112582781
 40
0.3245033112582781
 40
0.3245033112582781
 40
0.3245033112582781
 40
0.3311258278145696
 40
0.3311258278145696
 40
0.3311258278145696
 40
0.3311258278145696
 40
0.3377483443708609
 40
0.3377483443708609
 40
0.3377483443708609
 40
0.3377483443708609
 40
0.3443708609271523
 40
0.3443708609271523
 40
0.3443708609271523
 40
0.3443708609271523
 40
0.3509933774834437
 40
0.3509933774834437
 40
0.3509933774834437
 40
0.3509933774834437
 40
0.3576158940397351
 40
0.3576158940397351
 40
0.3576158940397351
 40
0.3576158940397351
 40
0.3642384105960265
 40
0.3642384105960265
 40
0.3642384105960265
 40
0.3642384105960265
 40
0.3708609271523179
 40
0.3708609271523179
 40
0.3708609271523179
 40
0.3708609271523179
 40
0.3774834437086093
 40
0.3774834437086093
 40
0.3774834437086093
 40
0.3774834437086093
 40
0.3841059602649007
 40
0.3841059602649007
 40
0.3841059602649007
 40
0.3841059602649007
 40
0.3907284768211921
 40
0.3907284768211921
 40
0.3907284768211921
 40
0.3907284768211921
 40
0.3973509933774834
 40
0.3973509933774834
 40
0.3973509933774834
 40
0.3973509933774834
 40
0.4039735099337748
 40
0.4039735099337748
 40
0.4039735099337748
 40
0.4039735099337748
 40
0.4105960264900662
 40
0.4105960264900662
 40
0.4105960264900662
 40
0.4105960264900662
 40
0.4172185430463576
 40
0.4172185430463576
 40
0.4172185430463576
 40
0.4172185430463576
 40
0.423841059602649
 40
0.423841059602649
 40
0.423841059602649
 40
0.423841059602649
 40
0.4304635761589404
 40
0.4304635761589404
 40
0.4304635761589404
 40
0.4304635761589404
 40
0.4370860927152318
 40
0.4370860927152318
 40
0.4370860927152318
 40
0.4370860927152318
 40
0.4437086092715232
 40
0.4437086092715232
 40
0.4437086092715232
 40
0.4437086092715232
 40
0.4503311258278146
 40
0.4503311258278146
 40
0.4503311258278146
 40
0.4503311258278146
 40
0.456953642384106
 40
0.456953642384106
 40
0.456953642384106
 40
0.456953642384106
 40
0.4635761589403973
 40
0.4635761589403973
 40
0.4635761589403973
 40
0.4635761589403973
 40
0.4701986754966888
 40
0.4701986754966888
 40
0.4701986754966888
 40
0.4701986754966888
 40
0.4768211920529801
 40
0.4768211920529801
 40
0.4768211920529801
 40
0.4768211920529801
 40
0.4834437086092715
 40
0.4834437086092715
 40
0.4834437086092715
 40
0.4834437086092715
 40
0.4900662251655629
 40
0.4900662251655629
 40
0.4900662251655629
 40
0.4900662251655629
 40
0.4966887417218543
 40
0.4966887417218543
 40
0.4966887417218543
 40
0.4966887417218543
 40
0.5033112582781457
 40
0.5033112582781457
 40
0.5033112582781457
 40
0.5033112582781457
 40
0.5099337748344371
 40
0.5099337748344371
 40
0.5099337748344371
 40
0.5099337748344371
 40
0.5165562913907285
 40
0.5165562913907285
 40
0.5165562913907285
 40
0.5165562913907285
 40
0.5231788079470199
 40
0.5231788079470199
 40
0.5231788079470199
 40
0.5231788079470199
 40
0.5298013245033113
 40
0.5298013245033113
 40
0.5298013245033113
 40
0.5298013245033113
 40
0.5364238410596026
 40
0.5364238410596026
 40
0.5364238410596026
 40
0.5364238410596026
 40
0.543046357615894
 40
0.543046357615894
 40
0.543046357615894
 40
0.543046357615894
 40
0.5496688741721855
 40
0.5496688741721855
 40
0.5496688741721855
 40
0.5496688741721855
 40
0.5562913907284768
 40
0.5562913907284768
 40
0.5562913907284768
 40
0.5562913907284768
 40
0.5629139072847682
 40
0.5629139072847682
 40
0.5629139072847682
 40
0.5629139072847682
 40
0.5695364238410596
 40
0.5695364238410596
 40
0.5695364238410596
 40
0.5695364238410596
 40
0.5761589403973509
 40
0.5761589403973509
 40
0.5761589403973509
 40
0.5761589403973509
 40
0.5827814569536424
 40
0.5827814569536424
 40
0.5827814569536424
 40
0.5827814569536424
 40
0.5894039735099338
 40
0.5894039735099338
 40
0.5894039735099338
 40
0.5894039735099338
 40
0.5960264900662252
 40
0.5960264900662252
 40
0.5960264900662252
 40
0.5960264900662252
 40
0.6026490066225165
 40
0.6026490066225165
 40
0.6026490066225165
 40
0.6026490066225165
 40
0.609271523178808
 40
0.609271523178808
 40
0.609271523178808
 40
0.609271523178808
 40
0.6158940397350994
 40
0.6158940397350994
 40
0.6158940397350994
 40
0.6158940397350994
 40
0.6225165562913907
 40
0.6225165562913907
 40
0.6225165562913907
 40
0.6225165562913907
 40
0.6291390728476821
 40
0.6291390728476821
 40
0.6291390728476821
 40
0.6291390728476821
 40
0.6357615894039735
 40
0.6357615894039735
 40
0.6357615894039735
 40
0.6357615894039735
 40
0.6423841059602649
 40
0.6423841059602649
 40
0.6423841059602649
 40
0.6423841059602649
 40
0.6490066225165563
 40
0.6490066225165563
 40
0.6490066225165563
 40
0.6490066225165563
 40
0.6556291390728477
 40
0.6556291390728477
 40
0.6556291390728477
 40
0.6556291390728477
 40
0.6622516556291391
 40
0.6622516556291391
 40
0.6622516556291391
 40
0.6622516556291391
 40
0.6688741721854304
 40
0.6688741721854304
 40
0.6688741721854304
 40
0.6688741721854304
 40
0.6754966887417219
 40
0.6754966887417219
 40
0.6754966887417219
 40
0.6754966887417219
 40
0.6821192052980133
 40
0.6821192052980133
 40
0.6821192052980133
 40
0.6821192052980133
 40
0.6887417218543046
 40
0.6887417218543046
 40
0.6887417218543046
 40
0.6887417218543046
 40
0.695364238410596
 40
0.695364238410596
 40
0.695364238410596
 40
0.695364238410596
 40
0.7019867549668874
 40
0.7019867549668874
 40
0.7019867549668874
 40
0.7019867549668874
 40
0.7086092715231788
 40
0.7086092715231788
 40
0.7086092715231788
 40
0.7086092715231788
 40
0.7152317880794702
 40
0.7152317880794702
 40
0.7152317880794702
 40
0.7152317880794702
 40
0.7218543046357616
 40
0.7218543046357616
 40
0.7218543046357616
 40
0.7218543046357616
 40
0.7284768211920529
 40
0.7284768211920529
 40
0.7284768211920529
 40
0.7284768211920529
 40
0.7350993377483444
 40
0.7350993377483444
 40
0.7350993377483444
 40
0.7350993377483444
 40
0.7417218543046358
 40
0.7417218543046358
 40
0.7417218543046358
 40
0.7417218543046358
 40
0.7483443708609272
 40
0.7483443708609272
 40
0.7483443708609272
 40
0.7483443708609272
 40
0.7549668874172185
 40
0.7549668874172185
 40
0.7549668874172185
 40
0.7549668874172185
 40
0.7615894039735099
 40
0.7615894039735099
 40
0.7615894039735099
 40
0.7615894039735099
 40
0.7682119205298014
 40
0.7682119205298014
 40
0.7682119205298014
 40
0.7682119205298014
 40
0.7748344370860927
 40
0.7748344370860927
 40
0.7748344370860927
 40
0.7748344370860927
 40
0.7814569536423841
 40
0.7814569536423841
 40
0.7814569536423841
 40
0.7814569536423841
 40
0.7880794701986755
 40
0.7880794701986755
 40
0.7880794701986755
 40
0.7880794701986755
 40
0.7947019867549668
 40
0.7947019867549668
 40
0.7947019867549668
 40
0.7947019867549668
 40
0.8013245033112583
 40
0.8013245033112583
 40
0.8013245033112583
 40
0.8013245033112583
 40
0.8079470198675497
 40
0.8079470198675497
 40
0.8079470198675497
 40
0.8079470198675497
 40
0.8145695364238411
 40
0.8145695364238411
 40
0.8145695364238411
 40
0.8145695364238411
 40
0.8211920529801324
 40
0.8211920529801324
 40
0.8211920529801324
 40
0.8211920529801324
 40
0.8278145695364238
 40
0.8278145695364238
 40
0.8278145695364238
 40
0.8278145695364238
 40
0.8344370860927153
 40
0.8344370860927153
 40
0.8344370860927153
 40
0.8344370860927153
 40
0.8410596026490066
 40
0.8410596026490066
 40
0.8410596026490066
 40
0.8410596026490066
 40
0.847682119205298
 40
0.847682119205298
 40
0.847682119205298
 40
0.847682119205298
 40
0.8543046357615894
 40
0.8543046357615894
 40
0.8543046357615894
 40
0.8543046357615894
 40
0.8609271523178808
 40
0.8609271523178808
 40
0.8609271523178808
 40
0.8609271523178808
 40
0.8675496688741722
 40
0.8675496688741722
 40
0.8675496688741722
 40
0.8675496688741722
 40
0.8741721854304636
 40
0.8741721854304636
 40
0.8741721854304636
 40
0.8741721854304636
 40
0.8807947019867549
 40
0.8807947019867549
 40
0.8807947019867549
 40
0.8807947019867549
 40
0.8874172185430463
 40
0.8874172185430463
 40
0.8874172185430463
 40
0.8874172185430463
 40
0.8940397350993378
 40
0.8940397350993378
 40
0.8940397350993378
 40
0.8940397350993378
 40
0.9006622516556292
 40
0.9006622516556292
 40
0.9006622516556292
 40
0.9006622516556292
 40
0.9072847682119205
 40
0.9072847682119205
 40
0.9072847682119205
 40
0.9072847682119205
 40
0.9139072847682119
 40
0.9139072847682119
 40
0.9139072847682119
 40
0.9139072847682119
 40
0.9205298013245033
 40
0.9205298013245033
 40
0.9205298013245033
 40
0.9205298013245033
 40
0.9271523178807947
 40
0.9271523178807947
 40
0.9271523178807947
 40
0.9271523178807947
 40
0.9337748344370861
 40
0.9337748344370861
 40
0.9337748344370861
 40
0.9337748344370861
 40
0.9403973509933775
 40
0.9403973509933775
 40
0.9403973509933775
 40
0.9403973509933775
 40
0.9470198675496688
 40
0.9470198675496688
 40
0.9470198675496688
 40
0.9470198675496688
 40
0.9536423841059603
 40
0.9536423841059603
 40
0.9536423841059603
 40
0.9536423841059603
 40
0.9602649006622517
 40
0.9602649006622517
 40
0.9602649006622517
 40
0.9602649006622517
 40
0.9668874172185431
 40
0.9668874172185431
 40
0.9668874172185431
 40
0.9668874172185431
 40
0.9735099337748344
 40
0.9735099337748344
 40
0.9735099337748344
 40
0.9735099337748344
 40
0.9801324503311258
 40
0.9801324503311258
 40
0.9801324503311258
 40
0.9801324503311258
 40
0.9867549668874173
 40
0.9867549668874173
 40
0.9867549668874173
 40
0.9867549668874173
 40
1.0
 40
1.0
 40
1.0
 40
1.0
 10
-79.1052
 20
-1.7391
 30
0.0
 10
-79.1051
 20
-1.7391
 30
0.0
 10
-79.1011
 20
-1.7395
 30
0.0
 10
-79.0966
 20
-1.7399
 30
0.0
 10
-79.0966
 20
-1.7399
 30
0.0
 10
-79.0966
 20
-1.7399
 30
0.0
 10
-79.0962
 20
-1.74
 30
0.0
 10
-79.0962
 20
-1.74
 30
0.0
 10
-79.0962
 20
-1.74
 30
0.0
 10
-79.0886
 20
-1.7407
 30
0.0
 10
-79.0882
 20
-1.7407
 30
0.0
 10
-79.0882
 20
-1.7407
 30
0.0
 10
-79.0882
 20
-1.7407
 30
0.0
 10
-79.079
 20
-1.7414
 30
0.0
 10
-79.0711
 20
-1.742
 30
0.0
 10
-79.0708
 20
-1.7421
 30
0.0
 10
-79.0708
 20
-1.7421
 30
0.0
 10
-79.0704
 20
-1.7421
 30
0.0
 10
-79.0693
 20
-1.742
 30
0.0
 10
-79.0692
 20
-1.742
 30
0.0
 10
-79.0692
 20
-1.742
 30
0.0
 10
-79.0691
 20
-1.7419
 30
0.0
 10
-79.0669
 20
-1.7405
 30
0.0
 10
-79.0648
 20
-1.7397
 30
0.0
 10
-79.0648
 20
-1.7397
 30
0.0
 10
-79.0648
 20
-1.7397
 30
0.0
 10
-79.064
 20
-1.739
 30
0.0
 10
-79.064
 20
-1.739
 30
0.0
 10
-79.064
 20
-1.739
 30
0.0
 10
-79.0143
 20
-1.7034
 30
0.0
 10
-78.975
 20
-1.6518
 30
0.0
 10
-78.9553
 20
-1.5937
 30
0.0
 10
-78.9553
 20
-1.5937
 30
0.0
 10
-78.9471
 20
-1.5694
 30
0.0
 10
-78.9419
 20
-1.5439
 30
0.0
 10
-78.9364
 20
-1.5189
 30
0.0
 10
-78.9364
 20
-1.5189
 30
0.0
 10
-78.9311
 20
-1.4952
 30
0.0
 10
-78.9254
 20
-1.471
 30
0.0
 10
-78.9231
 20
-1.4468
 30
0.0
 10
-78.9231
 20
-1.4468
 30
0.0
 10
-78.9199
 20
-1.4136
 30
0.0
 10
-78.9847
 20
-1.4299
 30
0.0
 10
-78.9963
 20
-1.4047
 30
0.0
 10
-78.9963
 20
-1.4047
 30
0.0
 10
-79.0065
 20
-1.3825
 30
0.0
 10
-79.0042
 20
-1.3329
 30
0.0
 10
-79.0004
 20
-1.3272
 30
0.0
 10
-79.0004
 20
-1.3272
 30
0.0
 10
-78.9967
 20
-1.3216
 30
0.0
 10
-78.9704
 20
-1.3
 30
0.0
 10
-78.9694
 20
-1.299
 30
0.0
 10
-78.9694
 20
-1.299
 30
0.0
 10
-78.9512
 20
-1.2811
 30
0.0
 10
-78.9252
 20
-1.2738
 30
0.0
 10
-78.9063
 20
-1.2566
 30
0.0
 10
-78.9063
 20
-1.2566
 30
0.0
 10
-78.8975
 20
-1.2487
 30
0.0
 10
-78.8899
 20
-1.2402
 30
0.0
 10
-78.8773
 20
-1.2409
 30
0.0
 10
-78.8773
 20
-1.2409
 30
0.0
 10
-78.8691
 20
-1.2413
 30
0.0
 10
-78.8609
 20
-1.243
 30
0.0
 10
-78.853
 20
-1.2452
 30
0.0
 10
-78.853
 20
-1.2452
 30
0.0
 10
-78.8452
 20
-1.2473
 30
0.0
 10
-78.8261
 20
-1.245
 30
0.0
 10
-78.8299
 20
-1.2325
 30
0.0
 10
-78.8299
 20
-1.2325
 30
0.0
 10
-78.8336
 20
-1.2202
 30
0.0
 10
-78.8395
 20
-1.2076
 30
0.0
 10
-78.8482
 20
-1.1981
 30
0.0
 10
-78.8482
 20
-1.1981
 30
0.0
 10
-78.8637
 20
-1.1811
 30
0.0
 10
-78.8897
 20
-1.1837
 30
0.0
 10
-78.8897
 20
-1.1837
 30
0.0
 10
-78.8897
 20
-1.1837
 30
0.0
 10
-78.8989
 20
-1.1847
 30
0.0
 10
-78.9135
 20
-1.1827
 30
0.0
 10
-78.9222
 20
-1.1794
 30
0.0
 10
-78.9222
 20
-1.1794
 30
0.0
 10
-78.9222
 20
-1.1794
 30
0.0
 10
-78.9282
 20
-1.1772
 30
0.0
 10
-78.9375
 20
-1.1736
 30
0.0
 10
-78.9375
 20
-1.1736
 30
0.0
 10
-78.9515
 20
-1.1683
 30
0.0
 10
-78.9678
 20
-1.1678
 30
0.0
 10
-78.9824
 20
-1.1707
 30
0.0
 10
-78.9824
 20
-1.1707
 30
0.0
 10
-78.9978
 20
-1.1737
 30
0.0
 10
-79.0127
 20
-1.1792
 30
0.0
 10
-79.0283
 20
-1.1812
 30
0.0
 10
-79.0283
 20
-1.1812
 30
0.0
 10
-79.0401
 20
-1.1827
 30
0.0
 10
-79.0481
 20
-1.179
 30
0.0
 10
-79.0481
 20
-1.179
 30
0.0
 10
-79.0481
 20
-1.179
 30
0.0
 10
-79.0565
 20
-1.1751
 30
0.0
 10
-79.0679
 20
-1.1666
 30
0.0
 10
-79.0734
 20
-1.1603
 30
0.0
 10
-79.0734
 20
-1.1603
 30
0.0
 10
-79.0734
 20
-1.1603
 30
0.0
 10
-79.0779
 20
-1.1541
 30
0.0
 10
-79.0779
 20
-1.1541
 30
0.0
 10
-79.0779
 20
-1.1541
 30
0.0
 10
-79.0862
 20
-1.1427
 30
0.0
 10
-79.0885
 20
-1.1309
 30
0.0
 10
-79.0871
 20
-1.117
 30
0.0
 10
-79.0871
 20
-1.117
 30
0.0
 10
-79.0847
 20
-1.0905
 30
0.0
 10
-79.0712
 20
-1.0662
 30
0.0
 10
-79.0683
 20
-1.0397
 30
0.0
 10
-79.0683
 20
-1.0397
 30
0.0
 10
-79.0647
 20
-1.0066
 30
0.0
 10
-79.0948
 20
-0.988
 30
0.0
 10
-79.115
 20
-0.9665
 30
0.0
 10
-79.115
 20
-0.9665
 30
0.0
 10
-79.142
 20
-0.9378
 30
0.0
 10
-79.1675
 20
-0.9075
 30
0.0
 10
-79.1975
 20
-0.8818
 30
0.0
 10
-79.1975
 20
-0.8818
 30
0.0
 10
-79.2145
 20
-0.8672
 30
0.0
 10
-79.2329
 20
-0.8587
 30
0.0
 10
-79.2528
 20
-0.8493
 30
0.0
 10
-79.2528
 20
-0.8493
 30
0.0
 10
-79.2878
 20
-0.8327
 30
0.0
 10
-79.3214
 20
-0.8121
 30
0.0
 10
-79.3577
 20
-0.7986
 30
0.0
 10
-79.3577
 20
-0.7986
 30
0.0
 10
-79.3577
 20
-0.7986
 30
0.0
 10
-79.3615
 20
-0.7971
 30
0.0
 10
-79.3615
 20
-0.7971
 30
0.0
 10
-79.3615
 20
-0.7971
 30
0.0
 10
-79.366
 20
-0.7959
 30
0.0
 10
-79.3771
 20
-0.7935
 30
0.0
 10
-79.3862
 20
-0.7919
 30
0.0
 10
-79.3862
 20
-0.7919
 30
0.0
 10
-79.3862
 20
-0.7919
 30
0.0
 10
-79.4034
 20
-0.7888
 30
0.0
 10
-79.4196
 20
-0.7896
 30
0.0
 10
-79.4196
 20
-0.7896
 30
0.0
 10
-79.4383
 20
-0.7906
 30
0.0
 10
-79.3966
 20
-0.861
 30
0.0
 10
-79.393
 20
-0.8668
 30
0.0
 10
-79.393
 20
-0.8668
 30
0.0
 10
-79.3727
 20
-0.8986
 30
0.0
 10
-79.3436
 20
-0.9237
 30
0.0
 10
-79.3142
 20
-0.9467
 30
0.0
 10
-79.3142
 20
-0.9467
 30
0.0
 10
-79.2995
 20
-0.9583
 30
0.0
 10
-79.2834
 20
-0.9684
 30
0.0
 10
-79.277
 20
-0.9869
 30
0.0
 10
-79.277
 20
-0.9869
 30
0.0
 10
-79.274
 20
-0.9956
 30
0.0
 10
-79.2749
 20
-1.0057
 30
0.0
 10
-79.2751
 20
-1.0148
 30
0.0
 10
-79.2751
 20
-1.0148
 30
0.0
 10
-79.2757
 20
-1.0378
 30
0.0
 10
-79.2772
 20
-1.0609
 30
0.0
 10
-79.2779
 20
-1.0839
 30
0.0
 10
-79.2779
 20
-1.0839
 30
0.0
 10
-79.2789
 20
-1.1234
 30
0.0
 10
-79.2769
 20
-1.1628
 30
0.0
 10
-79.2701
 20
-1.2017
 30
0.0
 10
-79.2701
 20
-1.2017
 30
0.0
 10
-79.2696
 20
-1.2045
 30
0.0
 10
-79.261
 20
-1.2035
 30
0.0
 10
-79.2522
 20
-1.2035
 30
0.0
 10
-79.2522
 20
-1.2035
 30
0.0
 10
-79.2436
 20
-1.2034
 30
0.0
 10
-79.2349
 20
-1.2033
 30
0.0
 10
-79.2346
 20
-1.2048
 30
0.0
 10
-79.2346
 20
-1.2048
 30
0.0
 10
-79.2416
 20
-1.1693
 30
0.0
 10
-79.2431
 20
-1.1333
 30
0.0
 10
-79.2426
 20
-1.0972
 30
0.0
 10
-79.2426
 20
-1.0972
 30
0.0
 10
-79.2422
 20
-1.0641
 30
0.0
 10
-79.236
 20
-1.029
 30
0.0
 10
-79.2402
 20
-0.996
 30
0.0
 10
-79.2402
 20
-0.996
 30
0.0
 10
-79.242
 20
-0.9812
 30
0.0
 10
-79.2529
 20
-0.9702
 30
0.0
 10
-79.264
 20
-0.9614
 30
0.0
 10
-79.264
 20
-0.9614
 30
0.0
 10
-79.2651
 20
-0.9604
 30
0.0
 10
-79.2663
 20
-0.9595
 30
0.0
 10
-79.2675
 20
-0.9586
 30
0.0
 10
-79.2675
 20
-0.9586
 30
0.0
 10
-79.2838
 20
-0.939
 30
0.0
 10
-79.3274
 20
-0.8835
 30
0.0
 10
-79.2912
 20
-0.8905
 30
0.0
 10
-79.2912
 20
-0.8905
 30
0.0
 10
-79.2474
 20
-0.8988
 30
0.0
 10
-79.2222
 20
-0.896
 30
0.0
 10
-79.1849
 20
-0.926
 30
0.0
 10
-79.1849
 20
-0.926
 30
0.0
 10
-79.1636
 20
-0.9489
 30
0.0
 10
-79.143
 20
-0.9724
 30
0.0
 10
-79.1204
 20
-0.9941
 30
0.0
 10
-79.1204
 20
-0.9941
 30
0.0
 10
-79.0993
 20
-1.0143
 30
0.0
 10
-79.1022
 20
-1.038
 30
0.0
 10
-79.1097
 20
-1.0642
 30
0.0
 10
-79.1097
 20
-1.0642
 30
0.0
 10
-79.1165
 20
-1.0878
 30
0.0
 10
-79.1287
 20
-1.1143
 30
0.0
 10
-79.1203
 20
-1.1389
 30
0.0
 10
-79.1203
 20
-1.1389
 30
0.0
 10
-79.1154
 20
-1.1535
 30
0.0
 10
-79.0788
 20
-1.203
 30
0.0
 10
-79.0368
 20
-1.2037
 30
0.0
 10
-79.0368
 20
-1.2037
 30
0.0
 10
-79.0353
 20
-1.2037
 30
0.0
 10
-79.0107
 20
-1.2039
 30
0.0
 10
-78.992
 20
-1.199
 30
0.0
 10
-78.992
 20
-1.199
 30
0.0
 10
-78.9742
 20
-1.1943
 30
0.0
 10
-78.9601
 20
-1.1904
 30
0.0
 10
-78.9428
 20
-1.1984
 30
0.0
 10
-78.9428
 20
-1.1984
 30
0.0
 10
-78.9428
 20
-1.1984
 30
0.0
 10
-78.9361
 20
-1.2015
 30
0.0
 10
-78.9361
 20
-1.2015
 30
0.0
 10
-78.9361
 20
-1.2015
 30
0.0
 10
-78.9291
 20
-1.204
 30
0.0
 10
-78.9309
 20
-1.2072
 30
0.0
 10
-78.94
 20
-1.2088
 30
0.0
 10
-78.94
 20
-1.2088
 30
0.0
 10
-78.94
 20
-1.2088
 30
0.0
 10
-78.9545
 20
-1.2113
 30
0.0
 10
-78.97
 20
-1.2207
 30
0.0
 10
-78.97
 20
-1.2207
 30
0.0
 10
-78.968
 20
-1.2195
 30
0.0
 10
-78.959
 20
-1.2218
 30
0.0
 10
-78.9567
 20
-1.222
 30
0.0
 10
-78.9567
 20
-1.222
 30
0.0
 10
-78.9542
 20
-1.2223
 30
0.0
 10
-78.9456
 20
-1.2245
 30
0.0
 10
-78.9434
 20
-1.2231
 30
0.0
 10
-78.9434
 20
-1.2231
 30
0.0
 10
-78.93
 20
-1.2149
 30
0.0
 10
-78.9198
 20
-1.2127
 30
0.0
 10
-78.9198
 20
-1.2127
 30
0.0
 10
-78.9198
 20
-1.2127
 30
0.0
 10
-78.9107
 20
-1.2107
 30
0.0
 10
-78.902
 20
-1.2092
 30
0.0
 10
-78.9004
 20
-1.2092
 30
0.0
 10
-78.9004
 20
-1.2092
 30
0.0
 10
-78.9004
 20
-1.2092
 30
0.0
 10
-78.899
 20
-1.2091
 30
0.0
 10
-78.899
 20
-1.2091
 30
0.0
 10
-78.899
 20
-1.2091
 30
0.0
 10
-78.8986
 20
-1.2091
 30
0.0
 10
-78.8981
 20
-1.209
 30
0.0
 10
-78.8977
 20
-1.209
 30
0.0
 10
-78.8977
 20
-1.209
 30
0.0
 10
-78.8912
 20
-1.2085
 30
0.0
 10
-78.8848
 20
-1.2079
 30
0.0
 10
-78.8783
 20
-1.2081
 30
0.0
 10
-78.8783
 20
-1.2081
 30
0.0
 10
-78.878
 20
-1.2081
 30
0.0
 10
-78.8777
 20
-1.2081
 30
0.0
 10
-78.8774
 20
-1.2081
 30
0.0
 10
-78.8774
 20
-1.2081
 30
0.0
 10
-78.8778
 20
-1.2081
 30
0.0
 10
-78.8781
 20
-1.2082
 30
0.0
 10
-78.8783
 20
-1.2084
 30
0.0
 10
-78.8783
 20
-1.2084
 30
0.0
 10
-78.8786
 20
-1.2087
 30
0.0
 10
-78.8784
 20
-1.2094
 30
0.0
 10
-78.8779
 20
-1.2102
 30
0.0
 10
-78.8779
 20
-1.2102
 30
0.0
 10
-78.8769
 20
-1.2119
 30
0.0
 10
-78.8748
 20
-1.2143
 30
0.0
 10
-78.8733
 20
-1.2161
 30
0.0
 10
-78.8733
 20
-1.2161
 30
0.0
 10
-78.8733
 20
-1.2161
 30
0.0
 10
-78.873
 20
-1.2165
 30
0.0
 10
-78.873
 20
-1.2165
 30
0.0
 10
-78.873
 20
-1.2165
 30
0.0
 10
-78.8727
 20
-1.217
 30
0.0
 10
-78.8728
 20
-1.2173
 30
0.0
 10
-78.8732
 20
-1.2172
 30
0.0
 10
-78.8732
 20
-1.2172
 30
0.0
 10
-78.8732
 20
-1.2172
 30
0.0
 10
-78.8736
 20
-1.2172
 30
0.0
 10
-78.8736
 20
-1.2172
 30
0.0
 10
-78.8736
 20
-1.2172
 30
0.0
 10
-78.8751
 20
-1.2171
 30
0.0
 10
-78.8766
 20
-1.217
 30
0.0
 10
-78.8781
 20
-1.217
 30
0.0
 10
-78.8781
 20
-1.217
 30
0.0
 10
-78.8924
 20
-1.2166
 30
0.0
 10
-78.9064
 20
-1.2193
 30
0.0
 10
-78.9189
 20
-1.2276
 30
0.0
 10
-78.9189
 20
-1.2276
 30
0.0
 10
-78.9311
 20
-1.2358
 30
0.0
 10
-78.9406
 20
-1.2464
 30
0.0
 10
-78.9533
 20
-1.254
 30
0.0
 10
-78.9533
 20
-1.254
 30
0.0
 10
-78.9626
 20
-1.2597
 30
0.0
 10
-78.9669
 20
-1.2622
 30
0.0
 10
-78.9669
 20
-1.2622
 30
0.0
 10
-78.9669
 20
-1.2622
 30
0.0
 10
-78.9749
 20
-1.2668
 30
0.0
 10
-78.9875
 20
-1.2661
 30
0.0
 10
-78.995
 20
-1.2606
 30
0.0
 10
-78.995
 20
-1.2606
 30
0.0
 10
-78.995
 20
-1.2606
 30
0.0
 10
-79.0074
 20
-1.2513
 30
0.0
 10
-79.0198
 20
-1.2424
 30
0.0
 10
-79.0198
 20
-1.2424
 30
0.0
 10
-79.0223
 20
-1.2406
 30
0.0
 10
-79.0238
 20
-1.2384
 30
0.0
 10
-79.0281
 20
-1.2372
 30
0.0
 10
-79.0281
 20
-1.2372
 30
0.0
 10
-79.0366
 20
-1.2364
 30
0.0
 10
-79.0452
 20
-1.2351
 30
0.0
 10
-79.0517
 20
-1.2369
 30
0.0
 10
-79.0517
 20
-1.2369
 30
0.0
 10
-79.0586
 20
-1.2389
 30
0.0
 10
-79.0616
 20
-1.2415
 30
0.0
 10
-79.0628
 20
-1.2438
 30
0.0
 10
-79.0628
 20
-1.2438
 30
0.0
 10
-79.0626
 20
-1.244
 30
0.0
 10
-79.0624
 20
-1.2452
 30
0.0
 10
-79.0622
 20
-1.2453
 30
0.0
 10
-79.0622
 20
-1.2453
 30
0.0
 10
-79.0538
 20
-1.2529
 30
0.0
 10
-79.0432
 20
-1.2605
 30
0.0
 10
-79.0343
 20
-1.2675
 30
0.0
 10
-79.0343
 20
-1.2675
 30
0.0
 10
-79.0455
 20
-1.2792
 30
0.0
 10
-79.0833
 20
-1.3151
 30
0.0
 10
-79.1544
 20
-1.3501
 30
0.0
 10
-79.1544
 20
-1.3501
 30
0.0
 10
-79.2098
 20
-1.3773
 30
0.0
 10
-79.3219
 20
-1.3766
 30
0.0
 10
-79.3543
 20
-1.3757
 30
0.0
 10
-79.3543
 20
-1.3757
 30
0.0
 10
-79.358
 20
-1.3745
 30
0.0
 10
-79.3616
 20
-1.3731
 30
0.0
 10
-79.365
 20
-1.3714
 30
0.0
 10
-79.365
 20
-1.3714
 30
0.0
 10
-79.3746
 20
-1.3668
 30
0.0
 10
-79.3475
 20
-1.3528
 30
0.0
 10
-79.3375
 20
-1.3478
 30
0.0
 10
-79.3375
 20
-1.3478
 30
0.0
 10
-79.3358
 20
-1.347
 30
0.0
 10
-79.33
 20
-1.344
 30
0.0
 10
-79.3277
 20
-1.3428
 30
0.0
 10
-79.3277
 20
-1.3428
 30
0.0
 10
-79.3247
 20
-1.3412
 30
0.0
 10
-79.3217
 20
-1.3393
 30
0.0
 10
-79.3193
 20
-1.3371
 30
0.0
 10
-79.3193
 20
-1.3371
 30
0.0
 10
-79.3182
 20
-1.3361
 30
0.0
 10
-79.3173
 20
-1.3351
 30
0.0
 10
-79.3166
 20
-1.334
 30
0.0
 10
-79.3166
 20
-1.334
 30
0.0
 10
-79.3146
 20
-1.3309
 30
0.0
 10
-79.3268
 20
-1.3306
 30
0.0
 10
-79.3283
 20
-1.3305
 30
0.0
 10
-79.3283
 20
-1.3305
 30
0.0
 10
-79.3283
 20
-1.3305
 30
0.0
 10
-79.3284
 20
-1.3305
 30
0.0
 10
-79.3284
 20
-1.3305
 30
0.0
 10
-79.3284
 20
-1.3305
 30
0.0
 10
-79.3284
 20
-1.3305
 30
0.0
 10
-79.3337
 20
-1.3292
 30
0.0
 10
-79.3401
 20
-1.3277
 30
0.0
 10
-79.3401
 20
-1.3277
 30
0.0
 10
-79.3465
 20
-1.3262
 30
0.0
 10
-79.3495
 20
-1.3232
 30
0.0
 10
-79.3469
 20
-1.3211
 30
0.0
 10
-79.3469
 20
-1.3211
 30
0.0
 10
-79.3469
 20
-1.3211
 30
0.0
 10
-79.3444
 20
-1.3192
 30
0.0
 10
-79.3444
 20
-1.3192
 30
0.0
 10
-79.3444
 20
-1.3192
 30
0.0
 10
-79.3236
 20
-1.3029
 30
0.0
 10
-79.3021
 20
-1.2881
 30
0.0
 10
-79.2829
 20
-1.2695
 30
0.0
 10
-79.2829
 20
-1.2695
 30
0.0
 10
-79.2622
 20
-1.2492
 30
0.0
 10
-79.1739
 20
-1.2182
 30
0.0
 10
-79.1698
 20
-1.2163
 30
0.0
 10
-79.1698
 20
-1.2163
 30
0.0
 10
-79.1636
 20
-1.2133
 30
0.0
 10
-79.1567
 20
-1.2108
 30
0.0
 10
-79.1498
 20
-1.2094
 30
0.0
 10
-79.1498
 20
-1.2094
 30
0.0
 10
-79.1492
 20
-1.2092
 30
0.0
 10
-79.1486
 20
-1.2091
 30
0.0
 10
-79.148
 20
-1.209
 30
0.0
 10
-79.148
 20
-1.209
 30
0.0
 10
-79.1474
 20
-1.2089
 30
0.0
 10
-79.1467
 20
-1.2088
 30
0.0
 10
-79.1461
 20
-1.2086
 30
0.0
 10
-79.1461
 20
-1.2086
 30
0.0
 10
-79.1447
 20
-1.2084
 30
0.0
 10
-79.1434
 20
-1.2082
 30
0.0
 10
-79.1421
 20
-1.2081
 30
0.0
 10
-79.1421
 20
-1.2081
 30
0.0
 10
-79.1536
 20
-1.2093
 30
0.0
 10
-79.1659
 20
-1.2038
 30
0.0
 10
-79.1775
 20
-1.205
 30
0.0
 10
-79.1775
 20
-1.205
 30
0.0
 10
-79.1788
 20
-1.2051
 30
0.0
 10
-79.18
 20
-1.2053
 30
0.0
 10
-79.1813
 20
-1.2055
 30
0.0
 10
-79.1813
 20
-1.2055
 30
0.0
 10
-79.1997
 20
-1.2084
 30
0.0
 10
-79.2995
 20
-1.248
 30
0.0
 10
-79.322
 20
-1.2699
 30
0.0
 10
-79.322
 20
-1.2699
 30
0.0
 10
-79.3394
 20
-1.2868
 30
0.0
 10
-79.3649
 20
-1.3056
 30
0.0
 10
-79.3649
 20
-1.3056
 30
0.0
 10
-79.3649
 20
-1.3056
 30
0.0
 10
-79.3724
 20
-1.311
 30
0.0
 10
-79.379
 20
-1.3156
 30
0.0
 10
-79.3797
 20
-1.3157
 30
0.0
 10
-79.3797
 20
-1.3157
 30
0.0
 10
-79.3797
 20
-1.3157
 30
0.0
 10
-79.3802
 20
-1.316
 30
0.0
 10
-79.3802
 20
-1.316
 30
0.0
 10
-79.3802
 20
-1.316
 30
0.0
 10
-79.405
 20
-1.3261
 30
0.0
 10
-79.43
 20
-1.3359
 30
0.0
 10
-79.455
 20
-1.3455
 30
0.0
 10
-79.455
 20
-1.3455
 30
0.0
 10
-79.4721
 20
-1.352
 30
0.0
 10
-79.4892
 20
-1.3585
 30
0.0
 10
-79.5065
 20
-1.3641
 30
0.0
 10
-79.5065
 20
-1.3641
 30
0.0
 10
-79.5082
 20
-1.3647
 30
0.0
 10
-79.5266
 20
-1.3684
 30
0.0
 10
-79.5209
 20
-1.3715
 30
0.0
 10
-79.5209
 20
-1.3715
 30
0.0
 10
-79.5036
 20
-1.3807
 30
0.0
 10
-79.4816
 20
-1.3786
 30
0.0
 10
-79.4639
 20
-1.3882
 30
0.0
 10
-79.4639
 20
-1.3882
 30
0.0
 10
-79.4405
 20
-1.401
 30
0.0
 10
-79.4781
 20
-1.4134
 30
0.0
 10
-79.4853
 20
-1.421
 30
0.0
 10
-79.4853
 20
-1.421
 30
0.0
 10
-79.4846
 20
-1.4209
 30
0.0
 10
-79.4842
 20
-1.4209
 30
0.0
 10
-79.4845
 20
-1.421
 30
0.0
 10
-79.4845
 20
-1.421
 30
0.0
 10
-79.4848
 20
-1.4211
 30
0.0
 10
-79.4821
 20
-1.4215
 30
0.0
 10
-79.478
 20
-1.4219
 30
0.0
 10
-79.478
 20
-1.4219
 30
0.0
 10
-79.4739
 20
-1.4222
 30
0.0
 10
-79.4695
 20
-1.4227
 30
0.0
 10
-79.4682
 20
-1.4229
 30
0.0
 10
-79.4682
 20
-1.4229
 30
0.0
 10
-79.4682
 20
-1.4229
 30
0.0
 10
-79.4678
 20
-1.4229
 30
0.0
 10
-79.4678
 20
-1.4229
 30
0.0
 10
-79.4678
 20
-1.4229
 30
0.0
 10
-79.4623
 20
-1.4234
 30
0.0
 10
-79.4555
 20
-1.425
 30
0.0
 10
-79.45
 20
-1.4243
 30
0.0
 10
-79.45
 20
-1.4243
 30
0.0
 10
-79.4433
 20
-1.4234
 30
0.0
 10
-79.4352
 20
-1.4178
 30
0.0
 10
-79.429
 20
-1.4152
 30
0.0
 10
-79.429
 20
-1.4152
 30
0.0
 10
-79.4116
 20
-1.408
 30
0.0
 10
-79.3937
 20
-1.4018
 30
0.0
 10
-79.3755
 20
-1.3969
 30
0.0
 10
-79.3755
 20
-1.3969
 30
0.0
 10
-79.3575
 20
-1.392
 30
0.0
 10
-79.337
 20
-1.3899
 30
0.0
 10
-79.337
 20
-1.3899
 30
0.0
 10
-79.337
 20
-1.3899
 30
0.0
 10
-79.3278
 20
-1.389
 30
0.0
 10
-79.3127
 20
-1.3893
 30
0.0
 10
-79.3036
 20
-1.3907
 30
0.0
 10
-79.3036
 20
-1.3907
 30
0.0
 10
-79.3036
 20
-1.3907
 30
0.0
 10
-79.2985
 20
-1.3914
 30
0.0
 10
-79.29
 20
-1.3924
 30
0.0
 10
-79.29
 20
-1.3924
 30
0.0
 10
-79.2797
 20
-1.3944
 30
0.0
 10
-79.2704
 20
-1.396
 30
0.0
 10
-79.2636
 20
-1.3966
 30
0.0
 10
-79.2636
 20
-1.3966
 30
0.0
 10
-79.2608
 20
-1.3968
 30
0.0
 10
-79.2557
 20
-1.3967
 30
0.0
 10
-79.2488
 20
-1.3962
 30
0.0
 10
-79.2488
 20
-1.3962
 30
0.0
 10
-79.2328
 20
-1.3973
 30
0.0
 10
-79.2168
 20
-1.3975
 30
0.0
 10
-79.2009
 20
-1.3951
 30
0.0
 10
-79.2009
 20
-1.3951
 30
0.0
 10
-79.145
 20
-1.3868
 30
0.0
 10
-79.0533
 20
-1.3541
 30
0.0
 10
-79.0533
 20
-1.3541
 30
0.0
 10
-79.0533
 20
-1.3541
 30
0.0
 10
-79.0446
 20
-1.351
 30
0.0
 10
-79.0374
 20
-1.35
 30
0.0
 10
-79.0375
 20
-1.3518
 30
0.0
 10
-79.0375
 20
-1.3518
 30
0.0
 10
-79.0375
 20
-1.3518
 30
0.0
 10
-79.0375
 20
-1.3535
 30
0.0
 10
-79.0375
 20
-1.3535
 30
0.0
 10
-79.0375
 20
-1.3535
 30
0.0
 10
-79.0375
 20
-1.3583
 30
0.0
 10
-79.0375
 20
-1.3632
 30
0.0
 10
-79.0374
 20
-1.368
 30
0.0
 10
-79.0374
 20
-1.368
 30
0.0
 10
-79.0368
 20
-1.3859
 30
0.0
 10
-79.036
 20
-1.4074
 30
0.0
 10
-79.0168
 20
-1.4142
 30
0.0
 10
-79.0168
 20
-1.4142
 30
0.0
 10
-79.001
 20
-1.4198
 30
0.0
 10
-78.9634
 20
-1.4175
 30
0.0
 10
-78.9585
 20
-1.4382
 30
0.0
 10
-78.9585
 20
-1.4382
 30
0.0
 10
-78.9569
 20
-1.4448
 30
0.0
 10
-78.9599
 20
-1.4542
 30
0.0
 10
-78.9609
 20
-1.4608
 30
0.0
 10
-78.9609
 20
-1.4608
 30
0.0
 10
-78.9628
 20
-1.4721
 30
0.0
 10
-78.965
 20
-1.4834
 30
0.0
 10
-78.9673
 20
-1.4947
 30
0.0
 10
-78.9673
 20
-1.4947
 30
0.0
 10
-78.9726
 20
-1.5204
 30
0.0
 10
-78.9774
 20
-1.5464
 30
0.0
 10
-78.9849
 20
-1.5716
 30
0.0
 10
-78.9849
 20
-1.5716
 30
0.0
 10
-78.9849
 20
-1.5718
 30
0.0
 10
-78.9854
 20
-1.5719
 30
0.0
 10
-78.9855
 20
-1.5717
 30
0.0
 10
-78.9855
 20
-1.5717
 30
0.0
 10
-78.9855
 20
-1.5717
 30
0.0
 10
-78.9874
 20
-1.5658
 30
0.0
 10
-78.9874
 20
-1.5658
 30
0.0
 10
-78.9874
 20
-1.5658
 30
0.0
 10
-78.9874
 20
-1.5658
 30
0.0
 10
-78.9886
 20
-1.5616
 30
0.0
 10
-78.9886
 20
-1.5616
 30
0.0
 10
-78.9886
 20
-1.5616
 30
0.0
 10
-78.9886
 20
-1.547
 30
0.0
 10
-78.9901
 20
-1.5146
 30
0.0
 10
-79.0031
 20
-1.5534
 30
0.0
 10
-79.0031
 20
-1.5534
 30
0.0
 10
-79.019
 20
-1.6013
 30
0.0
 10
-79.0363
 20
-1.6207
 30
0.0
 10
-79.051
 20
-1.6364
 30
0.0
 10
-79.051
 20
-1.6364
 30
0.0
 10
-79.0485
 20
-1.6148
 30
0.0
 10
-79.0469
 20
-1.5931
 30
0.0
 10
-79.0467
 20
-1.5714
 30
0.0
 10
-79.0467
 20
-1.5714
 30
0.0
 10
-79.0465
 20
-1.5492
 30
0.0
 10
-79.0487
 20
-1.5278
 30
0.0
 10
-79.0558
 20
-1.5067
 30
0.0
 10
-79.0558
 20
-1.5067
 30
0.0
 10
-79.0624
 20
-1.4872
 30
0.0
 10
-79.0782
 20
-1.4741
 30
0.0
 10
-79.0933
 20
-1.4608
 30
0.0
 10
-79.0933
 20
-1.4608
 30
0.0
 10
-79.0959
 20
-1.4585
 30
0.0
 10
-79.1075
 20
-1.4594
 30
0.0
 10
-79.1109
 20
-1.4591
 30
0.0
 10
-79.1109
 20
-1.4591
 30
0.0
 10
-79.111
 20
-1.4591
 30
0.0
 10
-79.111
 20
-1.4591
 30
0.0
 10
-79.111
 20
-1.4591
 30
0.0
 10
-79.111
 20
-1.4591
 30
0.0
 10
-79.1141
 20
-1.4588
 30
0.0
 10
-79.1264
 20
-1.4598
 30
0.0
 10
-79.1288
 20
-1.4577
 30
0.0
 10
-79.1288
 20
-1.4577
 30
0.0
 10
-79.1101
 20
-1.4742
 30
0.0
 10
-79.0966
 20
-1.488
 30
0.0
 10
-79.0886
 20
-1.5113
 30
0.0
 10
-79.0886
 20
-1.5113
 30
0.0
 10
-79.079
 20
-1.5396
 30
0.0
 10
-79.0816
 20
-1.5731
 30
0.0
 10
-79.0836
 20
-1.6023
 30
0.0
 10
-79.0836
 20
-1.6023
 30
0.0
 10
-79.0862
 20
-1.6407
 30
0.0
 10
-79.0924
 20
-1.679
 30
0.0
 10
-79.1005
 20
-1.7166
 30
0.0
 10
-79.1005
 20
-1.7166
 30
0.0
 10
-79.1021
 20
-1.7238
 30
0.0
 10
-79.1047
 20
-1.7312
 30
0.0
 10
-79.1055
 20
-1.7385
 30
0.0
 10
-79.1055
 20
-1.7385
 30
0.0
 10
-79.1055
 20
-1.7385
 30
0.0
 10
-79.1052
 20
-1.7391
 30
0.0
 10
-79.1052
 20
-1.7391
 30
0.0
  0
SPLINE
  5
89
330
1F
100
AcDbEntity
  8
Ilustrace
 62
   250
100
AcDbSpline
210
0.0
220
0.0
230
1.0
 70
    11
 71
     3
 72
    16
 73
    12
 74
     0
 42
0.0000000001
 43
0.0000000001
 40
0.0
 40
0.0
 40
0.0
 40
0.0
 40
0.25
 40
0.25
 40
0.25
 40
0.25
 40
0.5
 40
0.5
 40
0.5
 40
0.5
 40
1.0
 40
1.0
 40
1.0
 40
1.0
 10
-79.4855
 20
-1.4212
 30
0.0
 10
-79.4855
 20
-1.4211
 30
0.0
 10
-79.4854
 20
-1.421
 30
0.0
 10
-79.4853
 20
-1.421
 30
0.0
 10
-79.4853
 20
-1.421
 30
0.0
 10
-79.4853
 20
-1.421
 30
0.0
 10
-79.4853
 20
-1.421
 30
0.0
 10
-79.4853
 20
-1.421
 30
0.0
 10
-79.4853
 20
-1.421
 30
0.0
 10
-79.4853
 20
-1.421
 30
0.0
 10
-79.4855
 20
-1.4212
 30
0.0
 10
-79.4855
 20
-1.4212
 30
0.0
  0
SPLINE
  5
8A
330
1F
100
AcDbEntity
  8
Ilustrace
 62
   250
100
AcDbSpline
210
0.0
220
0.0
230
1.0
 70
    11
 71
     3
 72
    36
 73
    32
 74
     0
 42
0.0000000001
 43
0.0000000001
 40
0.0
 40
0.0
 40
0.0
 40
0.0
 40
0.1111111111111111
 40
0.1111111111111111
 40
0.1111111111111111
 40
0.1111111111111111
 40
0.2222222222222222
 40
0.2222222222222222
 40
0.2222222222222222
 40
0.2222222222222222
 40
0.3333333333333333
 40
0.3333333333333333
 40
0.3333333333333333
 40
0.3333333333333333
 40
0.4444444444444444
 40
0.4444444444444444
 40
0.4444444444444444
 40
0.4444444444444444
 40
0.5555555555555556
 40
0.5555555555555556
 40
0.5555555555555556
 40
0.5555555555555556
 40
0.6666666666666666
 40
0.6666666666666666
 40
0.6666666666666666
 40
0.6666666666666666
 40
0.7777777777777778
 40
0.7777777777777778
 40
0.7777777777777778
 40
0.7777777777777778
 40
1.0
 40
1.0
 40
1.0
 40
1.0
 10
-80.5514
 20
-1.3834
 30
0.0
 10
-80.5514
 20
-1.3834
 30
0.0
 10
-80.7445
 20
-1.957
 30
0.0
 10
-80.7445
 20
-1.957
 30
0.0
 10
-80.7445
 20
-1.957
 30
0.0
 10
-80.7445
 20
-1.957
 30
0.0
 10
-80.5997
 20
-1.957
 30
0.0
 10
-80.5997
 20
-1.957
 30
0.0
 10
-80.5997
 20
-1.957
 30
0.0
 10
-80.5997
 20
-1.957
 30
0.0
 10
-80.5637
 20
-1.8396
 30
0.0
 10
-80.5637
 20
-1.8396
 30
0.0
 10
-80.5637
 20
-1.8396
 30
0.0
 10
-80.5637
 20
-1.8396
 30
0.0
 10
-80.3833
 20
-1.8396
 30
0.0
 10
-80.3833
 20
-1.8396
 30
0.0
 10
-80.3833
 20
-1.8396
 30
0.0
 10
-80.3833
 20
-1.8396
 30
0.0
 10
-80.3472
 20
-1.957
 30
0.0
 10
-80.3472
 20
-1.957
 30
0.0
 10
-80.3472
 20
-1.957
 30
0.0
 10
-80.3472
 20
-1.957
 30
0.0
 10
-80.1985
 20
-1.957
 30
0.0
 10
-80.1985
 20
-1.957
 30
0.0
 10
-80.1985
 20
-1.957
 30
0.0
 10
-80.1985
 20
-1.957
 30
0.0
 10
-80.394
 20
-1.3834
 30
0.0
 10
-80.394
 20
-1.3834
 30
0.0
 10
-80.394
 20
-1.3834
 30
0.0
 10
-80.394
 20
-1.3834
 30
0.0
 10
-80.5514
 20
-1.3834
 30
0.0
 10
-80.5514
 20
-1.3834
 30
0.0
  0
SPLINE
  5
8B
330
1F
100
AcDbEntity
  8
Ilustrace
 62
   250
100
AcDbSpline
210
0.0
220
0.0
230
1.0
 70
    11
 71
     3
 72
    16
 73
    12
 74
     0
 42
0.0000000001
 43
0.0000000001
 40
0.0
 40
0.0
 40
0.0
 40
0.0
 40
0.25
 40
0.25
 40
0.25
 40
0.25
 40
0.5
 40
0.5
 40
0.5
 40
0.5
 40
1.0
 40
1.0
 40
1.0
 40
1.0
 10
-80.4737
 20
-1.546
 30
0.0
 10
-80.4737
 20
-1.546
 30
0.0
 10
-80.4148
 20
-1.7353
 30
0.0
 10
-80.4148
 20
-1.7353
 30
0.0
 10
-80.4148
 20
-1.7353
 30
0.0
 10
-80.4148
 20
-1.7353
 30
0.0
 10
-80.5322
 20
-1.7353
 30
0.0
 10
-80.5322
 20
-1.7353
 30
0.0
 10
-80.5322
 20
-1.7353
 30
0.0
 10
-80.5322
 20
-1.7353
 30
0.0
 10
-80.4737
 20
-1.546
 30
0.0
 10
-80.4737
 20
-1.546
 30
0.0
  0
SPLINE
  5
8C
330
1F
100
AcDbEntity
  8
Ilustrace
 62
   250
100
AcDbSpline
210
0.0
220
0.0
230
1.0
 70
    11
 71
     3
 72
    20
 73
    16
 74
     0
 42
0.0000000001
 43
0.0000000001
 40
0.0
 40
0.0
 40
0.0
 40
0.0
 40
0.2
 40
0.2
 40
0.2
 40
0.2
 40
0.4
 40
0.4
 40
0.4
 40
0.4
 40
0.6
 40
0.6
 40
0.6
 40
0.6
 40
1.0
 40
1.0
 40
1.0
 40
1.0
 10
-80.1785
 20
-1.957
 30
0.0
 10
-80.1785
 20
-1.957
 30
0.0
 10
-80.0434
 20
-1.957
 30
0.0
 10
-80.0434
 20
-1.957
 30
0.0
 10
-80.0434
 20
-1.957
 30
0.0
 10
-80.0434
 20
-1.957
 30
0.0
 10
-80.0434
 20
-1.3835
 30
0.0
 10
-80.0434
 20
-1.3835
 30
0.0
 10
-80.0434
 20
-1.3835
 30
0.0
 10
-80.0434
 20
-1.3835
 30
0.0
 10
-80.1785
 20
-1.3835
 30
0.0
 10
-80.1785
 20
-1.3835
 30
0.0
 10
-80.1785
 20
-1.3835
 30
0.0
 10
-80.1785
 20
-1.3835
 30
0.0
 10
-80.1785
 20
-1.957
 30
0.0
 10
-80.1785
 20
-1.957
 30
0.0
  0
SPLINE
  5
8D
330
1F
100
AcDbEntity
  8
Ilustrace
 62
   250
100
AcDbSpline
210
0.0
220
0.0
230
1.0
 70
    11
 71
     3
 72
    40
 73
    36
 74
     0
 42
0.0000000001
 43
0.0000000001
 40
0.0
 40
0.0
 40
0.0
 40
0.0
 40
0.1
 40
0.1
 40
0.1
 40
0.1
 40
0.2
 40
0.2
 40
0.2
 40
0.2
 40
0.3
 40
0.3
 40
0.3
 40
0.3
 40
0.4
 40
0.4
 40
0.4
 40
0.4
 40
0.5
 40
0.5
 40
0.5
 40
0.5
 40
0.6
 40
0.6
 40
0.6
 40
0.6
 40
0.7
 40
0.7
 40
0.7
 40
0.7
 40
0.8
 40
0.8
 40
0.8
 40
0.8
 40
1.0
 40
1.0
 40
1.0
 40
1.0
 10
-79.3231
 20
-1.8341
 30
0.0
 10
-79.3231
 20
-1.8341
 30
0.0
 10
-79.3231
 20
-1.7437
 30
0.0
 10
-79.3231
 20
-1.7437
 30
0.0
 10
-79.3231
 20
-1.7437
 30
0.0
 10
-79.346
 20
-1.7461
 30
0.0
 10
-79.3646
 20
-1.7481
 30
0.0
 10
-79.3787
 20
-1.7496
 30
0.0
 10
-79.3787
 20
-1.7496
 30
0.0
 10
-79.3929
 20
-1.7514
 30
0.0
 10
-79.4068
 20
-1.7547
 30
0.0
 10
-79.4205
 20
-1.7595
 30
0.0
 10
-79.4205
 20
-1.7595
 30
0.0
 10
-79.4323
 20
-1.7636
 30
0.0
 10
-79.4414
 20
-1.77
 30
0.0
 10
-79.448
 20
-1.7782
 30
0.0
 10
-79.448
 20
-1.7782
 30
0.0
 10
-79.4546
 20
-1.7867
 30
0.0
 10
-79.4579
 20
-1.7978
 30
0.0
 10
-79.4579
 20
-1.8117
 30
0.0
 10
-79.4579
 20
-1.8117
 30
0.0
 10
-79.4579
 20
-1.832
 30
0.0
 10
-79.4524
 20
-1.846
 30
0.0
 10
-79.4414
 20
-1.8536
 30
0.0
 10
-79.4414
 20
-1.8536
 30
0.0
 10
-79.4305
 20
-1.8611
 30
0.0
 10
-79.4144
 20
-1.865
 30
0.0
 10
-79.3931
 20
-1.865
 30
0.0
 10
-79.3931
 20
-1.865
 30
0.0
 10
-79.3812
 20
-1.865
 30
0.0
 10
-79.3691
 20
-1.8622
 30
0.0
 10
-79.3567
 20
-1.8568
 30
0.0
 10
-79.3567
 20
-1.8568
 30
0.0
 10
-79.3443
 20
-1.8514
 30
0.0
 10
-79.3331
 20
-1.8439
 30
0.0
 10
-79.3231
 20
-1.8341
 30
0.0
  0
SPLINE
  5
8E
330
1F
100
AcDbEntity
  8
Ilustrace
 62
   250
100
AcDbSpline
210
0.0
220
0.0
230
1.0
 70
    11
 71
     3
 72
   104
 73
   100
 74
     0
 42
0.0000000001
 43
0.0000000001
 40
0.0
 40
0.0
 40
0.0
 40
0.0
 40
0.0384615384615385
 40
0.0384615384615385
 40
0.0384615384615385
 40
0.0384615384615385
 40
0.0769230769230769
 40
0.0769230769230769
 40
0.0769230769230769
 40
0.0769230769230769
 40
0.1153846153846154
 40
0.1153846153846154
 40
0.1153846153846154
 40
0.1153846153846154
 40
0.1538461538461539
 40
0.1538461538461539
 40
0.1538461538461539
 40
0.1538461538461539
 40
0.1923076923076923
 40
0.1923076923076923
 40
0.1923076923076923
 40
0.1923076923076923
 40
0.2307692307692308
 40
0.2307692307692308
 40
0.2307692307692308
 40
0.2307692307692308
 40
0.2692307692307692
 40
0.2692307692307692
 40
0.2692307692307692
 40
0.2692307692307692
 40
0.3076923076923077
 40
0.3076923076923077
 40
0.3076923076923077
 40
0.3076923076923077
 40
0.3461538461538461
 40
0.3461538461538461
 40
0.3461538461538461
 40
0.3461538461538461
 40
0.3846153846153846
 40
0.3846153846153846
 40
0.3846153846153846
 40
0.3846153846153846
 40
0.4230769230769231
 40
0.4230769230769231
 40
0.4230769230769231
 40
0.4230769230769231
 40
0.4615384615384616
 40
0.4615384615384616
 40
0.4615384615384616
 40
0.4615384615384616
 40
0.5
 40
0.5
 40
0.5
 40
0.5
 40
0.5384615384615384
 40
0.5384615384615384
 40
0.5384615384615384
 40
0.5384615384615384
 40
0.5769230769230769
 40
0.5769230769230769
 40
0.5769230769230769
 40
0.5769230769230769
 40
0.6153846153846154
 40
0.6153846153846154
 40
0.6153846153846154
 40
0.6153846153846154
 40
0.6538461538461539
 40
0.6538461538461539
 40
0.6538461538461539
 40
0.6538461538461539
 40
0.6923076923076923
 40
0.6923076923076923
 40
0.6923076923076923
 40
0.6923076923076923
 40
0.7307692307692307
 40
0.7307692307692307
 40
0.7307692307692307
 40
0.7307692307692307
 40
0.7692307692307693
 40
0.7692307692307693
 40
0.7692307692307693
 40
0.7692307692307693
 40
0.8076923076923077
 40
0.8076923076923077
 40
0.8076923076923077
 40
0.8076923076923077
 40
0.8461538461538461
 40
0.8461538461538461
 40
0.8461538461538461
 40
0.8461538461538461
 40
0.8846153846153846
 40
0.8846153846153846
 40
0.8846153846153846
 40
0.8846153846153846
 40
0.9230769230769231
 40
0.9230769230769231
 40
0.9230769230769231
 40
0.9230769230769231
 40
1.0
 40
1.0
 40
1.0
 40
1.0
 10
-79.5583
 20
-1.5367
 30
0.0
 10
-79.5436
 20
-1.5249
 30
0.0
 10
-79.5233
 20
-1.5144
 30
0.0
 10
-79.4935
 20
-1.5091
 30
0.0
 10
-79.4935
 20
-1.5091
 30
0.0
 10
-79.4636
 20
-1.5039
 30
0.0
 10
-79.4334
 20
-1.5012
 30
0.0
 10
-79.4031
 20
-1.5012
 30
0.0
 10
-79.4031
 20
-1.5012
 30
0.0
 10
-79.3284
 20
-1.5012
 30
0.0
 10
-79.2739
 20
-1.5136
 30
0.0
 10
-79.2398
 20
-1.5385
 30
0.0
 10
-79.2398
 20
-1.5385
 30
0.0
 10
-79.2057
 20
-1.5633
 30
0.0
 10
-79.1887
 20
-1.6013
 30
0.0
 10
-79.1887
 20
-1.6523
 30
0.0
 10
-79.1887
 20
-1.6523
 30
0.0
 10
-79.1887
 20
-1.6523
 30
0.0
 10
-79.1887
 20
-1.9573
 30
0.0
 10
-79.1887
 20
-1.9573
 30
0.0
 10
-79.1887
 20
-1.9573
 30
0.0
 10
-79.1887
 20
-1.9573
 30
0.0
 10
-79.3231
 20
-1.9573
 30
0.0
 10
-79.3231
 20
-1.9573
 30
0.0
 10
-79.3231
 20
-1.9573
 30
0.0
 10
-79.3231
 20
-1.9573
 30
0.0
 10
-79.3231
 20
-1.9012
 30
0.0
 10
-79.3231
 20
-1.9012
 30
0.0
 10
-79.3231
 20
-1.9012
 30
0.0
 10
-79.3323
 20
-1.909
 30
0.0
 10
-79.3406
 20
-1.916
 30
0.0
 10
-79.348
 20
-1.9222
 30
0.0
 10
-79.348
 20
-1.9222
 30
0.0
 10
-79.3554
 20
-1.9282
 30
0.0
 10
-79.3651
 20
-1.9344
 30
0.0
 10
-79.3775
 20
-1.9406
 30
0.0
 10
-79.3775
 20
-1.9406
 30
0.0
 10
-79.3897
 20
-1.9465
 30
0.0
 10
-79.4014
 20
-1.951
 30
0.0
 10
-79.4128
 20
-1.9542
 30
0.0
 10
-79.4128
 20
-1.9542
 30
0.0
 10
-79.4243
 20
-1.9572
 30
0.0
 10
-79.4404
 20
-1.9588
 30
0.0
 10
-79.4609
 20
-1.9588
 30
0.0
 10
-79.4609
 20
-1.9588
 30
0.0
 10
-79.4993
 20
-1.9588
 30
0.0
 10
-79.5312
 20
-1.9459
 30
0.0
 10
-79.5565
 20
-1.9202
 30
0.0
 10
-79.5565
 20
-1.9202
 30
0.0
 10
-79.5819
 20
-1.8945
 30
0.0
 10
-79.5946
 20
-1.862
 30
0.0
 10
-79.5946
 20
-1.8229
 30
0.0
 10
-79.5946
 20
-1.8229
 30
0.0
 10
-79.5946
 20
-1.7908
 30
0.0
 10
-79.5881
 20
-1.7647
 30
0.0
 10
-79.5752
 20
-1.7449
 30
0.0
 10
-79.5752
 20
-1.7449
 30
0.0
 10
-79.5624
 20
-1.7251
 30
0.0
 10
-79.5438
 20
-1.7093
 30
0.0
 10
-79.5197
 20
-1.6979
 30
0.0
 10
-79.5197
 20
-1.6979
 30
0.0
 10
-79.4952
 20
-1.686
 30
0.0
 10
-79.466
 20
-1.6777
 30
0.0
 10
-79.4319
 20
-1.6731
 30
0.0
 10
-79.4319
 20
-1.6731
 30
0.0
 10
-79.3987
 20
-1.6686
 30
0.0
 10
-79.363
 20
-1.665
 30
0.0
 10
-79.3248
 20
-1.6624
 30
0.0
 10
-79.3248
 20
-1.6624
 30
0.0
 10
-79.3291
 20
-1.6524
 30
0.0
 10
-79.3344
 20
-1.6433
 30
0.0
 10
-79.3407
 20
-1.6351
 30
0.0
 10
-79.3407
 20
-1.6351
 30
0.0
 10
-79.3597
 20
-1.611
 30
0.0
 10
-79.3863
 20
-1.599
 30
0.0
 10
-79.4209
 20
-1.599
 30
0.0
 10
-79.4209
 20
-1.599
 30
0.0
 10
-79.436
 20
-1.599
 30
0.0
 10
-79.4498
 20
-1.6009
 30
0.0
 10
-79.4623
 20
-1.6047
 30
0.0
 10
-79.4623
 20
-1.6047
 30
0.0
 10
-79.4745
 20
-1.6084
 30
0.0
 10
-79.4856
 20
-1.613
 30
0.0
 10
-79.4955
 20
-1.6184
 30
0.0
 10
-79.4955
 20
-1.6184
 30
0.0
 10
-79.5047
 20
-1.6235
 30
0.0
 10
-79.5132
 20
-1.6292
 30
0.0
 10
-79.521
 20
-1.6354
 30
0.0
 10
-79.521
 20
-1.6354
 30
0.0
 10
-79.5289
 20
-1.6416
 30
0.0
 10
-79.5355
 20
-1.6472
 30
0.0
 10
-79.5409
 20
-1.6524
 30
0.0
 10
-79.5409
 20
-1.6524
 30
0.0
 10
-79.5409
 20
-1.6524
 30
0.0
 10
-79.5583
 20
-1.6524
 30
0.0
 10
-79.5583
 20
-1.6524
 30
0.0
 10
-79.5583
 20
-1.6524
 30
0.0
 10
-79.5583
 20
-1.6524
 30
0.0
 10
-79.5583
 20
-1.5367
 30
0.0
 10
-79.5583
 20
-1.5367
 30
0.0
  0
SPLINE
  5
8F
330
1F
100
AcDbEntity
  8
Ilustrace
 62
   250
100
AcDbSpline
210
0.0
220
0.0
230
1.0
 70
    11
 71
     3
 72
   124
 73
   120
 74
     0
 42
0.0000000001
 43
0.0000000001
 40
0.0
 40
0.0
 40
0.0
 40
0.0
 40
0.032258064516129
 40
0.032258064516129
 40
0.032258064516129
 40
0.032258064516129
 40
0.0645161290322581
 40
0.0645161290322581
 40
0.0645161290322581
 40
0.0645161290322581
 40
0.0967741935483871
 40
0.0967741935483871
 40
0.0967741935483871
 40
0.0967741935483871
 40
0.1290322580645161
 40
0.1290322580645161
 40
0.1290322580645161
 40
0.1290322580645161
 40
0.1612903225806452
 40
0.1612903225806452
 40
0.1612903225806452
 40
0.1612903225806452
 40
0.1935483870967742
 40
0.1935483870967742
 40
0.1935483870967742
 40
0.1935483870967742
 40
0.2258064516129032
 40
0.2258064516129032
 40
0.2258064516129032
 40
0.2258064516129032
 40
0.2580645161290323
 40
0.2580645161290323
 40
0.2580645161290323
 40
0.2580645161290323
 40
0.2903225806451613
 40
0.2903225806451613
 40
0.2903225806451613
 40
0.2903225806451613
 40
0.3225806451612903
 40
0.3225806451612903
 40
0.3225806451612903
 40
0.3225806451612903
 40
0.3548387096774194
 40
0.3548387096774194
 40
0.3548387096774194
 40
0.3548387096774194
 40
0.3870967741935484
 40
0.3870967741935484
 40
0.3870967741935484
 40
0.3870967741935484
 40
0.4193548387096774
 40
0.4193548387096774
 40
0.4193548387096774
 40
0.4193548387096774
 40
0.4516129032258064
 40
0.4516129032258064
 40
0.4516129032258064
 40
0.4516129032258064
 40
0.4838709677419355
 40
0.4838709677419355
 40
0.4838709677419355
 40
0.4838709677419355
 40
0.5161290322580645
 40
0.5161290322580645
 40
0.5161290322580645
 40
0.5161290322580645
 40
0.5483870967741935
 40
0.5483870967741935
 40
0.5483870967741935
 40
0.5483870967741935
 40
0.5806451612903226
 40
0.5806451612903226
 40
0.5806451612903226
 40
0.5806451612903226
 40
0.6129032258064516
 40
0.6129032258064516
 40
0.6129032258064516
 40
0.6129032258064516
 40
0.6451612903225806
 40
0.6451612903225806
 40
0.6451612903225806
 40
0.6451612903225806
 40
0.6774193548387096
 40
0.6774193548387096
 40
0.6774193548387096
 40
0.6774193548387096
 40
0.7096774193548387
 40
0.7096774193548387
 40
0.7096774193548387
 40
0.7096774193548387
 40
0.7419354838709677
 40
0.7419354838709677
 40
0.7419354838709677
 40
0.7419354838709677
 40
0.7741935483870968
 40
0.7741935483870968
 40
0.7741935483870968
 40
0.7741935483870968
 40
0.8064516129032258
 40
0.8064516129032258
 40
0.8064516129032258
 40
0.8064516129032258
 40
0.8387096774193549
 40
0.8387096774193549
 40
0.8387096774193549
 40
0.8387096774193549
 40
0.8709677419354839
 40
0.8709677419354839
 40
0.8709677419354839
 40
0.8709677419354839
 40
0.9032258064516129
 40
0.9032258064516129
 40
0.9032258064516129
 40
0.9032258064516129
 40
0.9354838709677419
 40
0.9354838709677419
 40
0.9354838709677419
 40
0.9354838709677419
 40
1.0
 40
1.0
 40
1.0
 40
1.0
 10
-79.7663
 20
-1.9588
 30
0.0
 10
-79.8022
 20
-1.9588
 30
0.0
 10
-79.835
 20
-1.9543
 30
0.0
 10
-79.8646
 20
-1.9452
 30
0.0
 10
-79.8646
 20
-1.9452
 30
0.0
 10
-79.8944
 20
-1.9362
 30
0.0
 10
-79.9201
 20
-1.9224
 30
0.0
 10
-79.9421
 20
-1.9036
 30
0.0
 10
-79.9421
 20
-1.9036
 30
0.0
 10
-79.9637
 20
-1.8847
 30
0.0
 10
-79.9806
 20
-1.8611
 30
0.0
 10
-79.9926
 20
-1.8327
 30
0.0
 10
-79.9926
 20
-1.8327
 30
0.0
 10
-80.0047
 20
-1.8043
 30
0.0
 10
-80.0108
 20
-1.7707
 30
0.0
 10
-80.0108
 20
-1.7321
 30
0.0
 10
-80.0108
 20
-1.7321
 30
0.0
 10
-80.0108
 20
-1.6908
 30
0.0
 10
-80.0042
 20
-1.6554
 30
0.0
 10
-79.9911
 20
-1.6263
 30
0.0
 10
-79.9911
 20
-1.6263
 30
0.0
 10
-79.978
 20
-1.5973
 30
0.0
 10
-79.9602
 20
-1.5733
 30
0.0
 10
-79.9378
 20
-1.5545
 30
0.0
 10
-79.9378
 20
-1.5545
 30
0.0
 10
-79.9161
 20
-1.5366
 30
0.0
 10
-79.8907
 20
-1.5232
 30
0.0
 10
-79.8616
 20
-1.5146
 30
0.0
 10
-79.8616
 20
-1.5146
 30
0.0
 10
-79.8323
 20
-1.506
 30
0.0
 10
-79.8019
 20
-1.5016
 30
0.0
 10
-79.7703
 20
-1.5016
 30
0.0
 10
-79.7703
 20
-1.5016
 30
0.0
 10
-79.7463
 20
-1.5016
 30
0.0
 10
-79.7224
 20
-1.5044
 30
0.0
 10
-79.6984
 20
-1.51
 30
0.0
 10
-79.6984
 20
-1.51
 30
0.0
 10
-79.6745
 20
-1.5155
 30
0.0
 10
-79.6505
 20
-1.5243
 30
0.0
 10
-79.6262
 20
-1.5364
 30
0.0
 10
-79.6262
 20
-1.5364
 30
0.0
 10
-79.6262
 20
-1.5364
 30
0.0
 10
-79.6262
 20
-1.6523
 30
0.0
 10
-79.6262
 20
-1.6523
 30
0.0
 10
-79.6262
 20
-1.6523
 30
0.0
 10
-79.6262
 20
-1.6523
 30
0.0
 10
-79.6436
 20
-1.6523
 30
0.0
 10
-79.6436
 20
-1.6523
 30
0.0
 10
-79.6436
 20
-1.6523
 30
0.0
 10
-79.649
 20
-1.6471
 30
0.0
 10
-79.6556
 20
-1.6415
 30
0.0
 10
-79.6635
 20
-1.6352
 30
0.0
 10
-79.6635
 20
-1.6352
 30
0.0
 10
-79.6713
 20
-1.6291
 30
0.0
 10
-79.6799
 20
-1.6234
 30
0.0
 10
-79.6891
 20
-1.6182
 30
0.0
 10
-79.6891
 20
-1.6182
 30
0.0
 10
-79.699
 20
-1.6129
 30
0.0
 10
-79.71
 20
-1.6083
 30
0.0
 10
-79.7223
 20
-1.6046
 30
0.0
 10
-79.7223
 20
-1.6046
 30
0.0
 10
-79.7347
 20
-1.6007
 30
0.0
 10
-79.7485
 20
-1.5989
 30
0.0
 10
-79.7637
 20
-1.5989
 30
0.0
 10
-79.7637
 20
-1.5989
 30
0.0
 10
-79.7982
 20
-1.5989
 30
0.0
 10
-79.8248
 20
-1.6109
 30
0.0
 10
-79.8438
 20
-1.635
 30
0.0
 10
-79.8438
 20
-1.635
 30
0.0
 10
-79.8627
 20
-1.6591
 30
0.0
 10
-79.8721
 20
-1.6914
 30
0.0
 10
-79.8721
 20
-1.7321
 30
0.0
 10
-79.8721
 20
-1.7321
 30
0.0
 10
-79.8721
 20
-1.7756
 30
0.0
 10
-79.862
 20
-1.8082
 30
0.0
 10
-79.8418
 20
-1.8295
 30
0.0
 10
-79.8418
 20
-1.8295
 30
0.0
 10
-79.8217
 20
-1.8509
 30
0.0
 10
-79.7948
 20
-1.8615
 30
0.0
 10
-79.7613
 20
-1.8615
 30
0.0
 10
-79.7613
 20
-1.8615
 30
0.0
 10
-79.7443
 20
-1.8615
 30
0.0
 10
-79.7294
 20
-1.8596
 30
0.0
 10
-79.7165
 20
-1.8557
 30
0.0
 10
-79.7165
 20
-1.8557
 30
0.0
 10
-79.7037
 20
-1.8519
 30
0.0
 10
-79.6926
 20
-1.8472
 30
0.0
 10
-79.6834
 20
-1.8418
 30
0.0
 10
-79.6834
 20
-1.8418
 30
0.0
 10
-79.6743
 20
-1.8364
 30
0.0
 10
-79.6667
 20
-1.8308
 30
0.0
 10
-79.6602
 20
-1.825
 30
0.0
 10
-79.6602
 20
-1.825
 30
0.0
 10
-79.6538
 20
-1.8192
 30
0.0
 10
-79.6482
 20
-1.814
 30
0.0
 10
-79.6436
 20
-1.8093
 30
0.0
 10
-79.6436
 20
-1.8093
 30
0.0
 10
-79.6436
 20
-1.8093
 30
0.0
 10
-79.6262
 20
-1.8093
 30
0.0
 10
-79.6262
 20
-1.8093
 30
0.0
 10
-79.6262
 20
-1.8093
 30
0.0
 10
-79.6262
 20
-1.8093
 30
0.0
 10
-79.6262
 20
-1.9252
 30
0.0
 10
-79.6262
 20
-1.9252
 30
0.0
 10
-79.6262
 20
-1.9252
 30
0.0
 10
-79.634
 20
-1.9285
 30
0.0
 10
-79.6428
 20
-1.9324
 30
0.0
 10
-79.6531
 20
-1.9368
 30
0.0
 10
-79.6531
 20
-1.9368
 30
0.0
 10
-79.6633
 20
-1.9411
 30
0.0
 10
-79.6735
 20
-1.9448
 30
0.0
 10
-79.6841
 20
-1.9476
 30
0.0
 10
-79.6841
 20
-1.9476
 30
0.0
 10
-79.6973
 20
-1.9511
 30
0.0
 10
-79.7095
 20
-1.9539
 30
0.0
 10
-79.721
 20
-1.9559
 30
0.0
 10
-79.721
 20
-1.9559
 30
0.0
 10
-79.7324
 20
-1.9579
 30
0.0
 10
-79.7476
 20
-1.9588
 30
0.0
 10
-79.7663
 20
-1.9588
 30
0.0
  0
SPLINE
  5
90
330
1F
100
AcDbEntity
  8
Ilustrace
 62
   250
370
    18
100
AcDbSpline
210
0.0
220
0.0
230
1.0
 70
    24
 71
     3
 72
     8
 73
     4
 74
     0
 42
0.0000000001
 43
0.0000000001
 40
0.0
 40
0.0
 40
0.0
 40
0.0
 40
1.0
 40
1.0
 40
1.0
 40
1.0
 10
76.0796
 20
-5.4375
 30
0.0
 10
76.0796
 20
-5.4375
 30
0.0
 10
82.5323
 20
-5.4375
 30
0.0
 10
82.5323
 20
-5.4375
 30
0.0
  0
SPLINE
  5
91
330
1F
100
AcDbEntity
  8
Ilustrace
 62
   250
100
AcDbSpline
210
0.0
220
0.0
230
1.0
 70
    11
 71
     3
 72
   124
 73
   120
 74
     0
 42
0.0000000001
 43
0.0000000001
 40
0.0
 40
0.0
 40
0.0
 40
0.0
 40
0.032258064516129
 40
0.032258064516129
 40
0.032258064516129
 40
0.032258064516129
 40
0.0645161290322581
 40
0.0645161290322581
 40
0.0645161290322581
 40
0.0645161290322581
 40
0.0967741935483871
 40
0.0967741935483871
 40
0.0967741935483871
 40
0.0967741935483871
 40
0.1290322580645161
 40
0.1290322580645161
 40
0.1290322580645161
 40
0.1290322580645161
 40
0.1612903225806452
 40
0.1612903225806452
 40
0.1612903225806452
 40
0.1612903225806452
 40
0.1935483870967742
 40
0.1935483870967742
 40
0.1935483870967742
 40
0.1935483870967742
 40
0.2258064516129032
 40
0.2258064516129032
 40
0.2258064516129032
 40
0.2258064516129032
 40
0.2580645161290323
 40
0.2580645161290323
 40
0.2580645161290323
 40
0.2580645161290323
 40
0.2903225806451613
 40
0.2903225806451613
 40
0.2903225806451613
 40
0.2903225806451613
 40
0.3225806451612903
 40
0.3225806451612903
 40
0.3225806451612903
 40
0.3225806451612903
 40
0.3548387096774194
 40
0.3548387096774194
 40
0.3548387096774194
 40
0.3548387096774194
 40
0.3870967741935484
 40
0.3870967741935484
 40
0.3870967741935484
 40
0.3870967741935484
 40
0.4193548387096774
 40
0.4193548387096774
 40
0.4193548387096774
 40
0.4193548387096774
 40
0.4516129032258064
 40
0.4516129032258064
 40
0.4516129032258064
 40
0.4516129032258064
 40
0.4838709677419355
 40
0.4838709677419355
 40
0.4838709677419355
 40
0.4838709677419355
 40
0.5161290322580645
 40
0.5161290322580645
 40
0.5161290322580645
 40
0.5161290322580645
 40
0.5483870967741935
 40
0.5483870967741935
 40
0.5483870967741935
 40
0.5483870967741935
 40
0.5806451612903226
 40
0.5806451612903226
 40
0.5806451612903226
 40
0.5806451612903226
 40
0.6129032258064516
 40
0.6129032258064516
 40
0.6129032258064516
 40
0.6129032258064516
 40
0.6451612903225806
 40
0.6451612903225806
 40
0.6451612903225806
 40
0.6451612903225806
 40
0.6774193548387096
 40
0.6774193548387096
 40
0.6774193548387096
 40
0.6774193548387096
 40
0.7096774193548387
 40
0.7096774193548387
 40
0.7096774193548387
 40
0.7096774193548387
 40
0.7419354838709677
 40
0.7419354838709677
 40
0.7419354838709677
 40
0.7419354838709677
 40
0.7741935483870968
 40
0.7741935483870968
 40
0.7741935483870968
 40
0.7741935483870968
 40
0.8064516129032258
 40
0.8064516129032258
 40
0.8064516129032258
 40
0.8064516129032258
 40
0.8387096774193549
 40
0.8387096774193549
 40
0.8387096774193549
 40
0.8387096774193549
 40
0.8709677419354839
 40
0.8709677419354839
 40
0.8709677419354839
 40
0.8709677419354839
 40
0.9032258064516129
 40
0.9032258064516129
 40
0.9032258064516129
 40
0.9032258064516129
 40
0.9354838709677419
 40
0.9354838709677419
 40
0.9354838709677419
 40
0.9354838709677419
 40
1.0
 40
1.0
 40
1.0
 40
1.0
 10
81.3292
 20
-3.594
 30
0.0
 10
81.225
 20
-3.638
 30
0.0
 10
81.1358
 20
-3.693
 30
0.0
 10
81.0614
 20
-3.7576
 30
0.0
 10
81.0614
 20
-3.7576
 30
0.0
 10
80.987
 20
-3.823
 30
0.0
 10
80.9295
 20
-3.8986
 30
0.0
 10
80.8894
 20
-3.9846
 30
0.0
 10
80.8894
 20
-3.9846
 30
0.0
 10
80.8493
 20
-4.0707
 30
0.0
 10
80.8292
 20
-4.167
 30
0.0
 10
80.8286
 20
-4.2731
 30
0.0
 10
80.8286
 20
-4.2731
 30
0.0
 10
80.8292
 20
-4.3662
 30
0.0
 10
80.848
 20
-4.4529
 30
0.0
 10
80.8868
 20
-4.535
 30
0.0
 10
80.8868
 20
-4.535
 30
0.0
 10
80.9249
 20
-4.6165
 30
0.0
 10
80.9806
 20
-4.6883
 30
0.0
 10
81.0536
 20
-4.751
 30
0.0
 10
81.0536
 20
-4.751
 30
0.0
 10
81.1267
 20
-4.8131
 30
0.0
 10
81.2153
 20
-4.8623
 30
0.0
 10
81.3195
 20
-4.8979
 30
0.0
 10
81.3195
 20
-4.8979
 30
0.0
 10
81.4242
 20
-4.9334
 30
0.0
 10
81.5426
 20
-4.9515
 30
0.0
 10
81.6745
 20
-4.9522
 30
0.0
 10
81.6745
 20
-4.9522
 30
0.0
 10
81.7955
 20
-4.9515
 30
0.0
 10
81.908
 20
-4.9341
 30
0.0
 10
82.0115
 20
-4.8998
 30
0.0
 10
82.0115
 20
-4.8998
 30
0.0
 10
82.115
 20
-4.8655
 30
0.0
 10
82.2062
 20
-4.8157
 30
0.0
 10
82.2838
 20
-4.751
 30
0.0
 10
82.2838
 20
-4.751
 30
0.0
 10
82.3614
 20
-4.687
 30
0.0
 10
82.4222
 20
-4.6101
 30
0.0
 10
82.4655
 20
-4.5202
 30
0.0
 10
82.4655
 20
-4.5202
 30
0.0
 10
82.5095
 20
-4.4303
 30
0.0
 10
82.5315
 20
-4.33
 30
0.0
 10
82.5321
 20
-4.2188
 30
0.0
 10
82.5321
 20
-4.2188
 30
0.0
 10
82.5315
 20
-4.1179
 30
0.0
 10
82.5108
 20
-4.026
 30
0.0
 10
82.47
 20
-3.9426
 30
0.0
 10
82.47
 20
-3.9426
 30
0.0
 10
82.4293
 20
-3.8598
 30
0.0
 10
82.3711
 20
-3.7867
 30
0.0
 10
82.2954
 20
-3.724
 30
0.0
 10
82.2954
 20
-3.724
 30
0.0
 10
82.2197
 20
-3.6606
 30
0.0
 10
82.1292
 20
-3.6082
 30
0.0
 10
82.0238
 20
-3.5668
 30
0.0
 10
82.0238
 20
-3.5668
 30
0.0
 10
82.0238
 20
-3.5668
 30
0.0
 10
82.0238
 20
-3.5552
 30
0.0
 10
82.0238
 20
-3.5552
 30
0.0
 10
82.0238
 20
-3.5552
 30
0.0
 10
82.1266
 20
-3.5067
 30
0.0
 10
82.2087
 20
-3.4504
 30
0.0
 10
82.2702
 20
-3.3858
 30
0.0
 10
82.2702
 20
-3.3858
 30
0.0
 10
82.3316
 20
-3.3217
 30
0.0
 10
82.3763
 20
-3.2532
 30
0.0
 10
82.4034
 20
-3.1814
 30
0.0
 10
82.4034
 20
-3.1814
 30
0.0
 10
82.4299
 20
-3.1089
 30
0.0
 10
82.4435
 20
-3.0372
 30
0.0
 10
82.4429
 20
-2.9654
 30
0.0
 10
82.4429
 20
-2.9654
 30
0.0
 10
82.4429
 20
-2.8852
 30
0.0
 10
82.4273
 20
-2.8076
 30
0.0
 10
82.3963
 20
-2.7338
 30
0.0
 10
82.3963
 20
-2.7338
 30
0.0
 10
82.3653
 20
-2.6601
 30
0.0
 10
82.3193
 20
-2.5941
 30
0.0
 10
82.2579
 20
-2.5353
 30
0.0
 10
82.2579
 20
-2.5353
 30
0.0
 10
82.1958
 20
-2.4771
 30
0.0
 10
82.1188
 20
-2.4305
 30
0.0
 10
82.027
 20
-2.3969
 30
0.0
 10
82.027
 20
-2.3969
 30
0.0
 10
81.9352
 20
-2.3626
 30
0.0
 10
81.8278
 20
-2.3451
 30
0.0
 10
81.7056
 20
-2.3445
 30
0.0
 10
81.7056
 20
-2.3445
 30
0.0
 10
81.5937
 20
-2.3451
 30
0.0
 10
81.4896
 20
-2.3613
 30
0.0
 10
81.3951
 20
-2.393
 30
0.0
 10
81.3951
 20
-2.393
 30
0.0
 10
81.3001
 20
-2.4253
 30
0.0
 10
81.2173
 20
-2.4706
 30
0.0
 10
81.1461
 20
-2.5301
 30
0.0
 10
81.1461
 20
-2.5301
 30
0.0
 10
81.0756
 20
-2.5896
 30
0.0
 10
81.0207
 20
-2.6601
 30
0.0
 10
80.9812
 20
-2.7422
 30
0.0
 10
80.9812
 20
-2.7422
 30
0.0
 10
80.9424
 20
-2.8244
 30
0.0
 10
80.9224
 20
-2.9156
 30
0.0
 10
80.9217
 20
-3.0158
 30
0.0
 10
80.9217
 20
-3.0158
 30
0.0
 10
80.9217
 20
-3.0889
 30
0.0
 10
80.9353
 20
-3.16
 30
0.0
 10
80.9637
 20
-3.2299
 30
0.0
 10
80.9637
 20
-3.2299
 30
0.0
 10
80.9916
 20
-3.2997
 30
0.0
 10
81.0355
 20
-3.3651
 30
0.0
 10
81.095
 20
-3.4252
 30
0.0
 10
81.095
 20
-3.4252
 30
0.0
 10
81.1545
 20
-3.4854
 30
0.0
 10
81.2309
 20
-3.5377
 30
0.0
 10
81.3253
 20
-3.5824
 30
0.0
 10
81.3253
 20
-3.5824
 30
0.0
 10
81.3253
 20
-3.5824
 30
0.0
 10
81.3292
 20
-3.594
 30
0.0
 10
81.3292
 20
-3.594
 30
0.0
  0
SPLINE
  5
92
330
1F
100
AcDbEntity
  8
Ilustrace
 62
   250
100
AcDbSpline
210
0.0
220
0.0
230
1.0
 70
    11
 71
     3
 72
    56
 73
    52
 74
     0
 42
0.0000000001
 43
0.0000000001
 40
0.0
 40
0.0
 40
0.0
 40
0.0
 40
0.0714285714285714
 40
0.0714285714285714
 40
0.0714285714285714
 40
0.0714285714285714
 40
0.1428571428571428
 40
0.1428571428571428
 40
0.1428571428571428
 40
0.1428571428571428
 40
0.2142857142857143
 40
0.2142857142857143
 40
0.2142857142857143
 40
0.2142857142857143
 40
0.2857142857142857
 40
0.2857142857142857
 40
0.2857142857142857
 40
0.2857142857142857
 40
0.3571428571428572
 40
0.3571428571428572
 40
0.3571428571428572
 40
0.3571428571428572
 40
0.4285714285714285
 40
0.4285714285714285
 40
0.4285714285714285
 40
0.4285714285714285
 40
0.5
 40
0.5
 40
0.5
 40
0.5
 40
0.5714285714285714
 40
0.5714285714285714
 40
0.5714285714285714
 40
0.5714285714285714
 40
0.6428571428571429
 40
0.6428571428571429
 40
0.6428571428571429
 40
0.6428571428571429
 40
0.7142857142857143
 40
0.7142857142857143
 40
0.7142857142857143
 40
0.7142857142857143
 40
0.7857142857142857
 40
0.7857142857142857
 40
0.7857142857142857
 40
0.7857142857142857
 40
0.8571428571428571
 40
0.8571428571428571
 40
0.8571428571428571
 40
0.8571428571428571
 40
1.0
 40
1.0
 40
1.0
 40
1.0
 10
81.6823
 20
-4.7038
 30
0.0
 10
81.6014
 20
-4.7032
 30
0.0
 10
81.5297
 20
-4.6903
 30
0.0
 10
81.4663
 20
-4.665
 30
0.0
 10
81.4663
 20
-4.665
 30
0.0
 10
81.4022
 20
-4.6392
 30
0.0
 10
81.3486
 20
-4.6042
 30
0.0
 10
81.3046
 20
-4.5596
 30
0.0
 10
81.3046
 20
-4.5596
 30
0.0
 10
81.2613
 20
-4.5156
 30
0.0
 10
81.2283
 20
-4.4645
 30
0.0
 10
81.2063
 20
-4.4076
 30
0.0
 10
81.2063
 20
-4.4076
 30
0.0
 10
81.1849
 20
-4.3507
 30
0.0
 10
81.1752
 20
-4.2899
 30
0.0
 10
81.1778
 20
-4.2265
 30
0.0
 10
81.1778
 20
-4.2265
 30
0.0
 10
81.1778
 20
-4.1457
 30
0.0
 10
81.1953
 20
-4.0713
 30
0.0
 10
81.2302
 20
-4.0028
 30
0.0
 10
81.2302
 20
-4.0028
 30
0.0
 10
81.2645
 20
-3.9342
 30
0.0
 10
81.3156
 20
-3.8741
 30
0.0
 10
81.3828
 20
-3.823
 30
0.0
 10
81.3828
 20
-3.823
 30
0.0
 10
81.4508
 20
-3.7719
 30
0.0
 10
81.5335
 20
-3.7318
 30
0.0
 10
81.6318
 20
-3.7027
 30
0.0
 10
81.6318
 20
-3.7027
 30
0.0
 10
81.7463
 20
-3.7344
 30
0.0
 10
81.8446
 20
-3.7738
 30
0.0
 10
81.9274
 20
-3.8217
 30
0.0
 10
81.9274
 20
-3.8217
 30
0.0
 10
82.0102
 20
-3.8689
 30
0.0
 10
82.0742
 20
-3.9277
 30
0.0
 10
82.1188
 20
-3.9976
 30
0.0
 10
82.1188
 20
-3.9976
 30
0.0
 10
82.1635
 20
-4.0681
 30
0.0
 10
82.1861
 20
-4.1534
 30
0.0
 10
82.1868
 20
-4.2537
 30
0.0
 10
82.1868
 20
-4.2537
 30
0.0
 10
82.1861
 20
-4.341
 30
0.0
 10
82.1654
 20
-4.4186
 30
0.0
 10
82.124
 20
-4.4859
 30
0.0
 10
82.124
 20
-4.4859
 30
0.0
 10
82.0826
 20
-4.5531
 30
0.0
 10
82.0244
 20
-4.6062
 30
0.0
 10
81.9494
 20
-4.645
 30
0.0
 10
81.9494
 20
-4.645
 30
0.0
 10
81.8744
 20
-4.6838
 30
0.0
 10
81.7851
 20
-4.7032
 30
0.0
 10
81.6823
 20
-4.7038
 30
0.0
  0
SPLINE
  5
93
330
1F
100
AcDbEntity
  8
Ilustrace
 62
   250
100
AcDbSpline
210
0.0
220
0.0
230
1.0
 70
    11
 71
     3
 72
    56
 73
    52
 74
     0
 42
0.0000000001
 43
0.0000000001
 40
0.0
 40
0.0
 40
0.0
 40
0.0
 40
0.0714285714285714
 40
0.0714285714285714
 40
0.0714285714285714
 40
0.0714285714285714
 40
0.1428571428571428
 40
0.1428571428571428
 40
0.1428571428571428
 40
0.1428571428571428
 40
0.2142857142857143
 40
0.2142857142857143
 40
0.2142857142857143
 40
0.2142857142857143
 40
0.2857142857142857
 40
0.2857142857142857
 40
0.2857142857142857
 40
0.2857142857142857
 40
0.3571428571428572
 40
0.3571428571428572
 40
0.3571428571428572
 40
0.3571428571428572
 40
0.4285714285714285
 40
0.4285714285714285
 40
0.4285714285714285
 40
0.4285714285714285
 40
0.5
 40
0.5
 40
0.5
 40
0.5
 40
0.5714285714285714
 40
0.5714285714285714
 40
0.5714285714285714
 40
0.5714285714285714
 40
0.6428571428571429
 40
0.6428571428571429
 40
0.6428571428571429
 40
0.6428571428571429
 40
0.7142857142857143
 40
0.7142857142857143
 40
0.7142857142857143
 40
0.7142857142857143
 40
0.7857142857142857
 40
0.7857142857142857
 40
0.7857142857142857
 40
0.7857142857142857
 40
0.8571428571428571
 40
0.8571428571428571
 40
0.8571428571428571
 40
0.8571428571428571
 40
1.0
 40
1.0
 40
1.0
 40
1.0
 10
81.6862
 20
-2.589
 30
0.0
 10
81.7625
 20
-2.5896
 30
0.0
 10
81.8278
 20
-2.6012
 30
0.0
 10
81.8821
 20
-2.6245
 30
0.0
 10
81.8821
 20
-2.6245
 30
0.0
 10
81.9365
 20
-2.6478
 30
0.0
 10
81.9804
 20
-2.6795
 30
0.0
 10
82.0147
 20
-2.719
 30
0.0
 10
82.0147
 20
-2.719
 30
0.0
 10
82.0483
 20
-2.7584
 30
0.0
 10
82.0736
 20
-2.8024
 30
0.0
 10
82.0897
 20
-2.8509
 30
0.0
 10
82.0897
 20
-2.8509
 30
0.0
 10
82.1053
 20
-2.8994
 30
0.0
 10
82.113
 20
-2.9492
 30
0.0
 10
82.113
 20
-3.0003
 30
0.0
 10
82.113
 20
-3.0003
 30
0.0
 10
82.1124
 20
-3.0766
 30
0.0
 10
82.0956
 20
-3.1445
 30
0.0
 10
82.0619
 20
-3.204
 30
0.0
 10
82.0619
 20
-3.204
 30
0.0
 10
82.0283
 20
-3.2642
 30
0.0
 10
81.983
 20
-3.3153
 30
0.0
 10
81.9248
 20
-3.3573
 30
0.0
 10
81.9248
 20
-3.3573
 30
0.0
 10
81.8673
 20
-3.4
 30
0.0
 10
81.8019
 20
-3.4336
 30
0.0
 10
81.7289
 20
-3.4582
 30
0.0
 10
81.7289
 20
-3.4582
 30
0.0
 10
81.6312
 20
-3.4323
 30
0.0
 10
81.5465
 20
-3.3993
 30
0.0
 10
81.474
 20
-3.3592
 30
0.0
 10
81.474
 20
-3.3592
 30
0.0
 10
81.4016
 20
-3.3185
 30
0.0
 10
81.3453
 20
-3.268
 30
0.0
 10
81.3059
 20
-3.2079
 30
0.0
 10
81.3059
 20
-3.2079
 30
0.0
 10
81.2664
 20
-3.1478
 30
0.0
 10
81.247
 20
-3.076
 30
0.0
 10
81.2477
 20
-2.9925
 30
0.0
 10
81.2477
 20
-2.9925
 30
0.0
 10
81.2477
 20
-2.9188
 30
0.0
 10
81.2645
 20
-2.8522
 30
0.0
 10
81.2981
 20
-2.7914
 30
0.0
 10
81.2981
 20
-2.7914
 30
0.0
 10
81.3318
 20
-2.7306
 30
0.0
 10
81.3815
 20
-2.6821
 30
0.0
 10
81.4469
 20
-2.6452
 30
0.0
 10
81.4469
 20
-2.6452
 30
0.0
 10
81.5115
 20
-2.6084
 30
0.0
 10
81.5917
 20
-2.5896
 30
0.0
 10
81.6862
 20
-2.589
 30
0.0
  0
SPLINE
  5
94
330
1F
100
AcDbEntity
  8
Ilustrace
 62
   250
370
     9
100
AcDbSpline
210
0.0
220
0.0
230
1.0
 70
    11
 71
     3
 72
    32
 73
    28
 74
     0
 42
0.0000000001
 43
0.0000000001
 40
0.0
 40
0.0
 40
0.0
 40
0.0
 40
0.125
 40
0.125
 40
0.125
 40
0.125
 40
0.25
 40
0.25
 40
0.25
 40
0.25
 40
0.375
 40
0.375
 40
0.375
 40
0.375
 40
0.5
 40
0.5
 40
0.5
 40
0.5
 40
0.625
 40
0.625
 40
0.625
 40
0.625
 40
0.75
 40
0.75
 40
0.75
 40
0.75
 40
1.0
 40
1.0
 40
1.0
 40
1.0
 10
80.7281
 20
-5.8853
 30
0.0
 10
80.7281
 20
-5.8853
 30
0.0
 10
80.7281
 20
-5.8853
 30
0.0
 10
80.7281
 20
-5.8853
 30
0.0
 10
80.7281
 20
-5.8853
 30
0.0
 10
80.7281
 20
-5.8853
 30
0.0
 10
80.7281
 20
-5.8853
 30
0.0
 10
80.7281
 20
-5.8853
 30
0.0
 10
80.7281
 20
-5.8853
 30
0.0
 10
80.7281
 20
-5.8853
 30
0.0
 10
79.4553
 20
-5.4419
 30
0.0
 10
79.4553
 20
-5.4419
 30
0.0
 10
79.4553
 20
-5.4419
 30
0.0
 10
79.4553
 20
-5.4419
 30
0.0
 10
80.7281
 20
-4.9985
 30
0.0
 10
80.7281
 20
-4.9985
 30
0.0
 10
80.7281
 20
-4.9985
 30
0.0
 10
80.7281
 20
-4.9985
 30
0.0
 10
80.7281
 20
-4.9985
 30
0.0
 10
80.7281
 20
-4.9985
 30
0.0
 10
80.7281
 20
-4.9985
 30
0.0
 10
80.7281
 20
-4.9985
 30
0.0
 10
80.7281
 20
-4.9985
 30
0.0
 10
80.7281
 20
-4.9985
 30
0.0
 10
80.7281
 20
-4.9985
 30
0.0
 10
80.7281
 20
-4.9985
 30
0.0
 10
80.7281
 20
-5.8853
 30
0.0
 10
80.7281
 20
-5.8853
 30
0.0
  0
SPLINE
  5
95
330
1F
100
AcDbEntity
  8
Ilustrace
 62
   250
370
     9
100
AcDbSpline
210
0.0
220
0.0
230
1.0
 70
    11
 71
     3
 72
    32
 73
    28
 74
     0
 42
0.0000000001
 43
0.0000000001
 40
0.0
 40
0.0
 40
0.0
 40
0.0
 40
0.125
 40
0.125
 40
0.125
 40
0.125
 40
0.25
 40
0.25
 40
0.25
 40
0.25
 40
0.375
 40
0.375
 40
0.375
 40
0.375
 40
0.5
 40
0.5
 40
0.5
 40
0.5
 40
0.625
 40
0.625
 40
0.625
 40
0.625
 40
0.75
 40
0.75
 40
0.75
 40
0.75
 40
1.0
 40
1.0
 40
1.0
 40
1.0
 10
76.4006
 20
-5.8256
 30
0.0
 10
76.4006
 20
-5.8256
 30
0.0
 10
76.4006
 20
-5.8256
 30
0.0
 10
76.4006
 20
-5.8256
 30
0.0
 10
76.4006
 20
-5.8256
 30
0.0
 10
76.4006
 20
-5.8256
 30
0.0
 10
76.4006
 20
-5.8256
 30
0.0
 10
76.4006
 20
-5.8256
 30
0.0
 10
76.4006
 20
-5.8256
 30
0.0
 10
76.4006
 20
-5.8256
 30
0.0
 10
77.6734
 20
-5.3822
 30
0.0
 10
77.6734
 20
-5.3822
 30
0.0
 10
77.6734
 20
-5.3822
 30
0.0
 10
77.6734
 20
-5.3822
 30
0.0
 10
76.4006
 20
-4.9388
 30
0.0
 10
76.4006
 20
-4.9388
 30
0.0
 10
76.4006
 20
-4.9388
 30
0.0
 10
76.4006
 20
-4.9388
 30
0.0
 10
76.4006
 20
-4.9388
 30
0.0
 10
76.4006
 20
-4.9388
 30
0.0
 10
76.4006
 20
-4.9388
 30
0.0
 10
76.4006
 20
-4.9388
 30
0.0
 10
76.4006
 20
-4.9388
 30
0.0
 10
76.4006
 20
-4.9388
 30
0.0
 10
76.4006
 20
-4.9388
 30
0.0
 10
76.4006
 20
-4.9388
 30
0.0
 10
76.4006
 20
-5.8256
 30
0.0
 10
76.4006
 20
-5.8256
 30
0.0
  0
SPLINE
  5
96
330
1F
100
AcDbEntity
  8
Ilustrace
 62
   254
370
    30
100
AcDbSpline
210
0.0
220
0.0
230
1.0
 70
    11
 71
     3
 72
    72
 73
    68
 74
     0
 42
0.0000000001
 43
0.0000000001
 40
0.0
 40
0.0
 40
0.0
 40
0.0
 40
0.0555555555555556
 40
0.0555555555555556
 40
0.0555555555555556
 40
0.0555555555555556
 40
0.1111111111111111
 40
0.1111111111111111
 40
0.1111111111111111
 40
0.1111111111111111
 40
0.1666666666666667
 40
0.1666666666666667
 40
0.1666666666666667
 40
0.1666666666666667
 40
0.2222222222222222
 40
0.2222222222222222
 40
0.2222222222222222
 40
0.2222222222222222
 40
0.2777777777777778
 40
0.2777777777777778
 40
0.2777777777777778
 40
0.2777777777777778
 40
0.3333333333333333
 40
0.3333333333333333
 40
0.3333333333333333
 40
0.3333333333333333
 40
0.3888888888888889
 40
0.3888888888888889
 40
0.3888888888888889
 40
0.3888888888888889
 40
0.4444444444444444
 40
0.4444444444444444
 40
0.4444444444444444
 40
0.4444444444444444
 40
0.5
 40
0.5
 40
0.5
 40
0.5
 40
0.5555555555555556
 40
0.5555555555555556
 40
0.5555555555555556
 40
0.5555555555555556
 40
0.6111111111111112
 40
0.6111111111111112
 40
0.6111111111111112
 40
0.6111111111111112
 40
0.6666666666666666
 40
0.6666666666666666
 40
0.6666666666666666
 40
0.6666666666666666
 40
0.7222222222222222
 40
0.7222222222222222
 40
0.7222222222222222
 40
0.7222222222222222
 40
0.7777777777777778
 40
0.7777777777777778
 40
0.7777777777777778
 40
0.7777777777777778
 40
0.8333333333333334
 40
0.8333333333333334
 40
0.8333333333333334
 40
0.8333333333333334
 40
0.8888888888888888
 40
0.8888888888888888
 40
0.8888888888888888
 40
0.8888888888888888
 40
1.0
 40
1.0
 40
1.0
 40
1.0
 10
77.7352
 20
8.4029
 30
0.0
 10
77.7352
 20
8.4029
 30
0.0
 10
77.7352
 20
8.7922
 30
0.0
 10
77.7352
 20
8.7922
 30
0.0
 10
77.7352
 20
8.7922
 30
0.0
 10
77.7352
 20
8.7922
 30
0.0
 10
77.7352
 20
9.4736
 30
0.0
 10
77.7352
 20
9.4736
 30
0.0
 10
77.7352
 20
9.4736
 30
0.0
 10
77.7352
 20
9.4736
 30
0.0
 10
77.7352
 20
9.8631
 30
0.0
 10
77.7352
 20
9.8631
 30
0.0
 10
77.7352
 20
9.8631
 30
0.0
 10
77.7354
 20
9.8895
 30
0.0
 10
77.7574
 20
9.9116
 30
0.0
 10
77.7839
 20
9.9118
 30
0.0
 10
77.7839
 20
9.9118
 30
0.0
 10
77.7839
 20
9.9118
 30
0.0
 10
78.1733
 20
9.9118
 30
0.0
 10
78.1733
 20
9.9118
 30
0.0
 10
78.1733
 20
9.9118
 30
0.0
 10
78.1733
 20
9.9118
 30
0.0
 10
78.8548
 20
9.9118
 30
0.0
 10
78.8548
 20
9.9118
 30
0.0
 10
78.8548
 20
9.9118
 30
0.0
 10
78.8548
 20
9.9118
 30
0.0
 10
79.2441
 20
9.9118
 30
0.0
 10
79.2441
 20
9.9118
 30
0.0
 10
79.2441
 20
9.9118
 30
0.0
 10
79.2705
 20
9.91
 30
0.0
 10
79.2928
 20
9.8907
 30
0.0
 10
79.2928
 20
9.8631
 30
0.0
 10
79.2928
 20
9.8631
 30
0.0
 10
79.2928
 20
9.8631
 30
0.0
 10
79.2928
 20
9.4736
 30
0.0
 10
79.2928
 20
9.4736
 30
0.0
 10
79.2928
 20
9.4736
 30
0.0
 10
79.2928
 20
9.4736
 30
0.0
 10
79.2928
 20
8.7922
 30
0.0
 10
79.2928
 20
8.7922
 30
0.0
 10
79.2928
 20
8.7922
 30
0.0
 10
79.2928
 20
8.7922
 30
0.0
 10
79.2928
 20
8.4029
 30
0.0
 10
79.2928
 20
8.4029
 30
0.0
 10
79.2928
 20
8.4029
 30
0.0
 10
79.2928
 20
8.387
 30
0.0
 10
79.2847
 20
8.3718
 30
0.0
 10
79.2717
 20
8.3628
 30
0.0
 10
79.2717
 20
8.3628
 30
0.0
 10
79.2636
 20
8.3572
 30
0.0
 10
79.254
 20
8.3542
 30
0.0
 10
79.2441
 20
8.3541
 30
0.0
 10
79.2441
 20
8.3541
 30
0.0
 10
79.2441
 20
8.3541
 30
0.0
 10
78.8548
 20
8.3541
 30
0.0
 10
78.8548
 20
8.3541
 30
0.0
 10
78.8548
 20
8.3541
 30
0.0
 10
78.8548
 20
8.3541
 30
0.0
 10
78.1733
 20
8.3541
 30
0.0
 10
78.1733
 20
8.3541
 30
0.0
 10
78.1733
 20
8.3541
 30
0.0
 10
78.1733
 20
8.3541
 30
0.0
 10
77.7839
 20
8.3541
 30
0.0
 10
77.7839
 20
8.3541
 30
0.0
 10
77.7839
 20
8.3541
 30
0.0
 10
77.7609
 20
8.3541
 30
0.0
 10
77.7352
 20
8.3799
 30
0.0
 10
77.7352
 20
8.4029
 30
0.0
  0
SPLINE
  5
97
330
1F
100
AcDbEntity
  8
Ilustrace
 62
   254
370
    30
100
AcDbSpline
210
0.0
220
0.0
230
1.0
 70
    11
 71
     3
 72
    72
 73
    68
 74
     0
 42
0.0000000001
 43
0.0000000001
 40
0.0
 40
0.0
 40
0.0
 40
0.0
 40
0.0555555555555556
 40
0.0555555555555556
 40
0.0555555555555556
 40
0.0555555555555556
 40
0.1111111111111111
 40
0.1111111111111111
 40
0.1111111111111111
 40
0.1111111111111111
 40
0.1666666666666667
 40
0.1666666666666667
 40
0.1666666666666667
 40
0.1666666666666667
 40
0.2222222222222222
 40
0.2222222222222222
 40
0.2222222222222222
 40
0.2222222222222222
 40
0.2777777777777778
 40
0.2777777777777778
 40
0.2777777777777778
 40
0.2777777777777778
 40
0.3333333333333333
 40
0.3333333333333333
 40
0.3333333333333333
 40
0.3333333333333333
 40
0.3888888888888889
 40
0.3888888888888889
 40
0.3888888888888889
 40
0.3888888888888889
 40
0.4444444444444444
 40
0.4444444444444444
 40
0.4444444444444444
 40
0.4444444444444444
 40
0.5
 40
0.5
 40
0.5
 40
0.5
 40
0.5555555555555556
 40
0.5555555555555556
 40
0.5555555555555556
 40
0.5555555555555556
 40
0.6111111111111112
 40
0.6111111111111112
 40
0.6111111111111112
 40
0.6111111111111112
 40
0.6666666666666666
 40
0.6666666666666666
 40
0.6666666666666666
 40
0.6666666666666666
 40
0.7222222222222222
 40
0.7222222222222222
 40
0.7222222222222222
 40
0.7222222222222222
 40
0.7777777777777778
 40
0.7777777777777778
 40
0.7777777777777778
 40
0.7777777777777778
 40
0.8333333333333334
 40
0.8333333333333334
 40
0.8333333333333334
 40
0.8333333333333334
 40
0.8888888888888888
 40
0.8888888888888888
 40
0.8888888888888888
 40
0.8888888888888888
 40
1.0
 40
1.0
 40
1.0
 40
1.0
 10
77.7839
 20
7.2834
 30
0.0
 10
77.7839
 20
7.2834
 30
0.0
 10
78.1733
 20
7.2834
 30
0.0
 10
78.1733
 20
7.2834
 30
0.0
 10
78.1733
 20
7.2834
 30
0.0
 10
78.1733
 20
7.2834
 30
0.0
 10
78.8548
 20
7.2834
 30
0.0
 10
78.8548
 20
7.2834
 30
0.0
 10
78.8548
 20
7.2834
 30
0.0
 10
78.8548
 20
7.2834
 30
0.0
 10
79.2441
 20
7.2834
 30
0.0
 10
79.2441
 20
7.2834
 30
0.0
 10
79.2441
 20
7.2834
 30
0.0
 10
79.2705
 20
7.2818
 30
0.0
 10
79.2928
 20
7.2624
 30
0.0
 10
79.2928
 20
7.2347
 30
0.0
 10
79.2928
 20
7.2347
 30
0.0
 10
79.2928
 20
7.2347
 30
0.0
 10
79.2928
 20
6.8453
 30
0.0
 10
79.2928
 20
6.8453
 30
0.0
 10
79.2928
 20
6.8453
 30
0.0
 10
79.2928
 20
6.8453
 30
0.0
 10
79.2928
 20
6.164
 30
0.0
 10
79.2928
 20
6.164
 30
0.0
 10
79.2928
 20
6.164
 30
0.0
 10
79.2928
 20
6.164
 30
0.0
 10
79.2928
 20
5.7745
 30
0.0
 10
79.2928
 20
5.7745
 30
0.0
 10
79.2928
 20
5.7745
 30
0.0
 10
79.2928
 20
5.7587
 30
0.0
 10
79.2849
 20
5.7435
 30
0.0
 10
79.2717
 20
5.7344
 30
0.0
 10
79.2717
 20
5.7344
 30
0.0
 10
79.2636
 20
5.7289
 30
0.0
 10
79.254
 20
5.7258
 30
0.0
 10
79.2441
 20
5.7258
 30
0.0
 10
79.2441
 20
5.7258
 30
0.0
 10
79.2441
 20
5.7258
 30
0.0
 10
78.8548
 20
5.7258
 30
0.0
 10
78.8548
 20
5.7258
 30
0.0
 10
78.8548
 20
5.7258
 30
0.0
 10
78.8548
 20
5.7258
 30
0.0
 10
78.1733
 20
5.7258
 30
0.0
 10
78.1733
 20
5.7258
 30
0.0
 10
78.1733
 20
5.7258
 30
0.0
 10
78.1733
 20
5.7258
 30
0.0
 10
77.7839
 20
5.7258
 30
0.0
 10
77.7839
 20
5.7258
 30
0.0
 10
77.7839
 20
5.7258
 30
0.0
 10
77.7562
 20
5.7258
 30
0.0
 10
77.7369
 20
5.7481
 30
0.0
 10
77.7352
 20
5.7745
 30
0.0
 10
77.7352
 20
5.7745
 30
0.0
 10
77.7352
 20
5.7745
 30
0.0
 10
77.7352
 20
6.164
 30
0.0
 10
77.7352
 20
6.164
 30
0.0
 10
77.7352
 20
6.164
 30
0.0
 10
77.7352
 20
6.164
 30
0.0
 10
77.7352
 20
6.8453
 30
0.0
 10
77.7352
 20
6.8453
 30
0.0
 10
77.7352
 20
6.8453
 30
0.0
 10
77.7352
 20
6.8453
 30
0.0
 10
77.7352
 20
7.2347
 30
0.0
 10
77.7352
 20
7.2347
 30
0.0
 10
77.7352
 20
7.2347
 30
0.0
 10
77.7354
 20
7.2612
 30
0.0
 10
77.7574
 20
7.2833
 30
0.0
 10
77.7839
 20
7.2834
 30
0.0
  0
SPLINE
  5
98
330
1F
100
AcDbEntity
  8
Ilustrace
 62
   254
370
    30
100
AcDbSpline
210
0.0
220
0.0
230
1.0
 70
    11
 71
     3
 72
    72
 73
    68
 74
     0
 42
0.0000000001
 43
0.0000000001
 40
0.0
 40
0.0
 40
0.0
 40
0.0
 40
0.0555555555555556
 40
0.0555555555555556
 40
0.0555555555555556
 40
0.0555555555555556
 40
0.1111111111111111
 40
0.1111111111111111
 40
0.1111111111111111
 40
0.1111111111111111
 40
0.1666666666666667
 40
0.1666666666666667
 40
0.1666666666666667
 40
0.1666666666666667
 40
0.2222222222222222
 40
0.2222222222222222
 40
0.2222222222222222
 40
0.2222222222222222
 40
0.2777777777777778
 40
0.2777777777777778
 40
0.2777777777777778
 40
0.2777777777777778
 40
0.3333333333333333
 40
0.3333333333333333
 40
0.3333333333333333
 40
0.3333333333333333
 40
0.3888888888888889
 40
0.3888888888888889
 40
0.3888888888888889
 40
0.3888888888888889
 40
0.4444444444444444
 40
0.4444444444444444
 40
0.4444444444444444
 40
0.4444444444444444
 40
0.5
 40
0.5
 40
0.5
 40
0.5
 40
0.5555555555555556
 40
0.5555555555555556
 40
0.5555555555555556
 40
0.5555555555555556
 40
0.6111111111111112
 40
0.6111111111111112
 40
0.6111111111111112
 40
0.6111111111111112
 40
0.6666666666666666
 40
0.6666666666666666
 40
0.6666666666666666
 40
0.6666666666666666
 40
0.7222222222222222
 40
0.7222222222222222
 40
0.7222222222222222
 40
0.7222222222222222
 40
0.7777777777777778
 40
0.7777777777777778
 40
0.7777777777777778
 40
0.7777777777777778
 40
0.8333333333333334
 40
0.8333333333333334
 40
0.8333333333333334
 40
0.8333333333333334
 40
0.8888888888888888
 40
0.8888888888888888
 40
0.8888888888888888
 40
0.8888888888888888
 40
1.0
 40
1.0
 40
1.0
 40
1.0
 10
77.7839
 20
4.6551
 30
0.0
 10
77.7839
 20
4.6551
 30
0.0
 10
78.1733
 20
4.6551
 30
0.0
 10
78.1733
 20
4.6551
 30
0.0
 10
78.1733
 20
4.6551
 30
0.0
 10
78.1733
 20
4.6551
 30
0.0
 10
78.8548
 20
4.6551
 30
0.0
 10
78.8548
 20
4.6551
 30
0.0
 10
78.8548
 20
4.6551
 30
0.0
 10
78.8548
 20
4.6551
 30
0.0
 10
79.2441
 20
4.6551
 30
0.0
 10
79.2441
 20
4.6551
 30
0.0
 10
79.2441
 20
4.6551
 30
0.0
 10
79.2705
 20
4.6534
 30
0.0
 10
79.2928
 20
4.634
 30
0.0
 10
79.2928
 20
4.6064
 30
0.0
 10
79.2928
 20
4.6064
 30
0.0
 10
79.2928
 20
4.6064
 30
0.0
 10
79.2928
 20
4.217
 30
0.0
 10
79.2928
 20
4.217
 30
0.0
 10
79.2928
 20
4.217
 30
0.0
 10
79.2928
 20
4.217
 30
0.0
 10
79.2928
 20
3.5356
 30
0.0
 10
79.2928
 20
3.5356
 30
0.0
 10
79.2928
 20
3.5356
 30
0.0
 10
79.2928
 20
3.5356
 30
0.0
 10
79.2928
 20
3.1462
 30
0.0
 10
79.2928
 20
3.1462
 30
0.0
 10
79.2928
 20
3.1462
 30
0.0
 10
79.2928
 20
3.1303
 30
0.0
 10
79.2849
 20
3.1151
 30
0.0
 10
79.2717
 20
3.1061
 30
0.0
 10
79.2717
 20
3.1061
 30
0.0
 10
79.2636
 20
3.1005
 30
0.0
 10
79.254
 20
3.0975
 30
0.0
 10
79.2441
 20
3.0975
 30
0.0
 10
79.2441
 20
3.0975
 30
0.0
 10
79.2441
 20
3.0975
 30
0.0
 10
78.8548
 20
3.0975
 30
0.0
 10
78.8548
 20
3.0975
 30
0.0
 10
78.8548
 20
3.0975
 30
0.0
 10
78.8548
 20
3.0975
 30
0.0
 10
78.1733
 20
3.0975
 30
0.0
 10
78.1733
 20
3.0975
 30
0.0
 10
78.1733
 20
3.0975
 30
0.0
 10
78.1733
 20
3.0975
 30
0.0
 10
77.7839
 20
3.0975
 30
0.0
 10
77.7839
 20
3.0975
 30
0.0
 10
77.7839
 20
3.0975
 30
0.0
 10
77.7562
 20
3.0975
 30
0.0
 10
77.7369
 20
3.1197
 30
0.0
 10
77.7352
 20
3.1462
 30
0.0
 10
77.7352
 20
3.1462
 30
0.0
 10
77.7352
 20
3.1462
 30
0.0
 10
77.7352
 20
3.5356
 30
0.0
 10
77.7352
 20
3.5356
 30
0.0
 10
77.7352
 20
3.5356
 30
0.0
 10
77.7352
 20
3.5356
 30
0.0
 10
77.7352
 20
4.217
 30
0.0
 10
77.7352
 20
4.217
 30
0.0
 10
77.7352
 20
4.217
 30
0.0
 10
77.7352
 20
4.217
 30
0.0
 10
77.7352
 20
4.6064
 30
0.0
 10
77.7352
 20
4.6064
 30
0.0
 10
77.7352
 20
4.6064
 30
0.0
 10
77.7354
 20
4.6329
 30
0.0
 10
77.7574
 20
4.6551
 30
0.0
 10
77.7839
 20
4.6551
 30
0.0
  0
SPLINE
  5
99
330
1F
100
AcDbEntity
  8
Ilustrace
 62
   254
370
    30
100
AcDbSpline
210
0.0
220
0.0
230
1.0
 70
    11
 71
     3
 72
    72
 73
    68
 74
     0
 42
0.0000000001
 43
0.0000000001
 40
0.0
 40
0.0
 40
0.0
 40
0.0
 40
0.0555555555555556
 40
0.0555555555555556
 40
0.0555555555555556
 40
0.0555555555555556
 40
0.1111111111111111
 40
0.1111111111111111
 40
0.1111111111111111
 40
0.1111111111111111
 40
0.1666666666666667
 40
0.1666666666666667
 40
0.1666666666666667
 40
0.1666666666666667
 40
0.2222222222222222
 40
0.2222222222222222
 40
0.2222222222222222
 40
0.2222222222222222
 40
0.2777777777777778
 40
0.2777777777777778
 40
0.2777777777777778
 40
0.2777777777777778
 40
0.3333333333333333
 40
0.3333333333333333
 40
0.3333333333333333
 40
0.3333333333333333
 40
0.3888888888888889
 40
0.3888888888888889
 40
0.3888888888888889
 40
0.3888888888888889
 40
0.4444444444444444
 40
0.4444444444444444
 40
0.4444444444444444
 40
0.4444444444444444
 40
0.5
 40
0.5
 40
0.5
 40
0.5
 40
0.5555555555555556
 40
0.5555555555555556
 40
0.5555555555555556
 40
0.5555555555555556
 40
0.6111111111111112
 40
0.6111111111111112
 40
0.6111111111111112
 40
0.6111111111111112
 40
0.6666666666666666
 40
0.6666666666666666
 40
0.6666666666666666
 40
0.6666666666666666
 40
0.7222222222222222
 40
0.7222222222222222
 40
0.7222222222222222
 40
0.7222222222222222
 40
0.7777777777777778
 40
0.7777777777777778
 40
0.7777777777777778
 40
0.7777777777777778
 40
0.8333333333333334
 40
0.8333333333333334
 40
0.8333333333333334
 40
0.8333333333333334
 40
0.8888888888888888
 40
0.8888888888888888
 40
0.8888888888888888
 40
0.8888888888888888
 40
1.0
 40
1.0
 40
1.0
 40
1.0
 10
77.7839
 20
2.0267
 30
0.0
 10
77.7839
 20
2.0267
 30
0.0
 10
78.1733
 20
2.0267
 30
0.0
 10
78.1733
 20
2.0267
 30
0.0
 10
78.1733
 20
2.0267
 30
0.0
 10
78.1733
 20
2.0267
 30
0.0
 10
78.8548
 20
2.0267
 30
0.0
 10
78.8548
 20
2.0267
 30
0.0
 10
78.8548
 20
2.0267
 30
0.0
 10
78.8548
 20
2.0267
 30
0.0
 10
79.2441
 20
2.0267
 30
0.0
 10
79.2441
 20
2.0267
 30
0.0
 10
79.2441
 20
2.0267
 30
0.0
 10
79.2705
 20
2.0251
 30
0.0
 10
79.2928
 20
2.0057
 30
0.0
 10
79.2928
 20
1.978
 30
0.0
 10
79.2928
 20
1.978
 30
0.0
 10
79.2928
 20
1.978
 30
0.0
 10
79.2928
 20
1.5887
 30
0.0
 10
79.2928
 20
1.5887
 30
0.0
 10
79.2928
 20
1.5887
 30
0.0
 10
79.2928
 20
1.5887
 30
0.0
 10
79.2928
 20
0.9073
 30
0.0
 10
79.2928
 20
0.9073
 30
0.0
 10
79.2928
 20
0.9073
 30
0.0
 10
79.2928
 20
0.9073
 30
0.0
 10
79.2928
 20
0.5178
 30
0.0
 10
79.2928
 20
0.5178
 30
0.0
 10
79.2928
 20
0.5178
 30
0.0
 10
79.2928
 20
0.502
 30
0.0
 10
79.2849
 20
0.4868
 30
0.0
 10
79.2717
 20
0.4779
 30
0.0
 10
79.2717
 20
0.4779
 30
0.0
 10
79.2636
 20
0.4722
 30
0.0
 10
79.254
 20
0.4692
 30
0.0
 10
79.2441
 20
0.4692
 30
0.0
 10
79.2441
 20
0.4692
 30
0.0
 10
79.2441
 20
0.4692
 30
0.0
 10
78.8548
 20
0.4692
 30
0.0
 10
78.8548
 20
0.4692
 30
0.0
 10
78.8548
 20
0.4692
 30
0.0
 10
78.8548
 20
0.4692
 30
0.0
 10
78.1733
 20
0.4692
 30
0.0
 10
78.1733
 20
0.4692
 30
0.0
 10
78.1733
 20
0.4692
 30
0.0
 10
78.1733
 20
0.4692
 30
0.0
 10
77.7839
 20
0.4692
 30
0.0
 10
77.7839
 20
0.4692
 30
0.0
 10
77.7839
 20
0.4692
 30
0.0
 10
77.7562
 20
0.4693
 30
0.0
 10
77.7369
 20
0.4913
 30
0.0
 10
77.7352
 20
0.5178
 30
0.0
 10
77.7352
 20
0.5178
 30
0.0
 10
77.7352
 20
0.5178
 30
0.0
 10
77.7352
 20
0.9073
 30
0.0
 10
77.7352
 20
0.9073
 30
0.0
 10
77.7352
 20
0.9073
 30
0.0
 10
77.7352
 20
0.9073
 30
0.0
 10
77.7352
 20
1.5887
 30
0.0
 10
77.7352
 20
1.5887
 30
0.0
 10
77.7352
 20
1.5887
 30
0.0
 10
77.7352
 20
1.5887
 30
0.0
 10
77.7352
 20
1.978
 30
0.0
 10
77.7352
 20
1.978
 30
0.0
 10
77.7352
 20
1.978
 30
0.0
 10
77.7354
 20
2.0045
 30
0.0
 10
77.7574
 20
2.0267
 30
0.0
 10
77.7839
 20
2.0267
 30
0.0
  0
SPLINE
  5
9A
330
1F
100
AcDbEntity
  8
Ilustrace
 62
   254
370
    30
100
AcDbSpline
210
0.0
220
0.0
230
1.0
 70
    11
 71
     3
 72
    72
 73
    68
 74
     0
 42
0.0000000001
 43
0.0000000001
 40
0.0
 40
0.0
 40
0.0
 40
0.0
 40
0.0555555555555556
 40
0.0555555555555556
 40
0.0555555555555556
 40
0.0555555555555556
 40
0.1111111111111111
 40
0.1111111111111111
 40
0.1111111111111111
 40
0.1111111111111111
 40
0.1666666666666667
 40
0.1666666666666667
 40
0.1666666666666667
 40
0.1666666666666667
 40
0.2222222222222222
 40
0.2222222222222222
 40
0.2222222222222222
 40
0.2222222222222222
 40
0.2777777777777778
 40
0.2777777777777778
 40
0.2777777777777778
 40
0.2777777777777778
 40
0.3333333333333333
 40
0.3333333333333333
 40
0.3333333333333333
 40
0.3333333333333333
 40
0.3888888888888889
 40
0.3888888888888889
 40
0.3888888888888889
 40
0.3888888888888889
 40
0.4444444444444444
 40
0.4444444444444444
 40
0.4444444444444444
 40
0.4444444444444444
 40
0.5
 40
0.5
 40
0.5
 40
0.5
 40
0.5555555555555556
 40
0.5555555555555556
 40
0.5555555555555556
 40
0.5555555555555556
 40
0.6111111111111112
 40
0.6111111111111112
 40
0.6111111111111112
 40
0.6111111111111112
 40
0.6666666666666666
 40
0.6666666666666666
 40
0.6666666666666666
 40
0.6666666666666666
 40
0.7222222222222222
 40
0.7222222222222222
 40
0.7222222222222222
 40
0.7222222222222222
 40
0.7777777777777778
 40
0.7777777777777778
 40
0.7777777777777778
 40
0.7777777777777778
 40
0.8333333333333334
 40
0.8333333333333334
 40
0.8333333333333334
 40
0.8333333333333334
 40
0.8888888888888888
 40
0.8888888888888888
 40
0.8888888888888888
 40
0.8888888888888888
 40
1.0
 40
1.0
 40
1.0
 40
1.0
 10
77.7839
 20
-0.6016
 30
0.0
 10
77.7839
 20
-0.6016
 30
0.0
 10
78.1733
 20
-0.6016
 30
0.0
 10
78.1733
 20
-0.6016
 30
0.0
 10
78.1733
 20
-0.6016
 30
0.0
 10
78.1733
 20
-0.6016
 30
0.0
 10
78.8548
 20
-0.6016
 30
0.0
 10
78.8548
 20
-0.6016
 30
0.0
 10
78.8548
 20
-0.6016
 30
0.0
 10
78.8548
 20
-0.6016
 30
0.0
 10
79.2441
 20
-0.6016
 30
0.0
 10
79.2441
 20
-0.6016
 30
0.0
 10
79.2441
 20
-0.6016
 30
0.0
 10
79.2705
 20
-0.6032
 30
0.0
 10
79.2928
 20
-0.6226
 30
0.0
 10
79.2928
 20
-0.6503
 30
0.0
 10
79.2928
 20
-0.6503
 30
0.0
 10
79.2928
 20
-0.6503
 30
0.0
 10
79.2928
 20
-1.0396
 30
0.0
 10
79.2928
 20
-1.0396
 30
0.0
 10
79.2928
 20
-1.0396
 30
0.0
 10
79.2928
 20
-1.0396
 30
0.0
 10
79.2928
 20
-1.7211
 30
0.0
 10
79.2928
 20
-1.7211
 30
0.0
 10
79.2928
 20
-1.7211
 30
0.0
 10
79.2928
 20
-1.7211
 30
0.0
 10
79.2928
 20
-2.1105
 30
0.0
 10
79.2928
 20
-2.1105
 30
0.0
 10
79.2928
 20
-2.1105
 30
0.0
 10
79.2928
 20
-2.1264
 30
0.0
 10
79.2847
 20
-2.1416
 30
0.0
 10
79.2717
 20
-2.1505
 30
0.0
 10
79.2717
 20
-2.1505
 30
0.0
 10
79.2637
 20
-2.1561
 30
0.0
 10
79.254
 20
-2.1591
 30
0.0
 10
79.2441
 20
-2.1591
 30
0.0
 10
79.2441
 20
-2.1591
 30
0.0
 10
79.2441
 20
-2.1591
 30
0.0
 10
78.8548
 20
-2.1591
 30
0.0
 10
78.8548
 20
-2.1591
 30
0.0
 10
78.8548
 20
-2.1591
 30
0.0
 10
78.8548
 20
-2.1591
 30
0.0
 10
78.1733
 20
-2.1591
 30
0.0
 10
78.1733
 20
-2.1591
 30
0.0
 10
78.1733
 20
-2.1591
 30
0.0
 10
78.1733
 20
-2.1591
 30
0.0
 10
77.7839
 20
-2.1591
 30
0.0
 10
77.7839
 20
-2.1591
 30
0.0
 10
77.7839
 20
-2.1591
 30
0.0
 10
77.7562
 20
-2.1591
 30
0.0
 10
77.7369
 20
-2.137
 30
0.0
 10
77.7352
 20
-2.1105
 30
0.0
 10
77.7352
 20
-2.1105
 30
0.0
 10
77.7352
 20
-2.1105
 30
0.0
 10
77.7352
 20
-1.7211
 30
0.0
 10
77.7352
 20
-1.7211
 30
0.0
 10
77.7352
 20
-1.7211
 30
0.0
 10
77.7352
 20
-1.7211
 30
0.0
 10
77.7352
 20
-1.0396
 30
0.0
 10
77.7352
 20
-1.0396
 30
0.0
 10
77.7352
 20
-1.0396
 30
0.0
 10
77.7352
 20
-1.0396
 30
0.0
 10
77.7352
 20
-0.6503
 30
0.0
 10
77.7352
 20
-0.6503
 30
0.0
 10
77.7352
 20
-0.6503
 30
0.0
 10
77.7354
 20
-0.6237
 30
0.0
 10
77.7574
 20
-0.6017
 30
0.0
 10
77.7839
 20
-0.6016
 30
0.0
  0
SPLINE
  5
9B
330
1F
100
AcDbEntity
  8
Ilustrace
 62
   254
370
    30
100
AcDbSpline
210
0.0
220
0.0
230
1.0
 70
    11
 71
     3
 72
   180
 73
   176
 74
     0
 42
0.0000000001
 43
0.0000000001
 40
0.0
 40
0.0
 40
0.0
 40
0.0
 40
0.0222222222222222
 40
0.0222222222222222
 40
0.0222222222222222
 40
0.0222222222222222
 40
0.0444444444444444
 40
0.0444444444444444
 40
0.0444444444444444
 40
0.0444444444444444
 40
0.0666666666666667
 40
0.0666666666666667
 40
0.0666666666666667
 40
0.0666666666666667
 40
0.0888888888888889
 40
0.0888888888888889
 40
0.0888888888888889
 40
0.0888888888888889
 40
0.1111111111111111
 40
0.1111111111111111
 40
0.1111111111111111
 40
0.1111111111111111
 40
0.1333333333333333
 40
0.1333333333333333
 40
0.1333333333333333
 40
0.1333333333333333
 40
0.1555555555555556
 40
0.1555555555555556
 40
0.1555555555555556
 40
0.1555555555555556
 40
0.1777777777777778
 40
0.1777777777777778
 40
0.1777777777777778
 40
0.1777777777777778
 40
0.2
 40
0.2
 40
0.2
 40
0.2
 40
0.2222222222222222
 40
0.2222222222222222
 40
0.2222222222222222
 40
0.2222222222222222
 40
0.2444444444444444
 40
0.2444444444444444
 40
0.2444444444444444
 40
0.2444444444444444
 40
0.2666666666666667
 40
0.2666666666666667
 40
0.2666666666666667
 40
0.2666666666666667
 40
0.2888888888888889
 40
0.2888888888888889
 40
0.2888888888888889
 40
0.2888888888888889
 40
0.3111111111111111
 40
0.3111111111111111
 40
0.3111111111111111
 40
0.3111111111111111
 40
0.3333333333333333
 40
0.3333333333333333
 40
0.3333333333333333
 40
0.3333333333333333
 40
0.3555555555555556
 40
0.3555555555555556
 40
0.3555555555555556
 40
0.3555555555555556
 40
0.3777777777777778
 40
0.3777777777777778
 40
0.3777777777777778
 40
0.3777777777777778
 40
0.4
 40
0.4
 40
0.4
 40
0.4
 40
0.4222222222222222
 40
0.4222222222222222
 40
0.4222222222222222
 40
0.4222222222222222
 40
0.4444444444444444
 40
0.4444444444444444
 40
0.4444444444444444
 40
0.4444444444444444
 40
0.4666666666666667
 40
0.4666666666666667
 40
0.4666666666666667
 40
0.4666666666666667
 40
0.4888888888888889
 40
0.4888888888888889
 40
0.4888888888888889
 40
0.4888888888888889
 40
0.5111111111111111
 40
0.5111111111111111
 40
0.5111111111111111
 40
0.5111111111111111
 40
0.5333333333333333
 40
0.5333333333333333
 40
0.5333333333333333
 40
0.5333333333333333
 40
0.5555555555555556
 40
0.5555555555555556
 40
0.5555555555555556
 40
0.5555555555555556
 40
0.5777777777777777
 40
0.5777777777777777
 40
0.5777777777777777
 40
0.5777777777777777
 40
0.6
 40
0.6
 40
0.6
 40
0.6
 40
0.6222222222222222
 40
0.6222222222222222
 40
0.6222222222222222
 40
0.6222222222222222
 40
0.6444444444444445
 40
0.6444444444444445
 40
0.6444444444444445
 40
0.6444444444444445
 40
0.6666666666666666
 40
0.6666666666666666
 40
0.6666666666666666
 40
0.6666666666666666
 40
0.6888888888888889
 40
0.6888888888888889
 40
0.6888888888888889
 40
0.6888888888888889
 40
0.7111111111111111
 40
0.7111111111111111
 40
0.7111111111111111
 40
0.7111111111111111
 40
0.7333333333333333
 40
0.7333333333333333
 40
0.7333333333333333
 40
0.7333333333333333
 40
0.7555555555555555
 40
0.7555555555555555
 40
0.7555555555555555
 40
0.7555555555555555
 40
0.7777777777777778
 40
0.7777777777777778
 40
0.7777777777777778
 40
0.7777777777777778
 40
0.8
 40
0.8
 40
0.8
 40
0.8
 40
0.8222222222222222
 40
0.8222222222222222
 40
0.8222222222222222
 40
0.8222222222222222
 40
0.8444444444444444
 40
0.8444444444444444
 40
0.8444444444444444
 40
0.8444444444444444
 40
0.8666666666666667
 40
0.8666666666666667
 40
0.8666666666666667
 40
0.8666666666666667
 40
0.8888888888888888
 40
0.8888888888888888
 40
0.8888888888888888
 40
0.8888888888888888
 40
0.9111111111111111
 40
0.9111111111111111
 40
0.9111111111111111
 40
0.9111111111111111
 40
0.9333333333333333
 40
0.9333333333333333
 40
0.9333333333333333
 40
0.9333333333333333
 40
0.9555555555555556
 40
0.9555555555555556
 40
0.9555555555555556
 40
0.9555555555555556
 40
1.0
 40
1.0
 40
1.0
 40
1.0
 10
74.4255
 20
9.9118
 30
0.0
 10
74.4255
 20
9.9118
 30
0.0
 10
74.8149
 20
9.9118
 30
0.0
 10
74.8149
 20
9.9118
 30
0.0
 10
74.8149
 20
9.9118
 30
0.0
 10
74.8149
 20
9.9118
 30
0.0
 10
77.3264
 20
9.9118
 30
0.0
 10
77.3264
 20
9.9118
 30
0.0
 10
77.3264
 20
9.9118
 30
0.0
 10
77.3264
 20
9.9118
 30
0.0
 10
77.7158
 20
9.9118
 30
0.0
 10
77.7158
 20
9.9118
 30
0.0
 10
77.7158
 20
9.9118
 30
0.0
 10
77.7158
 20
9.9118
 30
0.0
 10
77.7158
 20
8.3347
 30
0.0
 10
77.7158
 20
8.3347
 30
0.0
 10
77.7158
 20
8.3347
 30
0.0
 10
77.7158
 20
8.3347
 30
0.0
 10
78.514
 20
8.3347
 30
0.0
 10
78.514
 20
8.3347
 30
0.0
 10
78.514
 20
8.3347
 30
0.0
 10
78.514
 20
8.3347
 30
0.0
 10
78.514
 20
7.3028
 30
0.0
 10
78.514
 20
7.3028
 30
0.0
 10
78.514
 20
7.3028
 30
0.0
 10
78.514
 20
7.3028
 30
0.0
 10
77.7158
 20
7.3028
 30
0.0
 10
77.7158
 20
7.3028
 30
0.0
 10
77.7158
 20
7.3028
 30
0.0
 10
77.7158
 20
7.3028
 30
0.0
 10
77.7158
 20
5.7064
 30
0.0
 10
77.7158
 20
5.7064
 30
0.0
 10
77.7158
 20
5.7064
 30
0.0
 10
77.7158
 20
5.7064
 30
0.0
 10
78.514
 20
5.7064
 30
0.0
 10
78.514
 20
5.7064
 30
0.0
 10
78.514
 20
5.7064
 30
0.0
 10
78.514
 20
5.7064
 30
0.0
 10
78.514
 20
4.6745
 30
0.0
 10
78.514
 20
4.6745
 30
0.0
 10
78.514
 20
4.6745
 30
0.0
 10
78.514
 20
4.6745
 30
0.0
 10
77.7158
 20
4.6745
 30
0.0
 10
77.7158
 20
4.6745
 30
0.0
 10
77.7158
 20
4.6745
 30
0.0
 10
77.7158
 20
4.6745
 30
0.0
 10
77.7158
 20
3.0781
 30
0.0
 10
77.7158
 20
3.0781
 30
0.0
 10
77.7158
 20
3.0781
 30
0.0
 10
77.7158
 20
3.0781
 30
0.0
 10
78.514
 20
3.0781
 30
0.0
 10
78.514
 20
3.0781
 30
0.0
 10
78.514
 20
3.0781
 30
0.0
 10
78.514
 20
3.0781
 30
0.0
 10
78.514
 20
2.0462
 30
0.0
 10
78.514
 20
2.0462
 30
0.0
 10
78.514
 20
2.0462
 30
0.0
 10
78.514
 20
2.0462
 30
0.0
 10
77.7158
 20
2.0462
 30
0.0
 10
77.7158
 20
2.0462
 30
0.0
 10
77.7158
 20
2.0462
 30
0.0
 10
77.7158
 20
2.0462
 30
0.0
 10
77.7158
 20
0.4497
 30
0.0
 10
77.7158
 20
0.4497
 30
0.0
 10
77.7158
 20
0.4497
 30
0.0
 10
77.7158
 20
0.4497
 30
0.0
 10
78.514
 20
0.4497
 30
0.0
 10
78.514
 20
0.4497
 30
0.0
 10
78.514
 20
0.4497
 30
0.0
 10
78.514
 20
0.4497
 30
0.0
 10
78.514
 20
-0.5821
 30
0.0
 10
78.514
 20
-0.5821
 30
0.0
 10
78.514
 20
-0.5821
 30
0.0
 10
78.514
 20
-0.5821
 30
0.0
 10
77.7158
 20
-0.5821
 30
0.0
 10
77.7158
 20
-0.5821
 30
0.0
 10
77.7158
 20
-0.5821
 30
0.0
 10
77.7158
 20
-0.5821
 30
0.0
 10
77.7158
 20
-2.1591
 30
0.0
 10
77.7158
 20
-2.1591
 30
0.0
 10
77.7158
 20
-2.1591
 30
0.0
 10
77.7158
 20
-2.1591
 30
0.0
 10
77.3264
 20
-2.1591
 30
0.0
 10
77.3264
 20
-2.1591
 30
0.0
 10
77.3264
 20
-2.1591
 30
0.0
 10
77.3264
 20
-2.1591
 30
0.0
 10
74.8149
 20
-2.1591
 30
0.0
 10
74.8149
 20
-2.1591
 30
0.0
 10
74.8149
 20
-2.1591
 30
0.0
 10
74.6396
 20
-2.1591
 30
0.0
 10
74.2531
 20
-2.2475
 30
0.0
 10
74.2309
 20
-1.9644
 30
0.0
 10
74.2309
 20
-1.9644
 30
0.0
 10
74.2309
 20
-1.9644
 30
0.0
 10
74.2309
 20
-1.5751
 30
0.0
 10
74.2309
 20
-1.5751
 30
0.0
 10
74.2309
 20
-1.5751
 30
0.0
 10
74.2309
 20
-1.5751
 30
0.0
 10
74.2309
 20
-0.7963
 30
0.0
 10
74.2309
 20
-0.7963
 30
0.0
 10
74.2309
 20
-0.7963
 30
0.0
 10
74.2309
 20
-0.7471
 30
0.0
 10
74.1803
 20
-0.4133
 30
0.0
 10
74.2681
 20
-0.2926
 30
0.0
 10
74.2681
 20
-0.2926
 30
0.0
 10
74.3771
 20
-0.1424
 30
0.0
 10
74.7113
 20
-0.2122
 30
0.0
 10
74.8149
 20
-0.2122
 30
0.0
 10
74.8149
 20
-0.2122
 30
0.0
 10
74.8149
 20
-0.2122
 30
0.0
 10
75.2043
 20
-0.2122
 30
0.0
 10
75.2043
 20
-0.2122
 30
0.0
 10
75.2043
 20
-0.2122
 30
0.0
 10
75.2043
 20
-0.2122
 30
0.0
 10
75.5937
 20
-0.2122
 30
0.0
 10
75.5937
 20
-0.2122
 30
0.0
 10
75.5937
 20
-0.2122
 30
0.0
 10
75.5937
 20
-0.2122
 30
0.0
 10
75.6954
 20
-0.2068
 30
0.0
 10
75.6954
 20
-0.2068
 30
0.0
 10
75.6954
 20
-0.2068
 30
0.0
 10
75.8988
 20
-0.1856
 30
0.0
 10
76.0931
 20
-0.0991
 30
0.0
 10
76.245
 20
0.0378
 30
0.0
 10
76.245
 20
0.0378
 30
0.0
 10
76.2956
 20
0.0833
 30
0.0
 10
76.3413
 20
0.134
 30
0.0
 10
76.3812
 20
0.189
 30
0.0
 10
76.3812
 20
0.189
 30
0.0
 10
76.4412
 20
0.2715
 30
0.0
 10
76.488
 20
0.3635
 30
0.0
 10
76.5195
 20
0.4603
 30
0.0
 10
76.5195
 20
0.4603
 30
0.0
 10
76.5913
 20
0.6813
 30
0.0
 10
76.5672
 20
0.9241
 30
0.0
 10
76.5672
 20
1.1505
 30
0.0
 10
76.5672
 20
1.1505
 30
0.0
 10
76.5672
 20
1.1505
 30
0.0
 10
76.5672
 20
6.602
 30
0.0
 10
76.5672
 20
6.602
 30
0.0
 10
76.5672
 20
6.602
 30
0.0
 10
76.5672
 20
6.602
 30
0.0
 10
76.5672
 20
6.9914
 30
0.0
 10
76.5672
 20
6.9914
 30
0.0
 10
76.5672
 20
6.9914
 30
0.0
 10
76.5617
 20
7.0951
 30
0.0
 10
76.5518
 20
7.1926
 30
0.0
 10
76.5195
 20
7.2921
 30
0.0
 10
76.5195
 20
7.2921
 30
0.0
 10
76.4131
 20
7.6197
 30
0.0
 10
76.1331
 20
7.872
 30
0.0
 10
75.7961
 20
7.9435
 30
0.0
 10
75.7961
 20
7.9435
 30
0.0
 10
75.6075
 20
7.9836
 30
0.0
 10
75.3878
 20
7.9648
 30
0.0
 10
75.2043
 20
7.9648
 30
0.0
 10
75.2043
 20
7.9648
 30
0.0
 10
75.2043
 20
7.9648
 30
0.0
 10
74.8149
 20
7.9648
 30
0.0
 10
74.8149
 20
7.9648
 30
0.0
 10
74.8149
 20
7.9648
 30
0.0
 10
74.6396
 20
7.9648
 30
0.0
 10
74.2531
 20
7.8765
 30
0.0
 10
74.2309
 20
8.1595
 30
0.0
 10
74.2309
 20
8.1595
 30
0.0
 10
74.2309
 20
8.1595
 30
0.0
 10
74.2309
 20
8.5489
 30
0.0
 10
74.2309
 20
8.5489
 30
0.0
 10
74.2309
 20
8.5489
 30
0.0
 10
74.2309
 20
8.5489
 30
0.0
 10
74.2309
 20
9.3276
 30
0.0
 10
74.2309
 20
9.3276
 30
0.0
 10
74.2309
 20
9.3276
 30
0.0
 10
74.2309
 20
9.4645
 30
0.0
 10
74.1422
 20
9.91
 30
0.0
 10
74.4255
 20
9.9118
 30
0.0
  0
ENDSEC
  0
SECTION
  2
OBJECTS
  0
DICTIONARY
  5
C
330
0
100
AcDbDictionary
281
     1
  3
ACAD_GROUP
350
D
  3
ACAD_LAYOUT
350
1A
  3
ACAD_MATERIAL
350
3B
  3
ACAD_MLEADERSTYLE
350
9E
  3
ACAD_MLINESTYLE
350
17
  3
ACAD_PLOTSETTINGS
350
19
  3
ACAD_PLOTSTYLENAME
350
E
  3
ACAD_VISUALSTYLE
350
2A
  3
AcDbVariableDictionary
350
9C
  0
DICTIONARY
  5
D
102
{ACAD_REACTORS
330
C
102
}
330
C
100
AcDbDictionary
281
     1
  0
DICTIONARY
  5
1A
102
{ACAD_REACTORS
330
C
102
}
330
C
100
AcDbDictionary
281
     1
  3
Layout1
350
1E
  3
Layout2
350
26
  3
Model
350
22
  0
DICTIONARY
  5
3B
102
{ACAD_REACTORS
330
C
102
}
330
C
100
AcDbDictionary
281
     1
  3
ByBlock
350
3D
  3
ByLayer
350
3C
  3
Global
350
3E
  0
DICTIONARY
  5
9E
102
{ACAD_REACTORS
330
C
102
}
330
C
100
AcDbDictionary
281
     1
  0
DICTIONARY
  5
17
102
{ACAD_REACTORS
330
C
102
}
330
C
100
AcDbDictionary
281
     1
  3
Standard
350
18
  0
DICTIONARY
  5
19
102
{ACAD_REACTORS
330
C
102
}
330
C
100
AcDbDictionary
281
     1
  0
ACDBDICTIONARYWDFLT
  5
E
102
{ACAD_REACTORS
330
C
102
}
330
C
100
AcDbDictionary
281
     1
  3
Normal
350
F
100
AcDbDictionaryWithDefault
340
F
  0
DICTIONARY
  5
2A
102
{ACAD_REACTORS
330
C
102
}
330
C
100
AcDbDictionary
281
     1
  3
2dWireframe
350
2F
  3
3D Hidden
350
31
  3
3dWireframe
350
30
  3
Basic
350
32
  3
Brighten
350
36
  3
ColorChange
350
3A
  3
Conceptual
350
34
  3
Dim
350
35
  3
Facepattern
350
39
  3
Flat
350
2B
  3
FlatWithEdges
350
2C
  3
Gouraud
350
2D
  3
GouraudWithEdges
350
2E
  3
Linepattern
350
38
  3
Realistic
350
33
  3
Thicken
350
37
  0
DICTIONARY
  5
9C
102
{ACAD_REACTORS
330
C
102
}
330
C
100
AcDbDictionary
281
     1
  3
DIMASSOC
350
9F
  3
HIDETEXT
350
A0
  0
LAYOUT
  5
1E
102
{ACAD_REACTORS
330
1A
102
}
330
1A
100
AcDbPlotSettings
  1

  2
none_device
  4

  6

 40
0.0
 41
0.0
 42
0.0
 43
0.0
 44
0.0
 45
0.0
 46
0.0
 47
0.0
 48
0.0
 49
0.0
140
0.0
141
0.0
142
1.0
143
1.0
 70
   688
 72
     0
 73
     0
 74
     5
  7

 75
    16
147
1.0
148
0.0
149
0.0
100
AcDbLayout
  1
Layout1
 70
     1
 71
     1
 10
0.0
 20
0.0
 11
12.0
 21
9.0
 12
0.0
 22
0.0
 32
0.0
 14
1.000000000000000E+20
 24
1.000000000000000E+20
 34
1.000000000000000E+20
 15
-1.000000000000000E+20
 25
-1.000000000000000E+20
 35
-1.000000000000000E+20
146
0.0
 13
0.0
 23
0.0
 33
0.0
 16
1.0
 26
0.0
 36
0.0
 17
0.0
 27
1.0
 37
0.0
 76
     0
330
1B
  0
LAYOUT
  5
26
102
{ACAD_REACTORS
330
1A
102
}
330
1A
100
AcDbPlotSettings
  1

  2
none_device
  4

  6

 40
0.0
 41
0.0
 42
0.0
 43
0.0
 44
0.0
 45
0.0
 46
0.0
 47
0.0
 48
0.0
 49
0.0
140
0.0
141
0.0
142
1.0
143
1.0
 70
   688
 72
     0
 73
     0
 74
     5
  7

 75
    16
147
1.0
148
0.0
149
0.0
100
AcDbLayout
  1
Layout2
 70
     1
 71
     2
 10
0.0
 20
0.0
 11
0.0
 21
0.0
 12
0.0
 22
0.0
 32
0.0
 14
0.0
 24
0.0
 34
0.0
 15
0.0
 25
0.0
 35
0.0
146
0.0
 13
0.0
 23
0.0
 33
0.0
 16
1.0
 26
0.0
 36
0.0
 17
0.0
 27
1.0
 37
0.0
 76
     0
330
23
  0
LAYOUT
  5
22
102
{ACAD_REACTORS
330
1A
102
}
330
1A
100
AcDbPlotSettings
  1

  2
none_device
  4

  6

 40
0.0
 41
0.0
 42
0.0
 43
0.0
 44
0.0
 45
0.0
 46
0.0
 47
0.0
 48
0.0
 49
0.0
140
0.0
141
0.0
142
1.0
143
1.0
 70
  1712
 72
     0
 73
     0
 74
     0
  7

 75
     0
147
1.0
148
0.0
149
0.0
100
AcDbLayout
  1
Model
 70
     1
 71
     0
 10
0.0
 20
0.0
 11
12.0
 21
9.0
 12
0.0
 22
0.0
 32
0.0
 14
-82.6502
 24
-10.02
 34
0.0
 15
82.5323
 25
10.0655
 35
0.0
146
0.0
 13
0.0
 23
0.0
 33
0.0
 16
1.0
 26
0.0
 36
0.0
 17
0.0
 27
1.0
 37
0.0
 76
     0
330
1F
331
29
  0
MATERIAL
  5
3D
102
{ACAD_REACTORS
330
3B
102
}
102
{ACAD_XDICTIONARY
360
C3
102
}
330
3B
100
AcDbMaterial
  1
ByBlock
  0
MATERIAL
  5
3C
102
{ACAD_REACTORS
330
3B
102
}
102
{ACAD_XDICTIONARY
360
C1
102
}
330
3B
100
AcDbMaterial
  1
ByLayer
  0
MATERIAL
  5
3E
102
{ACAD_REACTORS
330
3B
102
}
102
{ACAD_XDICTIONARY
360
C5
102
}
330
3B
100
AcDbMaterial
  1
Global
  0
MLINESTYLE
  5
18
102
{ACAD_REACTORS
330
17
102
}
330
17
100
AcDbMlineStyle
  2
Standard
 70
     0
  3

 62
   256
 51
90.0
 52
90.0
 71
     2
 49
0.5
 62
   256
  6
BYLAYER
 49
-0.5
 62
   256
  6
BYLAYER
  0
ACDBPLACEHOLDER
  5
F
102
{ACAD_REACTORS
330
E
102
}
330
E
  0
VISUALSTYLE
  5
2F
102
{ACAD_REACTORS
330
2A
102
}
102
{ACAD_XDICTIONARY
360
A9
102
}
330
2A
100
AcDbVisualStyle
  2
2dWireframe
 70
     4
 71
     0
 72
     2
 73
     0
 90
        0
 40
-0.6
 41
-30.0
 62
     5
 63
     7
 74
     1
 91
        4
 64
     7
 65
   257
 75
     1
175
     1
 42
1.0
 92
        0
 66
   257
 43
1.0
 76
     1
 77
     6
 78
     2
 67
     7
 79
     5
170
     0
171
     0
290
     0
174
     0
 93
        1
 44
0.0
173
     0
291
     0
 45
0.0
1001
ACAD
1000
AcDbSavedByObjectVersion
1070
     0
  0
VISUALSTYLE
  5
31
102
{ACAD_REACTORS
330
2A
102
}
102
{ACAD_XDICTIONARY
360
AD
102
}
330
2A
100
AcDbVisualStyle
  2
3D Hidden
 70
     6
 71
     1
 72
     2
 73
     2
 90
        0
 40
-0.6
 41
-30.0
 62
     5
 63
     7
 74
     2
 91
        2
 64
     7
 65
   257
 75
     2
175
     1
 42
40.0
 92
        0
 66
   257
 43
1.0
 76
     1
 77
     6
 78
     2
 67
     7
 79
     3
170
     0
171
     0
290
     0
174
     0
 93
        1
 44
0.0
173
     0
291
     0
 45
0.0
1001
ACAD
1000
AcDbSavedByObjectVersion
1070
     0
  0
VISUALSTYLE
  5
30
102
{ACAD_REACTORS
330
2A
102
}
102
{ACAD_XDICTIONARY
360
AB
102
}
330
2A
100
AcDbVisualStyle
  2
3dWireframe
 70
     5
 71
     0
 72
     2
 73
     0
 90
        0
 40
-0.6
 41
-30.0
 62
     5
 63
     7
 74
     1
 91
        4
 64
     7
 65
   257
 75
     1
175
     1
 42
1.0
 92
        0
 66
   257
 43
1.0
 76
     1
 77
     6
 78
     2
 67
     7
 79
     5
170
     0
171
     0
290
     0
174
     0
 93
        1
 44
0.0
173
     0
291
     0
 45
0.0
1001
ACAD
1000
AcDbSavedByObjectVersion
1070
     0
  0
VISUALSTYLE
  5
32
102
{ACAD_REACTORS
330
2A
102
}
102
{ACAD_XDICTIONARY
360
AF
102
}
330
2A
100
AcDbVisualStyle
  2
Basic
 70
     7
 71
     1
 72
     0
 73
     1
 90
        0
 40
-0.6
 41
-30.0
 62
     5
 63
     7
 74
     0
 91
        4
 64
     7
 65
   257
 75
     1
175
     1
 42
1.0
 92
        8
 66
     7
 43
1.0
 76
     1
 77
     6
 78
     2
 67
     7
 79
     5
170
     0
171
     0
290
     0
174
     0
 93
        1
 44
0.0
173
     0
291
     1
 45
0.0
1001
ACAD
1000
AcDbSavedByObjectVersion
1070
     0
  0
VISUALSTYLE
  5
36
102
{ACAD_REACTORS
330
2A
102
}
102
{ACAD_XDICTIONARY
360
B7
102
}
330
2A
100
AcDbVisualStyle
  2
Brighten
 70
    12
 71
     2
 72
     2
 73
     0
 90
        0
 40
-0.6
 41
-30.0
 62
     5
 63
     7
 74
     1
 91
        4
 64
     7
 65
   257
 75
     1
175
     1
 42
1.0
 92
        8
 66
     7
 43
1.0
 76
     1
 77
     6
 78
     2
 67
     7
 79
     5
170
     0
171
     0
290
     0
174
     0
 93
        1
 44
50.0
173
     0
291
     1
 45
0.0
1001
ACAD
1000
AcDbSavedByObjectVersion
1070
     0
  0
VISUALSTYLE
  5
3A
102
{ACAD_REACTORS
330
2A
102
}
102
{ACAD_XDICTIONARY
360
BF
102
}
330
2A
100
AcDbVisualStyle
  2
ColorChange
 70
    16
 71
     2
 72
     2
 73
     3
 90
        0
 40
-0.6
 41
-30.0
 62
     5
 63
     8
 74
     1
 91
        4
 64
     7
 65
   257
 75
     1
175
     1
 42
1.0
 92
        8
 66
     8
 43
1.0
 76
     1
 77
     6
 78
     2
 67
     7
 79
     5
170
     0
171
     0
290
     0
174
     0
 93
        1
 44
0.0
173
     0
291
     1
 45
0.0
1001
ACAD
1000
AcDbSavedByObjectVersion
1070
     0
  0
VISUALSTYLE
  5
34
102
{ACAD_REACTORS
330
2A
102
}
102
{ACAD_XDICTIONARY
360
B3
102
}
330
2A
100
AcDbVisualStyle
  2
Conceptual
 70
     9
 71
     3
 72
     2
 73
     0
 90
        0
 40
-0.6
 41
-30.0
 62
     5
 63
     7
 74
     2
 91
        2
 64
     7
 65
   257
 75
     1
175
     1
 42
40.0
 92
        8
 66
     7
 43
1.0
 76
     1
 77
     6
 78
     2
 67
     7
 79
     3
170
     0
171
     0
290
     0
174
     0
 93
        1
 44
0.0
173
     0
291
     0
 45
0.0
1001
ACAD
1000
AcDbSavedByObjectVersion
1070
     0
  0
VISUALSTYLE
  5
35
102
{ACAD_REACTORS
330
2A
102
}
102
{ACAD_XDICTIONARY
360
B5
102
}
330
2A
100
AcDbVisualStyle
  2
Dim
 70
    11
 71
     2
 72
     2
 73
     0
 90
        0
 40
-0.6
 41
-30.0
 62
     5
 63
     7
 74
     1
 91
        4
 64
     7
 65
   257
 75
     1
175
     1
 42
1.0
 92
        8
 66
     7
 43
1.0
 76
     1
 77
     6
 78
     2
 67
     7
 79
     5
170
     0
171
     0
290
     0
174
     0
 93
        1
 44
-50.0
173
     0
291
     1
 45
0.0
1001
ACAD
1000
AcDbSavedByObjectVersion
1070
     0
  0
VISUALSTYLE
  5
39
102
{ACAD_REACTORS
330
2A
102
}
102
{ACAD_XDICTIONARY
360
BD
102
}
330
2A
100
AcDbVisualStyle
  2
Facepattern
 70
    15
 71
     2
 72
     2
 73
     0
 90
        0
 40
-0.6
 41
-30.0
 62
     5
 63
     7
 74
     1
 91
        4
 64
     7
 65
   257
 75
     1
175
     1
 42
1.0
 92
        8
 66
     7
 43
1.0
 76
     1
 77
     6
 78
     2
 67
     7
 79
     5
170
     0
171
     0
290
     0
174
     0
 93
        1
 44
0.0
173
     0
291
     1
 45
0.0
1001
ACAD
1000
AcDbSavedByObjectVersion
1070
     0
  0
VISUALSTYLE
  5
2B
102
{ACAD_REACTORS
330
2A
102
}
102
{ACAD_XDICTIONARY
360
A1
102
}
330
2A
100
AcDbVisualStyle
  2
Flat
 70
     0
 71
     2
 72
     1
 73
     1
 90
        2
 40
-0.6
 41
30.0
 62
     5
 63
     7
 74
     0
 91
        4
 64
     7
 65
   257
 75
     1
175
     1
 42
1.0
 92
        8
 66
     7
 43
1.0
 76
     1
 77
     6
 78
     2
 67
     7
 79
     5
170
     0
171
     0
290
     0
174
     0
 93
       13
 44
0.0
173
     0
291
     1
 45
0.0
1001
ACAD
1000
AcDbSavedByObjectVersion
1070
     0
  0
VISUALSTYLE
  5
2C
102
{ACAD_REACTORS
330
2A
102
}
102
{ACAD_XDICTIONARY
360
A3
102
}
330
2A
100
AcDbVisualStyle
  2
FlatWithEdges
 70
     1
 71
     2
 72
     1
 73
     1
 90
        2
 40
-0.6
 41
30.0
 62
     5
 63
     7
 74
     1
 91
        4
 64
     7
 65
   257
 75
     1
175
     1
 42
1.0
 92
        0
 66
   257
 43
1.0
 76
     1
 77
     6
 78
     2
 67
     7
 79
     5
170
     0
171
     0
290
     0
174
     0
 93
       13
 44
0.0
173
     0
291
     1
 45
0.0
1001
ACAD
1000
AcDbSavedByObjectVersion
1070
     0
  0
VISUALSTYLE
  5
2D
102
{ACAD_REACTORS
330
2A
102
}
102
{ACAD_XDICTIONARY
360
A5
102
}
330
2A
100
AcDbVisualStyle
  2
Gouraud
 70
     2
 71
     2
 72
     2
 73
     1
 90
        2
 40
-0.6
 41
30.0
 62
     5
 63
     7
 74
     0
 91
        4
 64
     7
 65
   257
 75
     1
175
     1
 42
1.0
 92
        0
 66
     7
 43
1.0
 76
     1
 77
     6
 78
     2
 67
     7
 79
     5
170
     0
171
     0
290
     0
174
     0
 93
       13
 44
0.0
173
     0
291
     1
 45
0.0
1001
ACAD
1000
AcDbSavedByObjectVersion
1070
     0
  0
VISUALSTYLE
  5
2E
102
{ACAD_REACTORS
330
2A
102
}
102
{ACAD_XDICTIONARY
360
A7
102
}
330
2A
100
AcDbVisualStyle
  2
GouraudWithEdges
 70
     3
 71
     2
 72
     2
 73
     1
 90
        2
 40
-0.6
 41
30.0
 62
     5
 63
     7
 74
     1
 91
        4
 64
     7
 65
   257
 75
     1
175
     1
 42
1.0
 92
        0
 66
   257
 43
1.0
 76
     1
 77
     6
 78
     2
 67
     7
 79
     5
170
     0
171
     0
290
     0
174
     0
 93
       13
 44
0.0
173
     0
291
     1
 45
0.0
1001
ACAD
1000
AcDbSavedByObjectVersion
1070
     0
  0
VISUALSTYLE
  5
38
102
{ACAD_REACTORS
330
2A
102
}
102
{ACAD_XDICTIONARY
360
BB
102
}
330
2A
100
AcDbVisualStyle
  2
Linepattern
 70
    14
 71
     2
 72
     2
 73
     0
 90
        0
 40
-0.6
 41
-30.0
 62
     5
 63
     7
 74
     1
 91
        4
 64
     7
 65
   257
 75
     7
175
     7
 42
1.0
 92
        8
 66
     7
 43
1.0
 76
     1
 77
     6
 78
     2
 67
     7
 79
     5
170
     0
171
     0
290
     0
174
     0
 93
        1
 44
0.0
173
     0
291
     1
 45
0.0
1001
ACAD
1000
AcDbSavedByObjectVersion
1070
     0
  0
VISUALSTYLE
  5
33
102
{ACAD_REACTORS
330
2A
102
}
102
{ACAD_XDICTIONARY
360
B1
102
}
330
2A
100
AcDbVisualStyle
  2
Realistic
 70
     8
 71
     2
 72
     2
 73
     0
 90
        0
 40
-0.6
 41
-30.0
 62
     5
 63
     7
 74
     1
 91
        0
 64
     7
 65
   257
 75
     1
175
     1
 42
1.0
 92
        8
 66
     8
 43
1.0
 76
     1
 77
     6
 78
     2
 67
     7
 79
     5
170
     0
171
     0
290
     0
174
     0
 93
       13
 44
0.0
173
     0
291
     0
 45
0.0
1001
ACAD
1000
AcDbSavedByObjectVersion
1070
     0
  0
VISUALSTYLE
  5
37
102
{ACAD_REACTORS
330
2A
102
}
102
{ACAD_XDICTIONARY
360
B9
102
}
330
2A
100
AcDbVisualStyle
  2
Thicken
 70
    13
 71
     2
 72
     2
 73
     0
 90
        0
 40
-0.6
 41
-30.0
 62
     5
 63
     7
 74
     1
 91
        4
 64
     7
 65
   257
 75
     1
175
     1
 42
1.0
 92
       12
 66
     7
 43
1.0
 76
     1
 77
     6
 78
     2
 67
     7
 79
     5
170
     0
171
     0
290
     0
174
     0
 93
        1
 44
0.0
173
     0
291
     1
 45
0.0
1001
ACAD
1000
AcDbSavedByObjectVersion
1070
     0
  0
DICTIONARYVAR
  5
9F
102
{ACAD_REACTORS
330
9C
102
}
330
9C
100
DictionaryVariables
280
     0
  1
2
  0
DICTIONARYVAR
  5
A0
102
{ACAD_REACTORS
330
9C
102
}
330
9C
100
DictionaryVariables
280
     0
  1
1
  0
DICTIONARY
  5
C3
330
3D
100
AcDbDictionary
280
     1
281
     1
  3
ACAD_XREC_ROUNDTRIP
360
C4
  0
DICTIONARY
  5
C1
330
3C
100
AcDbDictionary
280
     1
281
     1
  3
ACAD_XREC_ROUNDTRIP
360
C2
  0
DICTIONARY
  5
C5
330
3E
100
AcDbDictionary
280
     1
281
     1
  3
ACAD_XREC_ROUNDTRIP
360
C6
  0
DICTIONARY
  5
A9
330
2F
100
AcDbDictionary
280
     1
281
     1
  3
ACAD_XREC_ROUNDTRIP
360
AA
  0
DICTIONARY
  5
AD
330
31
100
AcDbDictionary
280
     1
281
     1
  3
ACAD_XREC_ROUNDTRIP
360
AE
  0
DICTIONARY
  5
AB
330
30
100
AcDbDictionary
280
     1
281
     1
  3
ACAD_XREC_ROUNDTRIP
360
AC
  0
DICTIONARY
  5
AF
330
32
100
AcDbDictionary
280
     1
281
     1
  3
ACAD_XREC_ROUNDTRIP
360
B0
  0
DICTIONARY
  5
B7
330
36
100
AcDbDictionary
280
     1
281
     1
  3
ACAD_XREC_ROUNDTRIP
360
B8
  0
DICTIONARY
  5
BF
330
3A
100
AcDbDictionary
280
     1
281
     1
  3
ACAD_XREC_ROUNDTRIP
360
C0
  0
DICTIONARY
  5
B3
330
34
100
AcDbDictionary
280
     1
281
     1
  3
ACAD_XREC_ROUNDTRIP
360
B4
  0
DICTIONARY
  5
B5
330
35
100
AcDbDictionary
280
     1
281
     1
  3
ACAD_XREC_ROUNDTRIP
360
B6
  0
DICTIONARY
  5
BD
330
39
100
AcDbDictionary
280
     1
281
     1
  3
ACAD_XREC_ROUNDTRIP
360
BE
  0
DICTIONARY
  5
A1
330
2B
100
AcDbDictionary
280
     1
281
     1
  3
ACAD_XREC_ROUNDTRIP
360
A2
  0
DICTIONARY
  5
A3
330
2C
100
AcDbDictionary
280
     1
281
     1
  3
ACAD_XREC_ROUNDTRIP
360
A4
  0
DICTIONARY
  5
A5
330
2D
100
AcDbDictionary
280
     1
281
     1
  3
ACAD_XREC_ROUNDTRIP
360
A6
  0
DICTIONARY
  5
A7
330
2E
100
AcDbDictionary
280
     1
281
     1
  3
ACAD_XREC_ROUNDTRIP
360
A8
  0
DICTIONARY
  5
BB
330
38
100
AcDbDictionary
280
     1
281
     1
  3
ACAD_XREC_ROUNDTRIP
360
BC
  0
DICTIONARY
  5
B1
330
33
100
AcDbDictionary
280
     1
281
     1
  3
ACAD_XREC_ROUNDTRIP
360
B2
  0
DICTIONARY
  5
B9
330
37
100
AcDbDictionary
280
     1
281
     1
  3
ACAD_XREC_ROUNDTRIP
360
BA
  0
XRECORD
  5
C4
102
{ACAD_REACTORS
330
C3
102
}
330
C3
100
AcDbXrecord
280
     1
102
MATERIAL
148
0.0
149
0.0
149
0.0
 93
        0
 94
      127
282
     0
 72
     1
 77
     1
171
     1
175
     1
179
     1
273
     0
  0
XRECORD
  5
C2
102
{ACAD_REACTORS
330
C1
102
}
330
C1
100
AcDbXrecord
280
     1
102
MATERIAL
148
0.0
149
0.0
149
0.0
 93
        0
 94
      127
282
     0
 72
     1
 77
     1
171
     1
175
     1
179
     1
273
     0
  0
XRECORD
  5
C6
102
{ACAD_REACTORS
330
C5
102
}
330
C5
100
AcDbXrecord
280
     1
102
MATERIAL
148
0.0
149
0.0
149
0.0
 93
        0
 94
      127
282
     0
 72
     1
 77
     1
171
     1
175
     1
179
     1
273
     0
  0
XRECORD
  5
AA
102
{ACAD_REACTORS
330
A9
102
}
330
A9
100
AcDbXrecord
280
     1
102
RTVSPropertyOp0
 70
     1
102
RTVSPropertyOp1
 70
     1
102
RTVSPropertyOp2
 70
     1
102
RTVSPropertyOp3
 70
     1
102
RTVSPropertyOp4
 70
     1
102
RTVSPropertyOp5
 70
     1
102
RTVSPropertyOp6
 70
     1
102
RTVSPropertyOp7
 70
     1
102
RTVSPropertyOp8
 70
     1
102
RTVSPropertyOp9
 70
     1
102
RTVSPropertyOp10
 70
     1
102
RTVSPropertyOp11
 70
     1
102
RTVSPropertyOp12
 70
     1
102
RTVSPropertyOp13
 70
     1
102
RTVSPropertyOp14
 70
     1
102
RTVSPropertyOp15
 70
     1
102
RTVSPropertyOp16
 70
     1
102
RTVSPropertyOp17
 70
     1
102
RTVSPropertyOp18
 70
     1
102
RTVSPropertyOp19
 70
     1
102
RTVSPropertyOp20
 70
     1
102
RTVSPropertyOp21
 70
     1
102
RTVSPropertyOp22
 70
     1
102
RTVSPropertyOp23
 70
     1
102
RTVSPropertyOp24
 70
     1
102
RTVSPropertyOp25
 70
     1
102
RTVSPropertyOp26
 70
     1
102
RTVSPropertyOp27
 70
     1
  0
XRECORD
  5
AE
102
{ACAD_REACTORS
330
AD
102
}
330
AD
100
AcDbXrecord
280
     1
102
RTVSPropertyOp0
 70
     1
102
RTVSPropertyOp1
 70
     1
102
RTVSPropertyOp2
 70
     1
102
RTVSPropertyOp3
 70
     1
102
RTVSPropertyOp4
 70
     1
102
RTVSPropertyOp5
 70
     1
102
RTVSPropertyOp6
 70
     1
102
RTVSPropertyOp7
 70
     1
102
RTVSPropertyOp8
 70
     1
102
RTVSPropertyOp9
 70
     1
102
RTVSPropertyOp10
 70
     1
102
RTVSPropertyOp11
 70
     1
102
RTVSPropertyOp12
 70
     1
102
RTVSPropertyOp13
 70
     1
102
RTVSPropertyOp14
 70
     1
102
RTVSPropertyOp15
 70
     1
102
RTVSPropertyOp16
 70
     1
102
RTVSPropertyOp17
 70
     1
102
RTVSPropertyOp18
 70
     1
102
RTVSPropertyOp19
 70
     1
102
RTVSPropertyOp20
 70
     1
102
RTVSPropertyOp21
 70
     1
102
RTVSPropertyOp22
 70
     1
102
RTVSPropertyOp23
 70
     1
102
RTVSPropertyOp24
 70
     1
102
RTVSPropertyOp25
 70
     1
102
RTVSPropertyOp26
 70
     1
102
RTVSPropertyOp27
 70
     1
  0
XRECORD
  5
AC
102
{ACAD_REACTORS
330
AB
102
}
330
AB
100
AcDbXrecord
280
     1
102
RTVSPropertyOp0
 70
     1
102
RTVSPropertyOp1
 70
     1
102
RTVSPropertyOp2
 70
     1
102
RTVSPropertyOp3
 70
     1
102
RTVSPropertyOp4
 70
     1
102
RTVSPropertyOp5
 70
     1
102
RTVSPropertyOp6
 70
     1
102
RTVSPropertyOp7
 70
     1
102
RTVSPropertyOp8
 70
     1
102
RTVSPropertyOp9
 70
     1
102
RTVSPropertyOp10
 70
     1
102
RTVSPropertyOp11
 70
     1
102
RTVSPropertyOp12
 70
     1
102
RTVSPropertyOp13
 70
     1
102
RTVSPropertyOp14
 70
     1
102
RTVSPropertyOp15
 70
     1
102
RTVSPropertyOp16
 70
     1
102
RTVSPropertyOp17
 70
     1
102
RTVSPropertyOp18
 70
     1
102
RTVSPropertyOp19
 70
     1
102
RTVSPropertyOp20
 70
     1
102
RTVSPropertyOp21
 70
     1
102
RTVSPropertyOp22
 70
     1
102
RTVSPropertyOp23
 70
     1
102
RTVSPropertyOp24
 70
     1
102
RTVSPropertyOp25
 70
     1
102
RTVSPropertyOp26
 70
     1
102
RTVSPropertyOp27
 70
     1
  0
XRECORD
  5
B0
102
{ACAD_REACTORS
330
AF
102
}
330
AF
100
AcDbXrecord
280
     1
102
RTVSPropertyOp0
 70
     1
102
RTVSPropertyOp1
 70
     1
102
RTVSPropertyOp2
 70
     1
102
RTVSPropertyOp3
 70
     1
102
RTVSPropertyOp4
 70
     1
102
RTVSPropertyOp5
 70
     1
102
RTVSPropertyOp6
 70
     1
102
RTVSPropertyOp7
 70
     1
102
RTVSPropertyOp8
 70
     1
102
RTVSPropertyOp9
 70
     1
102
RTVSPropertyOp10
 70
     1
102
RTVSPropertyOp11
 70
     1
102
RTVSPropertyOp12
 70
     1
102
RTVSPropertyOp13
 70
     1
102
RTVSPropertyOp14
 70
     1
102
RTVSPropertyOp15
 70
     1
102
RTVSPropertyOp16
 70
     1
102
RTVSPropertyOp17
 70
     1
102
RTVSPropertyOp18
 70
     1
102
RTVSPropertyOp19
 70
     1
102
RTVSPropertyOp20
 70
     1
102
RTVSPropertyOp21
 70
     1
102
RTVSPropertyOp22
 70
     1
102
RTVSPropertyOp23
 70
     1
102
RTVSPropertyOp24
 70
     1
102
RTVSPropertyOp25
 70
     1
102
RTVSPropertyOp26
 70
     1
102
RTVSPropertyOp27
 70
     1
  0
XRECORD
  5
B8
102
{ACAD_REACTORS
330
B7
102
}
330
B7
100
AcDbXrecord
280
     1
102
RTVSPropertyOp0
 70
     1
102
RTVSPropertyOp1
 70
     1
102
RTVSPropertyOp2
 70
     1
102
RTVSPropertyOp3
 70
     1
102
RTVSPropertyOp4
 70
     1
102
RTVSPropertyOp5
 70
     1
102
RTVSPropertyOp6
 70
     1
102
RTVSPropertyOp7
 70
     1
102
RTVSPropertyOp8
 70
     1
102
RTVSPropertyOp9
 70
     1
102
RTVSPropertyOp10
 70
     1
102
RTVSPropertyOp11
 70
     1
102
RTVSPropertyOp12
 70
     1
102
RTVSPropertyOp13
 70
     1
102
RTVSPropertyOp14
 70
     1
102
RTVSPropertyOp15
 70
     1
102
RTVSPropertyOp16
 70
     1
102
RTVSPropertyOp17
 70
     1
102
RTVSPropertyOp18
 70
     1
102
RTVSPropertyOp19
 70
     1
102
RTVSPropertyOp20
 70
     1
102
RTVSPropertyOp21
 70
     1
102
RTVSPropertyOp22
 70
     1
102
RTVSPropertyOp23
 70
     1
102
RTVSPropertyOp24
 70
     1
102
RTVSPropertyOp25
 70
     1
102
RTVSPropertyOp26
 70
     1
102
RTVSPropertyOp27
 70
     1
  0
XRECORD
  5
C0
102
{ACAD_REACTORS
330
BF
102
}
330
BF
100
AcDbXrecord
280
     1
102
RTVSPropertyOp0
 70
     1
102
RTVSPropertyOp1
 70
     1
102
RTVSPropertyOp2
 70
     1
102
RTVSPropertyOp3
 70
     1
102
RTVSPropertyOp4
 70
     1
102
RTVSPropertyOp5
 70
     1
102
RTVSPropertyOp6
 70
     1
102
RTVSPropertyOp7
 70
     1
102
RTVSPropertyOp8
 70
     1
102
RTVSPropertyOp9
 70
     1
102
RTVSPropertyOp10
 70
     1
102
RTVSPropertyOp11
 70
     1
102
RTVSPropertyOp12
 70
     1
102
RTVSPropertyOp13
 70
     1
102
RTVSPropertyOp14
 70
     1
102
RTVSPropertyOp15
 70
     1
102
RTVSPropertyOp16
 70
     1
102
RTVSPropertyOp17
 70
     1
102
RTVSPropertyOp18
 70
     1
102
RTVSPropertyOp19
 70
     1
102
RTVSPropertyOp20
 70
     1
102
RTVSPropertyOp21
 70
     1
102
RTVSPropertyOp22
 70
     1
102
RTVSPropertyOp23
 70
     1
102
RTVSPropertyOp24
 70
     1
102
RTVSPropertyOp25
 70
     1
102
RTVSPropertyOp26
 70
     1
102
RTVSPropertyOp27
 70
     1
  0
XRECORD
  5
B4
102
{ACAD_REACTORS
330
B3
102
}
330
B3
100
AcDbXrecord
280
     1
102
RTVSPropertyOp0
 70
     1
102
RTVSPropertyOp1
 70
     1
102
RTVSPropertyOp2
 70
     1
102
RTVSPropertyOp3
 70
     1
102
RTVSPropertyOp4
 70
     1
102
RTVSPropertyOp5
 70
     1
102
RTVSPropertyOp6
 70
     1
102
RTVSPropertyOp7
 70
     1
102
RTVSPropertyOp8
 70
     1
102
RTVSPropertyOp9
 70
     1
102
RTVSPropertyOp10
 70
     1
102
RTVSPropertyOp11
 70
     1
102
RTVSPropertyOp12
 70
     1
102
RTVSPropertyOp13
 70
     1
102
RTVSPropertyOp14
 70
     1
102
RTVSPropertyOp15
 70
     1
102
RTVSPropertyOp16
 70
     1
102
RTVSPropertyOp17
 70
     1
102
RTVSPropertyOp18
 70
     1
102
RTVSPropertyOp19
 70
     1
102
RTVSPropertyOp20
 70
     1
102
RTVSPropertyOp21
 70
     1
102
RTVSPropertyOp22
 70
     1
102
RTVSPropertyOp23
 70
     1
102
RTVSPropertyOp24
 70
     1
102
RTVSPropertyOp25
 70
     1
102
RTVSPropertyOp26
 70
     1
102
RTVSPropertyOp27
 70
     1
  0
XRECORD
  5
B6
102
{ACAD_REACTORS
330
B5
102
}
330
B5
100
AcDbXrecord
280
     1
102
RTVSPropertyOp0
 70
     1
102
RTVSPropertyOp1
 70
     1
102
RTVSPropertyOp2
 70
     1
102
RTVSPropertyOp3
 70
     1
102
RTVSPropertyOp4
 70
     1
102
RTVSPropertyOp5
 70
     1
102
RTVSPropertyOp6
 70
     1
102
RTVSPropertyOp7
 70
     1
102
RTVSPropertyOp8
 70
     1
102
RTVSPropertyOp9
 70
     1
102
RTVSPropertyOp10
 70
     1
102
RTVSPropertyOp11
 70
     1
102
RTVSPropertyOp12
 70
     1
102
RTVSPropertyOp13
 70
     1
102
RTVSPropertyOp14
 70
     1
102
RTVSPropertyOp15
 70
     1
102
RTVSPropertyOp16
 70
     1
102
RTVSPropertyOp17
 70
     1
102
RTVSPropertyOp18
 70
     1
102
RTVSPropertyOp19
 70
     1
102
RTVSPropertyOp20
 70
     1
102
RTVSPropertyOp21
 70
     1
102
RTVSPropertyOp22
 70
     1
102
RTVSPropertyOp23
 70
     1
102
RTVSPropertyOp24
 70
     1
102
RTVSPropertyOp25
 70
     1
102
RTVSPropertyOp26
 70
     1
102
RTVSPropertyOp27
 70
     1
  0
XRECORD
  5
BE
102
{ACAD_REACTORS
330
BD
102
}
330
BD
100
AcDbXrecord
280
     1
102
RTVSPropertyOp0
 70
     1
102
RTVSPropertyOp1
 70
     1
102
RTVSPropertyOp2
 70
     1
102
RTVSPropertyOp3
 70
     1
102
RTVSPropertyOp4
 70
     1
102
RTVSPropertyOp5
 70
     1
102
RTVSPropertyOp6
 70
     1
102
RTVSPropertyOp7
 70
     1
102
RTVSPropertyOp8
 70
     1
102
RTVSPropertyOp9
 70
     1
102
RTVSPropertyOp10
 70
     1
102
RTVSPropertyOp11
 70
     1
102
RTVSPropertyOp12
 70
     1
102
RTVSPropertyOp13
 70
     1
102
RTVSPropertyOp14
 70
     1
102
RTVSPropertyOp15
 70
     1
102
RTVSPropertyOp16
 70
     1
102
RTVSPropertyOp17
 70
     1
102
RTVSPropertyOp18
 70
     1
102
RTVSPropertyOp19
 70
     1
102
RTVSPropertyOp20
 70
     1
102
RTVSPropertyOp21
 70
     1
102
RTVSPropertyOp22
 70
     1
102
RTVSPropertyOp23
 70
     1
102
RTVSPropertyOp24
 70
     1
102
RTVSPropertyOp25
 70
     1
102
RTVSPropertyOp26
 70
     1
102
RTVSPropertyOp27
 70
     1
  0
XRECORD
  5
A2
102
{ACAD_REACTORS
330
A1
102
}
330
A1
100
AcDbXrecord
280
     1
102
RTVSPropertyOp0
 70
     1
102
RTVSPropertyOp1
 70
     1
102
RTVSPropertyOp2
 70
     1
102
RTVSPropertyOp3
 70
     1
102
RTVSPropertyOp4
 70
     1
102
RTVSPropertyOp5
 70
     1
102
RTVSPropertyOp6
 70
     1
102
RTVSPropertyOp7
 70
     1
102
RTVSPropertyOp8
 70
     1
102
RTVSPropertyOp9
 70
     1
102
RTVSPropertyOp10
 70
     1
102
RTVSPropertyOp11
 70
     1
102
RTVSPropertyOp12
 70
     1
102
RTVSPropertyOp13
 70
     1
102
RTVSPropertyOp14
 70
     1
102
RTVSPropertyOp15
 70
     1
102
RTVSPropertyOp16
 70
     1
102
RTVSPropertyOp17
 70
     1
102
RTVSPropertyOp18
 70
     1
102
RTVSPropertyOp19
 70
     1
102
RTVSPropertyOp20
 70
     1
102
RTVSPropertyOp21
 70
     1
102
RTVSPropertyOp22
 70
     1
102
RTVSPropertyOp23
 70
     1
102
RTVSPropertyOp24
 70
     1
102
RTVSPropertyOp25
 70
     1
102
RTVSPropertyOp26
 70
     1
102
RTVSPropertyOp27
 70
     1
  0
XRECORD
  5
A4
102
{ACAD_REACTORS
330
A3
102
}
330
A3
100
AcDbXrecord
280
     1
102
RTVSPropertyOp0
 70
     1
102
RTVSPropertyOp1
 70
     1
102
RTVSPropertyOp2
 70
     1
102
RTVSPropertyOp3
 70
     1
102
RTVSPropertyOp4
 70
     1
102
RTVSPropertyOp5
 70
     1
102
RTVSPropertyOp6
 70
     1
102
RTVSPropertyOp7
 70
     1
102
RTVSPropertyOp8
 70
     1
102
RTVSPropertyOp9
 70
     1
102
RTVSPropertyOp10
 70
     1
102
RTVSPropertyOp11
 70
     1
102
RTVSPropertyOp12
 70
     1
102
RTVSPropertyOp13
 70
     1
102
RTVSPropertyOp14
 70
     1
102
RTVSPropertyOp15
 70
     1
102
RTVSPropertyOp16
 70
     1
102
RTVSPropertyOp17
 70
     1
102
RTVSPropertyOp18
 70
     1
102
RTVSPropertyOp19
 70
     1
102
RTVSPropertyOp20
 70
     1
102
RTVSPropertyOp21
 70
     1
102
RTVSPropertyOp22
 70
     1
102
RTVSPropertyOp23
 70
     1
102
RTVSPropertyOp24
 70
     1
102
RTVSPropertyOp25
 70
     1
102
RTVSPropertyOp26
 70
     1
102
RTVSPropertyOp27
 70
     1
  0
XRECORD
  5
A6
102
{ACAD_REACTORS
330
A5
102
}
330
A5
100
AcDbXrecord
280
     1
102
RTVSPropertyOp0
 70
     1
102
RTVSPropertyOp1
 70
     1
102
RTVSPropertyOp2
 70
     1
102
RTVSPropertyOp3
 70
     1
102
RTVSPropertyOp4
 70
     1
102
RTVSPropertyOp5
 70
     1
102
RTVSPropertyOp6
 70
     1
102
RTVSPropertyOp7
 70
     1
102
RTVSPropertyOp8
 70
     1
102
RTVSPropertyOp9
 70
     1
102
RTVSPropertyOp10
 70
     1
102
RTVSPropertyOp11
 70
     1
102
RTVSPropertyOp12
 70
     1
102
RTVSPropertyOp13
 70
     1
102
RTVSPropertyOp14
 70
     1
102
RTVSPropertyOp15
 70
     1
102
RTVSPropertyOp16
 70
     1
102
RTVSPropertyOp17
 70
     1
102
RTVSPropertyOp18
 70
     1
102
RTVSPropertyOp19
 70
     1
102
RTVSPropertyOp20
 70
     1
102
RTVSPropertyOp21
 70
     1
102
RTVSPropertyOp22
 70
     1
102
RTVSPropertyOp23
 70
     1
102
RTVSPropertyOp24
 70
     1
102
RTVSPropertyOp25
 70
     1
102
RTVSPropertyOp26
 70
     1
102
RTVSPropertyOp27
 70
     1
  0
XRECORD
  5
A8
102
{ACAD_REACTORS
330
A7
102
}
330
A7
100
AcDbXrecord
280
     1
102
RTVSPropertyOp0
 70
     1
102
RTVSPropertyOp1
 70
     1
102
RTVSPropertyOp2
 70
     1
102
RTVSPropertyOp3
 70
     1
102
RTVSPropertyOp4
 70
     1
102
RTVSPropertyOp5
 70
     1
102
RTVSPropertyOp6
 70
     1
102
RTVSPropertyOp7
 70
     1
102
RTVSPropertyOp8
 70
     1
102
RTVSPropertyOp9
 70
     1
102
RTVSPropertyOp10
 70
     1
102
RTVSPropertyOp11
 70
     1
102
RTVSPropertyOp12
 70
     1
102
RTVSPropertyOp13
 70
     1
102
RTVSPropertyOp14
 70
     1
102
RTVSPropertyOp15
 70
     1
102
RTVSPropertyOp16
 70
     1
102
RTVSPropertyOp17
 70
     1
102
RTVSPropertyOp18
 70
     1
102
RTVSPropertyOp19
 70
     1
102
RTVSPropertyOp20
 70
     1
102
RTVSPropertyOp21
 70
     1
102
RTVSPropertyOp22
 70
     1
102
RTVSPropertyOp23
 70
     1
102
RTVSPropertyOp24
 70
     1
102
RTVSPropertyOp25
 70
     1
102
RTVSPropertyOp26
 70
     1
102
RTVSPropertyOp27
 70
     1
  0
XRECORD
  5
BC
102
{ACAD_REACTORS
330
BB
102
}
330
BB
100
AcDbXrecord
280
     1
102
RTVSPropertyOp0
 70
     1
102
RTVSPropertyOp1
 70
     1
102
RTVSPropertyOp2
 70
     1
102
RTVSPropertyOp3
 70
     1
102
RTVSPropertyOp4
 70
     1
102
RTVSPropertyOp5
 70
     1
102
RTVSPropertyOp6
 70
     1
102
RTVSPropertyOp7
 70
     1
102
RTVSPropertyOp8
 70
     1
102
RTVSPropertyOp9
 70
     1
102
RTVSPropertyOp10
 70
     1
102
RTVSPropertyOp11
 70
     1
102
RTVSPropertyOp12
 70
     1
102
RTVSPropertyOp13
 70
     1
102
RTVSPropertyOp14
 70
     1
102
RTVSPropertyOp15
 70
     1
102
RTVSPropertyOp16
 70
     1
102
RTVSPropertyOp17
 70
     1
102
RTVSPropertyOp18
 70
     1
102
RTVSPropertyOp19
 70
     1
102
RTVSPropertyOp20
 70
     1
102
RTVSPropertyOp21
 70
     1
102
RTVSPropertyOp22
 70
     1
102
RTVSPropertyOp23
 70
     1
102
RTVSPropertyOp24
 70
     1
102
RTVSPropertyOp25
 70
     1
102
RTVSPropertyOp26
 70
     1
102
RTVSPropertyOp27
 70
     1
  0
XRECORD
  5
B2
102
{ACAD_REACTORS
330
B1
102
}
330
B1
100
AcDbXrecord
280
     1
102
RTVSPropertyOp0
 70
     1
102
RTVSPropertyOp1
 70
     1
102
RTVSPropertyOp2
 70
     1
102
RTVSPropertyOp3
 70
     1
102
RTVSPropertyOp4
 70
     1
102
RTVSPropertyOp5
 70
     1
102
RTVSPropertyOp6
 70
     1
102
RTVSPropertyOp7
 70
     1
102
RTVSPropertyOp8
 70
     1
102
RTVSPropertyOp9
 70
     1
102
RTVSPropertyOp10
 70
     1
102
RTVSPropertyOp11
 70
     1
102
RTVSPropertyOp12
 70
     1
102
RTVSPropertyOp13
 70
     1
102
RTVSPropertyOp14
 70
     1
102
RTVSPropertyOp15
 70
     1
102
RTVSPropertyOp16
 70
     1
102
RTVSPropertyOp17
 70
     1
102
RTVSPropertyOp18
 70
     1
102
RTVSPropertyOp19
 70
     1
102
RTVSPropertyOp20
 70
     1
102
RTVSPropertyOp21
 70
     1
102
RTVSPropertyOp22
 70
     1
102
RTVSPropertyOp23
 70
     1
102
RTVSPropertyOp24
 70
     1
102
RTVSPropertyOp25
 70
     1
102
RTVSPropertyOp26
 70
     1
102
RTVSPropertyOp27
 70
     1
  0
XRECORD
  5
BA
102
{ACAD_REACTORS
330
B9
102
}
330
B9
100
AcDbXrecord
280
     1
102
RTVSPropertyOp0
 70
     1
102
RTVSPropertyOp1
 70
     1
102
RTVSPropertyOp2
 70
     1
102
RTVSPropertyOp3
 70
     1
102
RTVSPropertyOp4
 70
     1
102
RTVSPropertyOp5
 70
     1
102
RTVSPropertyOp6
 70
     1
102
RTVSPropertyOp7
 70
     1
102
RTVSPropertyOp8
 70
     1
102
RTVSPropertyOp9
 70
     1
102
RTVSPropertyOp10
 70
     1
102
RTVSPropertyOp11
 70
     1
102
RTVSPropertyOp12
 70
     1
102
RTVSPropertyOp13
 70
     1
102
RTVSPropertyOp14
 70
     1
102
RTVSPropertyOp15
 70
     1
102
RTVSPropertyOp16
 70
     1
102
RTVSPropertyOp17
 70
     1
102
RTVSPropertyOp18
 70
     1
102
RTVSPropertyOp19
 70
     1
102
RTVSPropertyOp20
 70
     1
102
RTVSPropertyOp21
 70
     1
102
RTVSPropertyOp22
 70
     1
102
RTVSPropertyOp23
 70
     1
102
RTVSPropertyOp24
 70
     1
102
RTVSPropertyOp25
 70
     1
102
RTVSPropertyOp26
 70
     1
102
RTVSPropertyOp27
 70
     1
  0
ENDSEC
  0
EOF
