  0
SECTION
  2
HEADER
  9
$ACADVER
  1
AC1014
  9
$ACADMAINTVER
 70
     9
  9
$DWGCODEPAGE
  3
ANSI_1250
  9
$INSBASE
 10
0.0
 20
0.0
 30
0.0
  9
$EXTMIN
 10
-41.2625
 20
-31.4462
 30
0.0
  9
$EXTMAX
 10
41.4999
 20
31.4462
 30
0.0
  9
$LIMMIN
 10
0.0
 20
0.0
  9
$LIMMAX
 10
12.0
 20
9.0
  9
$ORTHOMODE
 70
     0
  9
$REGENMODE
 70
     1
  9
$FILLMODE
 70
     1
  9
$QTEXTMODE
 70
     0
  9
$MIRRTEXT
 70
     1
  9
$DRAGMODE
 70
     2
  9
$LTSCALE
 40
1.0
  9
$OSMODE
 70
    37
  9
$ATTMODE
 70
     1
  9
$TEXTSIZE
 40
0.2
  9
$TRACEWID
 40
0.05
  9
$TEXTSTYLE
  7
STANDARD
  9
$CLAYER
  8
0
  9
$CELTYPE
  6
BYLAYER
  9
$CECOLOR
 62
   256
  9
$CELTSCALE
 40
1.0
  9
$DELOBJ
 70
     1
  9
$DISPSILH
 70
     0
  9
$DIMSCALE
 40
1.0
  9
$DIMASZ
 40
0.18
  9
$DIMEXO
 40
0.0625
  9
$DIMDLI
 40
0.38
  9
$DIMRND
 40
0.0
  9
$DIMDLE
 40
0.0
  9
$DIMEXE
 40
0.18
  9
$DIMTP
 40
0.0
  9
$DIMTM
 40
0.0
  9
$DIMTXT
 40
0.18
  9
$DIMCEN
 40
0.09
  9
$DIMTSZ
 40
0.0
  9
$DIMTOL
 70
     0
  9
$DIMLIM
 70
     0
  9
$DIMTIH
 70
     1
  9
$DIMTOH
 70
     1
  9
$DIMSE1
 70
     0
  9
$DIMSE2
 70
     0
  9
$DIMTAD
 70
     0
  9
$DIMZIN
 70
     0
  9
$DIMBLK
  1

  9
$DIMASO
 70
     1
  9
$DIMSHO
 70
     1
  9
$DIMPOST
  1

  9
$DIMAPOST
  1

  9
$DIMALT
 70
     0
  9
$DIMALTD
 70
     2
  9
$DIMALTF
 40
25.4
  9
$DIMLFAC
 40
1.0
  9
$DIMTOFL
 70
     0
  9
$DIMTVP
 40
0.0
  9
$DIMTIX
 70
     0
  9
$DIMSOXD
 70
     0
  9
$DIMSAH
 70
     0
  9
$DIMBLK1
  1

  9
$DIMBLK2
  1

  9
$DIMSTYLE
  2
STANDARD
  9
$DIMCLRD
 70
     0
  9
$DIMCLRE
 70
     0
  9
$DIMCLRT
 70
     0
  9
$DIMTFAC
 40
1.0
  9
$DIMGAP
 40
0.09
  9
$DIMJUST
 70
     0
  9
$DIMSD1
 70
     0
  9
$DIMSD2
 70
     0
  9
$DIMTOLJ
 70
     1
  9
$DIMTZIN
 70
     0
  9
$DIMALTZ
 70
     0
  9
$DIMALTTZ
 70
     0
  9
$DIMFIT
 70
     3
  9
$DIMUPT
 70
     0
  9
$DIMUNIT
 70
     2
  9
$DIMDEC
 70
     4
  9
$DIMTDEC
 70
     4
  9
$DIMALTU
 70
     2
  9
$DIMALTTD
 70
     2
  9
$DIMTXSTY
  7
STANDARD
  9
$DIMAUNIT
 70
     0
  9
$LUNITS
 70
     2
  9
$LUPREC
 70
     4
  9
$SKETCHINC
 40
0.1
  9
$FILLETRAD
 40
0.5
  9
$AUNITS
 70
     0
  9
$AUPREC
 70
     0
  9
$MENU
  1
.
  9
$ELEVATION
 40
0.0
  9
$PELEVATION
 40
0.0
  9
$THICKNESS
 40
0.0
  9
$LIMCHECK
 70
     0
  9
$CHAMFERA
 40
0.5
  9
$CHAMFERB
 40
0.5
  9
$CHAMFERC
 40
1.0
  9
$CHAMFERD
 40
0.0
  9
$SKPOLY
 70
     0
  9
$TDCREATE
 40
2456223.27325463
  9
$TDUPDATE
 40
2456223.273254641
  9
$TDINDWG
 40
0.0000000116
  9
$TDUSRTIMER
 40
0.0000000116
  9
$USRTIMER
 70
     1
  9
$ANGBASE
 50
0.0
  9
$ANGDIR
 70
     0
  9
$PDMODE
 70
     0
  9
$PDSIZE
 40
0.0
  9
$PLINEWID
 40
0.0
  9
$COORDS
 70
     1
  9
$SPLFRAME
 70
     0
  9
$SPLINETYPE
 70
     6
  9
$SPLINESEGS
 70
     8
  9
$ATTDIA
 70
     0
  9
$ATTREQ
 70
     1
  9
$HANDLING
 70
     1
  9
$HANDSEED
  5
180
  9
$SURFTAB1
 70
     6
  9
$SURFTAB2
 70
     6
  9
$SURFTYPE
 70
     6
  9
$SURFU
 70
     6
  9
$SURFV
 70
     6
  9
$UCSNAME
  2

  9
$UCSORG
 10
0.0
 20
0.0
 30
0.0
  9
$UCSXDIR
 10
1.0
 20
0.0
 30
0.0
  9
$UCSYDIR
 10
0.0
 20
1.0
 30
0.0
  9
$PUCSNAME
  2

  9
$PUCSORG
 10
0.0
 20
0.0
 30
0.0
  9
$PUCSXDIR
 10
1.0
 20
0.0
 30
0.0
  9
$PUCSYDIR
 10
0.0
 20
1.0
 30
0.0
  9
$USERI1
 70
     0
  9
$USERI2
 70
     0
  9
$USERI3
 70
     0
  9
$USERI4
 70
     0
  9
$USERI5
 70
     0
  9
$USERR1
 40
0.0
  9
$USERR2
 40
0.0
  9
$USERR3
 40
0.0
  9
$USERR4
 40
0.0
  9
$USERR5
 40
0.0
  9
$WORLDVIEW
 70
     1
  9
$SHADEDGE
 70
     3
  9
$SHADEDIF
 70
    70
  9
$TILEMODE
 70
     1
  9
$MAXACTVP
 70
    64
  9
$PINSBASE
 10
0.0
 20
0.0
 30
0.0
  9
$PLIMCHECK
 70
     0
  9
$PEXTMIN
 10
1.000000000000000E+20
 20
1.000000000000000E+20
 30
1.000000000000000E+20
  9
$PEXTMAX
 10
-1.000000000000000E+20
 20
-1.000000000000000E+20
 30
-1.000000000000000E+20
  9
$PLIMMIN
 10
0.0
 20
0.0
  9
$PLIMMAX
 10
12.0
 20
9.0
  9
$UNITMODE
 70
     0
  9
$VISRETAIN
 70
     1
  9
$PLINEGEN
 70
     0
  9
$PSLTSCALE
 70
     1
  9
$TREEDEPTH
 70
  3020
  9
$PICKSTYLE
 70
     1
  9
$CMLSTYLE
  2
STANDARD
  9
$CMLJUST
 70
     0
  9
$CMLSCALE
 40
1.0
  9
$PROXYGRAPHICS
 70
     1
  9
$MEASUREMENT
 70
     0
  0
ENDSEC
  0
SECTION
  2
CLASSES
  0
CLASS
  1
ACDBDICTIONARYWDFLT
  2
AcDbDictionaryWithDefault
  3
ObjectDBX Classes
 90
        0
280
     0
281
     0
  0
CLASS
  1
VISUALSTYLE
  2
AcDbVisualStyle
  3
ObjectDBX Classes
 90
     4095
280
     0
281
     0
  0
CLASS
  1
MATERIAL
  2
AcDbMaterial
  3
ObjectDBX Classes
 90
     1153
280
     0
281
     0
  0
CLASS
  1
DICTIONARYVAR
  2
AcDbDictionaryVar
  3
ObjectDBX Classes
 90
        0
280
     0
281
     0
  0
CLASS
  1
XRECORD
  2
AcDbXrecord
  3
AutoCAD 2000
 90
        0
280
     0
281
     0
  0
CLASS
  1
LWPOLYLINE
  2
AcDbPolyline
  3
AutoCAD 2000
 90
        0
280
     0
281
     1
  0
CLASS
  1
HATCH
  2
AcDbHatch
  3
AutoCAD 2000
 90
        0
280
     0
281
     1
  0
CLASS
  1
ACDBPLACEHOLDER
  2
AcDbPlaceHolder
  3
ObjectDBX Classes
 90
        0
280
     0
281
     0
  0
CLASS
  1
LAYOUT
  2
AcDbLayout
  3
ObjectDBX Classes
 90
        0
280
     0
281
     0
  0
ENDSEC
  0
SECTION
  2
TABLES
  0
TABLE
  2
VPORT
  5
8
330
0
100
AcDbSymbolTable
 70
     1
  0
VPORT
  5
29
330
8
100
AcDbSymbolTableRecord
100
AcDbViewportTableRecord
  2
*ACTIVE
 70
     0
 10
0.0
 20
0.0
 11
1.0
 21
1.0
 12
10.42990654205607
 22
4.5
 13
0.0
 23
0.0
 14
0.5
 24
0.5
 15
0.5
 25
0.5
 16
0.0
 26
0.0
 36
1.0
 17
0.0
 27
0.0
 37
0.0
 40
9.0
 41
1.972972972850329
 42
50.0
 43
0.0
 44
0.0
 50
0.0
 51
0.0
 71
     0
 72
   100
 73
     1
 74
     3
 75
     0
 76
     0
 77
     0
 78
     0
  0
ENDTAB
  0
TABLE
  2
LTYPE
  5
5
330
0
100
AcDbSymbolTable
 70
    90
  0
LTYPE
  5
14
330
5
100
AcDbSymbolTableRecord
100
AcDbLinetypeTableRecord
  2
BYBLOCK
 70
     0
  3

 72
    65
 73
     0
 40
0.0
  0
LTYPE
  5
15
330
5
100
AcDbSymbolTableRecord
100
AcDbLinetypeTableRecord
  2
BYLAYER
 70
     0
  3

 72
    65
 73
     0
 40
0.0
  0
LTYPE
  5
16
330
5
100
AcDbSymbolTableRecord
100
AcDbLinetypeTableRecord
  2
CONTINUOUS
 70
     0
  3
Solid line
 72
    65
 73
     0
 40
0.0
  0
LTYPE
  5
5A
330
5
100
AcDbSymbolTableRecord
100
AcDbLinetypeTableRecord
  2
NEW_LINE1
 70
     0
  3

 72
    65
 73
     2
 40
0.8
 49
0.5
 74
     4
 75
     0
340
0
 46
1.0
 50
0.0
 44
0.0
 45
0.0
 49
-0.3
 74
     4
 75
     0
340
0
 46
1.0
 50
0.0
 44
0.0
 45
0.0
  0
LTYPE
  5
5C
330
5
100
AcDbSymbolTableRecord
100
AcDbLinetypeTableRecord
  2
NEW_LINE2
 70
     0
  3

 72
    65
 73
     2
 40
0.8
 49
0.5
 74
     4
 75
     0
340
0
 46
1.0
 50
0.0
 44
0.0
 45
0.0
 49
-0.3
 74
     4
 75
     0
340
0
 46
1.0
 50
0.0
 44
0.0
 45
0.0
  0
LTYPE
  5
5E
330
5
100
AcDbSymbolTableRecord
100
AcDbLinetypeTableRecord
  2
NEW_LINE3
 70
     0
  3

 72
    65
 73
     2
 40
0.8
 49
0.5
 74
     4
 75
     0
340
0
 46
1.0
 50
0.0
 44
0.0
 45
0.0
 49
-0.3
 74
     4
 75
     0
340
0
 46
1.0
 50
0.0
 44
0.0
 45
0.0
  0
LTYPE
  5
60
330
5
100
AcDbSymbolTableRecord
100
AcDbLinetypeTableRecord
  2
NEW_LINE4
 70
     0
  3

 72
    65
 73
     2
 40
0.8
 49
0.5
 74
     4
 75
     0
340
0
 46
1.0
 50
0.0
 44
0.0
 45
0.0
 49
-0.3
 74
     4
 75
     0
340
0
 46
1.0
 50
0.0
 44
0.0
 45
0.0
  0
LTYPE
  5
62
330
5
100
AcDbSymbolTableRecord
100
AcDbLinetypeTableRecord
  2
NEW_LINE5
 70
     0
  3

 72
    65
 73
     2
 40
0.8
 49
0.5
 74
     4
 75
     0
340
0
 46
1.0
 50
0.0
 44
0.0
 45
0.0
 49
-0.3
 74
     4
 75
     0
340
0
 46
1.0
 50
0.0
 44
0.0
 45
0.0
  0
LTYPE
  5
64
330
5
100
AcDbSymbolTableRecord
100
AcDbLinetypeTableRecord
  2
NEW_LINE6
 70
     0
  3

 72
    65
 73
     2
 40
0.8
 49
0.5
 74
     4
 75
     0
340
0
 46
1.0
 50
0.0
 44
0.0
 45
0.0
 49
-0.3
 74
     4
 75
     0
340
0
 46
1.0
 50
0.0
 44
0.0
 45
0.0
  0
LTYPE
  5
66
330
5
100
AcDbSymbolTableRecord
100
AcDbLinetypeTableRecord
  2
NEW_LINE7
 70
     0
  3

 72
    65
 73
     2
 40
0.8
 49
0.5
 74
     4
 75
     0
340
0
 46
1.0
 50
0.0
 44
0.0
 45
0.0
 49
-0.3
 74
     4
 75
     0
340
0
 46
1.0
 50
0.0
 44
0.0
 45
0.0
  0
LTYPE
  5
68
330
5
100
AcDbSymbolTableRecord
100
AcDbLinetypeTableRecord
  2
NEW_LINE8
 70
     0
  3

 72
    65
 73
     2
 40
0.8
 49
0.5
 74
     4
 75
     0
340
0
 46
1.0
 50
0.0
 44
0.0
 45
0.0
 49
-0.3
 74
     4
 75
     0
340
0
 46
1.0
 50
0.0
 44
0.0
 45
0.0
  0
LTYPE
  5
6A
330
5
100
AcDbSymbolTableRecord
100
AcDbLinetypeTableRecord
  2
NEW_LINE9
 70
     0
  3

 72
    65
 73
     2
 40
0.8
 49
0.5
 74
     4
 75
     0
340
0
 46
1.0
 50
0.0
 44
0.0
 45
0.0
 49
-0.3
 74
     4
 75
     0
340
0
 46
1.0
 50
0.0
 44
0.0
 45
0.0
  0
LTYPE
  5
6C
330
5
100
AcDbSymbolTableRecord
100
AcDbLinetypeTableRecord
  2
NEW_LINE10
 70
     0
  3

 72
    65
 73
     2
 40
0.8
 49
0.5
 74
     4
 75
     0
340
0
 46
1.0
 50
0.0
 44
0.0
 45
0.0
 49
-0.3
 74
     4
 75
     0
340
0
 46
1.0
 50
0.0
 44
0.0
 45
0.0
  0
LTYPE
  5
6E
330
5
100
AcDbSymbolTableRecord
100
AcDbLinetypeTableRecord
  2
NEW_LINE11
 70
     0
  3

 72
    65
 73
     2
 40
0.8
 49
0.5
 74
     4
 75
     0
340
0
 46
1.0
 50
0.0
 44
0.0
 45
0.0
 49
-0.3
 74
     4
 75
     0
340
0
 46
1.0
 50
0.0
 44
0.0
 45
0.0
  0
LTYPE
  5
70
330
5
100
AcDbSymbolTableRecord
100
AcDbLinetypeTableRecord
  2
NEW_LINE12
 70
     0
  3

 72
    65
 73
     2
 40
0.8
 49
0.5
 74
     4
 75
     0
340
0
 46
1.0
 50
0.0
 44
0.0
 45
0.0
 49
-0.3
 74
     4
 75
     0
340
0
 46
1.0
 50
0.0
 44
0.0
 45
0.0
  0
LTYPE
  5
72
330
5
100
AcDbSymbolTableRecord
100
AcDbLinetypeTableRecord
  2
NEW_LINE13
 70
     0
  3

 72
    65
 73
     2
 40
0.8
 49
0.5
 74
     4
 75
     0
340
0
 46
1.0
 50
0.0
 44
0.0
 45
0.0
 49
-0.3
 74
     4
 75
     0
340
0
 46
1.0
 50
0.0
 44
0.0
 45
0.0
  0
LTYPE
  5
74
330
5
100
AcDbSymbolTableRecord
100
AcDbLinetypeTableRecord
  2
NEW_LINE14
 70
     0
  3

 72
    65
 73
     2
 40
0.8
 49
0.5
 74
     4
 75
     0
340
0
 46
1.0
 50
0.0
 44
0.0
 45
0.0
 49
-0.3
 74
     4
 75
     0
340
0
 46
1.0
 50
0.0
 44
0.0
 45
0.0
  0
LTYPE
  5
76
330
5
100
AcDbSymbolTableRecord
100
AcDbLinetypeTableRecord
  2
NEW_LINE15
 70
     0
  3

 72
    65
 73
     2
 40
0.8
 49
0.5
 74
     4
 75
     0
340
0
 46
1.0
 50
0.0
 44
0.0
 45
0.0
 49
-0.3
 74
     4
 75
     0
340
0
 46
1.0
 50
0.0
 44
0.0
 45
0.0
  0
LTYPE
  5
78
330
5
100
AcDbSymbolTableRecord
100
AcDbLinetypeTableRecord
  2
NEW_LINE16
 70
     0
  3

 72
    65
 73
     2
 40
0.8
 49
0.5
 74
     4
 75
     0
340
0
 46
1.0
 50
0.0
 44
0.0
 45
0.0
 49
-0.3
 74
     4
 75
     0
340
0
 46
1.0
 50
0.0
 44
0.0
 45
0.0
  0
LTYPE
  5
7A
330
5
100
AcDbSymbolTableRecord
100
AcDbLinetypeTableRecord
  2
NEW_LINE17
 70
     0
  3

 72
    65
 73
     2
 40
0.8
 49
0.5
 74
     4
 75
     0
340
0
 46
1.0
 50
0.0
 44
0.0
 45
0.0
 49
-0.3
 74
     4
 75
     0
340
0
 46
1.0
 50
0.0
 44
0.0
 45
0.0
  0
LTYPE
  5
7C
330
5
100
AcDbSymbolTableRecord
100
AcDbLinetypeTableRecord
  2
NEW_LINE18
 70
     0
  3

 72
    65
 73
     2
 40
0.8
 49
0.5
 74
     4
 75
     0
340
0
 46
1.0
 50
0.0
 44
0.0
 45
0.0
 49
-0.3
 74
     4
 75
     0
340
0
 46
1.0
 50
0.0
 44
0.0
 45
0.0
  0
LTYPE
  5
7E
330
5
100
AcDbSymbolTableRecord
100
AcDbLinetypeTableRecord
  2
NEW_LINE19
 70
     0
  3

 72
    65
 73
     2
 40
0.8
 49
0.5
 74
     4
 75
     0
340
0
 46
1.0
 50
0.0
 44
0.0
 45
0.0
 49
-0.3
 74
     4
 75
     0
340
0
 46
1.0
 50
0.0
 44
0.0
 45
0.0
  0
LTYPE
  5
80
330
5
100
AcDbSymbolTableRecord
100
AcDbLinetypeTableRecord
  2
NEW_LINE20
 70
     0
  3

 72
    65
 73
     2
 40
0.8
 49
0.5
 74
     4
 75
     0
340
0
 46
1.0
 50
0.0
 44
0.0
 45
0.0
 49
-0.3
 74
     4
 75
     0
340
0
 46
1.0
 50
0.0
 44
0.0
 45
0.0
  0
LTYPE
  5
82
330
5
100
AcDbSymbolTableRecord
100
AcDbLinetypeTableRecord
  2
NEW_LINE21
 70
     0
  3

 72
    65
 73
     2
 40
0.8
 49
0.5
 74
     4
 75
     0
340
0
 46
1.0
 50
0.0
 44
0.0
 45
0.0
 49
-0.3
 74
     4
 75
     0
340
0
 46
1.0
 50
0.0
 44
0.0
 45
0.0
  0
LTYPE
  5
84
330
5
100
AcDbSymbolTableRecord
100
AcDbLinetypeTableRecord
  2
NEW_LINE22
 70
     0
  3

 72
    65
 73
     2
 40
0.8
 49
0.5
 74
     4
 75
     0
340
0
 46
1.0
 50
0.0
 44
0.0
 45
0.0
 49
-0.3
 74
     4
 75
     0
340
0
 46
1.0
 50
0.0
 44
0.0
 45
0.0
  0
LTYPE
  5
86
330
5
100
AcDbSymbolTableRecord
100
AcDbLinetypeTableRecord
  2
NEW_LINE23
 70
     0
  3

 72
    65
 73
     2
 40
0.8
 49
0.5
 74
     4
 75
     0
340
0
 46
1.0
 50
0.0
 44
0.0
 45
0.0
 49
-0.3
 74
     4
 75
     0
340
0
 46
1.0
 50
0.0
 44
0.0
 45
0.0
  0
LTYPE
  5
88
330
5
100
AcDbSymbolTableRecord
100
AcDbLinetypeTableRecord
  2
NEW_LINE24
 70
     0
  3

 72
    65
 73
     2
 40
0.8
 49
0.5
 74
     4
 75
     0
340
0
 46
1.0
 50
0.0
 44
0.0
 45
0.0
 49
-0.3
 74
     4
 75
     0
340
0
 46
1.0
 50
0.0
 44
0.0
 45
0.0
  0
LTYPE
  5
8A
330
5
100
AcDbSymbolTableRecord
100
AcDbLinetypeTableRecord
  2
NEW_LINE25
 70
     0
  3

 72
    65
 73
     2
 40
0.8
 49
0.5
 74
     4
 75
     0
340
0
 46
1.0
 50
0.0
 44
0.0
 45
0.0
 49
-0.3
 74
     4
 75
     0
340
0
 46
1.0
 50
0.0
 44
0.0
 45
0.0
  0
LTYPE
  5
8C
330
5
100
AcDbSymbolTableRecord
100
AcDbLinetypeTableRecord
  2
NEW_LINE26
 70
     0
  3

 72
    65
 73
     2
 40
0.8
 49
0.5
 74
     4
 75
     0
340
0
 46
1.0
 50
0.0
 44
0.0
 45
0.0
 49
-0.3
 74
     4
 75
     0
340
0
 46
1.0
 50
0.0
 44
0.0
 45
0.0
  0
LTYPE
  5
8E
330
5
100
AcDbSymbolTableRecord
100
AcDbLinetypeTableRecord
  2
NEW_LINE27
 70
     0
  3

 72
    65
 73
     2
 40
0.8
 49
0.5
 74
     4
 75
     0
340
0
 46
1.0
 50
0.0
 44
0.0
 45
0.0
 49
-0.3
 74
     4
 75
     0
340
0
 46
1.0
 50
0.0
 44
0.0
 45
0.0
  0
LTYPE
  5
90
330
5
100
AcDbSymbolTableRecord
100
AcDbLinetypeTableRecord
  2
NEW_LINE28
 70
     0
  3

 72
    65
 73
     2
 40
0.8
 49
0.5
 74
     4
 75
     0
340
0
 46
1.0
 50
0.0
 44
0.0
 45
0.0
 49
-0.3
 74
     4
 75
     0
340
0
 46
1.0
 50
0.0
 44
0.0
 45
0.0
  0
LTYPE
  5
92
330
5
100
AcDbSymbolTableRecord
100
AcDbLinetypeTableRecord
  2
NEW_LINE29
 70
     0
  3

 72
    65
 73
     2
 40
0.8
 49
0.5
 74
     4
 75
     0
340
0
 46
1.0
 50
0.0
 44
0.0
 45
0.0
 49
-0.3
 74
     4
 75
     0
340
0
 46
1.0
 50
0.0
 44
0.0
 45
0.0
  0
LTYPE
  5
94
330
5
100
AcDbSymbolTableRecord
100
AcDbLinetypeTableRecord
  2
NEW_LINE30
 70
     0
  3

 72
    65
 73
     2
 40
0.8
 49
0.5
 74
     4
 75
     0
340
0
 46
1.0
 50
0.0
 44
0.0
 45
0.0
 49
-0.3
 74
     4
 75
     0
340
0
 46
1.0
 50
0.0
 44
0.0
 45
0.0
  0
LTYPE
  5
96
330
5
100
AcDbSymbolTableRecord
100
AcDbLinetypeTableRecord
  2
NEW_LINE31
 70
     0
  3

 72
    65
 73
     2
 40
0.8
 49
0.5
 74
     4
 75
     0
340
0
 46
1.0
 50
0.0
 44
0.0
 45
0.0
 49
-0.3
 74
     4
 75
     0
340
0
 46
1.0
 50
0.0
 44
0.0
 45
0.0
  0
LTYPE
  5
98
330
5
100
AcDbSymbolTableRecord
100
AcDbLinetypeTableRecord
  2
NEW_LINE32
 70
     0
  3

 72
    65
 73
     2
 40
0.8
 49
0.5
 74
     4
 75
     0
340
0
 46
1.0
 50
0.0
 44
0.0
 45
0.0
 49
-0.3
 74
     4
 75
     0
340
0
 46
1.0
 50
0.0
 44
0.0
 45
0.0
  0
LTYPE
  5
9A
330
5
100
AcDbSymbolTableRecord
100
AcDbLinetypeTableRecord
  2
NEW_LINE33
 70
     0
  3

 72
    65
 73
     2
 40
0.8
 49
0.5
 74
     4
 75
     0
340
0
 46
1.0
 50
0.0
 44
0.0
 45
0.0
 49
-0.3
 74
     4
 75
     0
340
0
 46
1.0
 50
0.0
 44
0.0
 45
0.0
  0
LTYPE
  5
9C
330
5
100
AcDbSymbolTableRecord
100
AcDbLinetypeTableRecord
  2
NEW_LINE34
 70
     0
  3

 72
    65
 73
     2
 40
0.8
 49
0.5
 74
     4
 75
     0
340
0
 46
1.0
 50
0.0
 44
0.0
 45
0.0
 49
-0.3
 74
     4
 75
     0
340
0
 46
1.0
 50
0.0
 44
0.0
 45
0.0
  0
LTYPE
  5
9E
330
5
100
AcDbSymbolTableRecord
100
AcDbLinetypeTableRecord
  2
NEW_LINE35
 70
     0
  3

 72
    65
 73
     2
 40
0.8
 49
0.5
 74
     4
 75
     0
340
0
 46
1.0
 50
0.0
 44
0.0
 45
0.0
 49
-0.3
 74
     4
 75
     0
340
0
 46
1.0
 50
0.0
 44
0.0
 45
0.0
  0
LTYPE
  5
A0
330
5
100
AcDbSymbolTableRecord
100
AcDbLinetypeTableRecord
  2
NEW_LINE36
 70
     0
  3

 72
    65
 73
     2
 40
0.8
 49
0.5
 74
     4
 75
     0
340
0
 46
1.0
 50
0.0
 44
0.0
 45
0.0
 49
-0.3
 74
     4
 75
     0
340
0
 46
1.0
 50
0.0
 44
0.0
 45
0.0
  0
LTYPE
  5
A2
330
5
100
AcDbSymbolTableRecord
100
AcDbLinetypeTableRecord
  2
NEW_LINE37
 70
     0
  3

 72
    65
 73
     2
 40
0.8
 49
0.5
 74
     4
 75
     0
340
0
 46
1.0
 50
0.0
 44
0.0
 45
0.0
 49
-0.3
 74
     4
 75
     0
340
0
 46
1.0
 50
0.0
 44
0.0
 45
0.0
  0
LTYPE
  5
A4
330
5
100
AcDbSymbolTableRecord
100
AcDbLinetypeTableRecord
  2
NEW_LINE38
 70
     0
  3

 72
    65
 73
     2
 40
0.8
 49
0.5
 74
     4
 75
     0
340
0
 46
1.0
 50
0.0
 44
0.0
 45
0.0
 49
-0.3
 74
     4
 75
     0
340
0
 46
1.0
 50
0.0
 44
0.0
 45
0.0
  0
LTYPE
  5
A6
330
5
100
AcDbSymbolTableRecord
100
AcDbLinetypeTableRecord
  2
NEW_LINE39
 70
     0
  3

 72
    65
 73
     2
 40
0.8
 49
0.5
 74
     4
 75
     0
340
0
 46
1.0
 50
0.0
 44
0.0
 45
0.0
 49
-0.3
 74
     4
 75
     0
340
0
 46
1.0
 50
0.0
 44
0.0
 45
0.0
  0
LTYPE
  5
A8
330
5
100
AcDbSymbolTableRecord
100
AcDbLinetypeTableRecord
  2
NEW_LINE40
 70
     0
  3

 72
    65
 73
     2
 40
0.8
 49
0.5
 74
     4
 75
     0
340
0
 46
1.0
 50
0.0
 44
0.0
 45
0.0
 49
-0.3
 74
     4
 75
     0
340
0
 46
1.0
 50
0.0
 44
0.0
 45
0.0
  0
LTYPE
  5
AA
330
5
100
AcDbSymbolTableRecord
100
AcDbLinetypeTableRecord
  2
NEW_LINE41
 70
     0
  3

 72
    65
 73
     2
 40
0.8
 49
0.5
 74
     4
 75
     0
340
0
 46
1.0
 50
0.0
 44
0.0
 45
0.0
 49
-0.3
 74
     4
 75
     0
340
0
 46
1.0
 50
0.0
 44
0.0
 45
0.0
  0
LTYPE
  5
AC
330
5
100
AcDbSymbolTableRecord
100
AcDbLinetypeTableRecord
  2
NEW_LINE42
 70
     0
  3

 72
    65
 73
     2
 40
0.8
 49
0.5
 74
     4
 75
     0
340
0
 46
1.0
 50
0.0
 44
0.0
 45
0.0
 49
-0.3
 74
     4
 75
     0
340
0
 46
1.0
 50
0.0
 44
0.0
 45
0.0
  0
LTYPE
  5
AE
330
5
100
AcDbSymbolTableRecord
100
AcDbLinetypeTableRecord
  2
NEW_LINE43
 70
     0
  3

 72
    65
 73
     2
 40
0.8
 49
0.5
 74
     4
 75
     0
340
0
 46
1.0
 50
0.0
 44
0.0
 45
0.0
 49
-0.3
 74
     4
 75
     0
340
0
 46
1.0
 50
0.0
 44
0.0
 45
0.0
  0
LTYPE
  5
B0
330
5
100
AcDbSymbolTableRecord
100
AcDbLinetypeTableRecord
  2
NEW_LINE44
 70
     0
  3

 72
    65
 73
     2
 40
0.8
 49
0.5
 74
     4
 75
     0
340
0
 46
1.0
 50
0.0
 44
0.0
 45
0.0
 49
-0.3
 74
     4
 75
     0
340
0
 46
1.0
 50
0.0
 44
0.0
 45
0.0
  0
LTYPE
  5
B2
330
5
100
AcDbSymbolTableRecord
100
AcDbLinetypeTableRecord
  2
NEW_LINE45
 70
     0
  3

 72
    65
 73
     2
 40
0.8
 49
0.5
 74
     4
 75
     0
340
0
 46
1.0
 50
0.0
 44
0.0
 45
0.0
 49
-0.3
 74
     4
 75
     0
340
0
 46
1.0
 50
0.0
 44
0.0
 45
0.0
  0
LTYPE
  5
B4
330
5
100
AcDbSymbolTableRecord
100
AcDbLinetypeTableRecord
  2
NEW_LINE46
 70
     0
  3

 72
    65
 73
     2
 40
0.8
 49
0.5
 74
     4
 75
     0
340
0
 46
1.0
 50
0.0
 44
0.0
 45
0.0
 49
-0.3
 74
     4
 75
     0
340
0
 46
1.0
 50
0.0
 44
0.0
 45
0.0
  0
LTYPE
  5
B6
330
5
100
AcDbSymbolTableRecord
100
AcDbLinetypeTableRecord
  2
NEW_LINE47
 70
     0
  3

 72
    65
 73
     2
 40
0.8
 49
0.5
 74
     4
 75
     0
340
0
 46
1.0
 50
0.0
 44
0.0
 45
0.0
 49
-0.3
 74
     4
 75
     0
340
0
 46
1.0
 50
0.0
 44
0.0
 45
0.0
  0
LTYPE
  5
B8
330
5
100
AcDbSymbolTableRecord
100
AcDbLinetypeTableRecord
  2
NEW_LINE48
 70
     0
  3

 72
    65
 73
     2
 40
0.8
 49
0.5
 74
     4
 75
     0
340
0
 46
1.0
 50
0.0
 44
0.0
 45
0.0
 49
-0.3
 74
     4
 75
     0
340
0
 46
1.0
 50
0.0
 44
0.0
 45
0.0
  0
LTYPE
  5
BA
330
5
100
AcDbSymbolTableRecord
100
AcDbLinetypeTableRecord
  2
NEW_LINE49
 70
     0
  3

 72
    65
 73
     2
 40
0.8
 49
0.5
 74
     4
 75
     0
340
0
 46
1.0
 50
0.0
 44
0.0
 45
0.0
 49
-0.3
 74
     4
 75
     0
340
0
 46
1.0
 50
0.0
 44
0.0
 45
0.0
  0
LTYPE
  5
BC
330
5
100
AcDbSymbolTableRecord
100
AcDbLinetypeTableRecord
  2
NEW_LINE50
 70
     0
  3

 72
    65
 73
     2
 40
0.8
 49
0.5
 74
     4
 75
     0
340
0
 46
1.0
 50
0.0
 44
0.0
 45
0.0
 49
-0.3
 74
     4
 75
     0
340
0
 46
1.0
 50
0.0
 44
0.0
 45
0.0
  0
LTYPE
  5
BE
330
5
100
AcDbSymbolTableRecord
100
AcDbLinetypeTableRecord
  2
NEW_LINE51
 70
     0
  3

 72
    65
 73
     2
 40
0.8
 49
0.5
 74
     4
 75
     0
340
0
 46
1.0
 50
0.0
 44
0.0
 45
0.0
 49
-0.3
 74
     4
 75
     0
340
0
 46
1.0
 50
0.0
 44
0.0
 45
0.0
  0
LTYPE
  5
C0
330
5
100
AcDbSymbolTableRecord
100
AcDbLinetypeTableRecord
  2
NEW_LINE52
 70
     0
  3

 72
    65
 73
     2
 40
0.8
 49
0.5
 74
     4
 75
     0
340
0
 46
1.0
 50
0.0
 44
0.0
 45
0.0
 49
-0.3
 74
     4
 75
     0
340
0
 46
1.0
 50
0.0
 44
0.0
 45
0.0
  0
LTYPE
  5
C2
330
5
100
AcDbSymbolTableRecord
100
AcDbLinetypeTableRecord
  2
NEW_LINE53
 70
     0
  3

 72
    65
 73
     2
 40
0.8
 49
0.5
 74
     4
 75
     0
340
0
 46
1.0
 50
0.0
 44
0.0
 45
0.0
 49
-0.3
 74
     4
 75
     0
340
0
 46
1.0
 50
0.0
 44
0.0
 45
0.0
  0
LTYPE
  5
C4
330
5
100
AcDbSymbolTableRecord
100
AcDbLinetypeTableRecord
  2
NEW_LINE54
 70
     0
  3

 72
    65
 73
     2
 40
0.8
 49
0.5
 74
     4
 75
     0
340
0
 46
1.0
 50
0.0
 44
0.0
 45
0.0
 49
-0.3
 74
     4
 75
     0
340
0
 46
1.0
 50
0.0
 44
0.0
 45
0.0
  0
LTYPE
  5
C6
330
5
100
AcDbSymbolTableRecord
100
AcDbLinetypeTableRecord
  2
NEW_LINE55
 70
     0
  3

 72
    65
 73
     2
 40
0.8
 49
0.5
 74
     4
 75
     0
340
0
 46
1.0
 50
0.0
 44
0.0
 45
0.0
 49
-0.3
 74
     4
 75
     0
340
0
 46
1.0
 50
0.0
 44
0.0
 45
0.0
  0
LTYPE
  5
C8
330
5
100
AcDbSymbolTableRecord
100
AcDbLinetypeTableRecord
  2
NEW_LINE56
 70
     0
  3

 72
    65
 73
     2
 40
0.8
 49
0.5
 74
     4
 75
     0
340
0
 46
1.0
 50
0.0
 44
0.0
 45
0.0
 49
-0.3
 74
     4
 75
     0
340
0
 46
1.0
 50
0.0
 44
0.0
 45
0.0
  0
LTYPE
  5
CA
330
5
100
AcDbSymbolTableRecord
100
AcDbLinetypeTableRecord
  2
NEW_LINE57
 70
     0
  3

 72
    65
 73
     2
 40
0.8
 49
0.5
 74
     4
 75
     0
340
0
 46
1.0
 50
0.0
 44
0.0
 45
0.0
 49
-0.3
 74
     4
 75
     0
340
0
 46
1.0
 50
0.0
 44
0.0
 45
0.0
  0
LTYPE
  5
CC
330
5
100
AcDbSymbolTableRecord
100
AcDbLinetypeTableRecord
  2
NEW_LINE58
 70
     0
  3

 72
    65
 73
     2
 40
0.8
 49
0.5
 74
     4
 75
     0
340
0
 46
1.0
 50
0.0
 44
0.0
 45
0.0
 49
-0.3
 74
     4
 75
     0
340
0
 46
1.0
 50
0.0
 44
0.0
 45
0.0
  0
LTYPE
  5
CE
330
5
100
AcDbSymbolTableRecord
100
AcDbLinetypeTableRecord
  2
NEW_LINE59
 70
     0
  3

 72
    65
 73
     2
 40
0.8
 49
0.5
 74
     4
 75
     0
340
0
 46
1.0
 50
0.0
 44
0.0
 45
0.0
 49
-0.3
 74
     4
 75
     0
340
0
 46
1.0
 50
0.0
 44
0.0
 45
0.0
  0
LTYPE
  5
D0
330
5
100
AcDbSymbolTableRecord
100
AcDbLinetypeTableRecord
  2
NEW_LINE60
 70
     0
  3

 72
    65
 73
     2
 40
0.8
 49
0.5
 74
     4
 75
     0
340
0
 46
1.0
 50
0.0
 44
0.0
 45
0.0
 49
-0.3
 74
     4
 75
     0
340
0
 46
1.0
 50
0.0
 44
0.0
 45
0.0
  0
LTYPE
  5
D2
330
5
100
AcDbSymbolTableRecord
100
AcDbLinetypeTableRecord
  2
NEW_LINE61
 70
     0
  3

 72
    65
 73
     2
 40
0.8
 49
0.5
 74
     4
 75
     0
340
0
 46
1.0
 50
0.0
 44
0.0
 45
0.0
 49
-0.3
 74
     4
 75
     0
340
0
 46
1.0
 50
0.0
 44
0.0
 45
0.0
  0
LTYPE
  5
D4
330
5
100
AcDbSymbolTableRecord
100
AcDbLinetypeTableRecord
  2
NEW_LINE62
 70
     0
  3

 72
    65
 73
     2
 40
0.8
 49
0.5
 74
     4
 75
     0
340
0
 46
1.0
 50
0.0
 44
0.0
 45
0.0
 49
-0.3
 74
     4
 75
     0
340
0
 46
1.0
 50
0.0
 44
0.0
 45
0.0
  0
LTYPE
  5
D6
330
5
100
AcDbSymbolTableRecord
100
AcDbLinetypeTableRecord
  2
NEW_LINE63
 70
     0
  3

 72
    65
 73
     2
 40
0.8
 49
0.5
 74
     4
 75
     0
340
0
 46
1.0
 50
0.0
 44
0.0
 45
0.0
 49
-0.3
 74
     4
 75
     0
340
0
 46
1.0
 50
0.0
 44
0.0
 45
0.0
  0
LTYPE
  5
D8
330
5
100
AcDbSymbolTableRecord
100
AcDbLinetypeTableRecord
  2
NEW_LINE64
 70
     0
  3

 72
    65
 73
     2
 40
0.8
 49
0.5
 74
     4
 75
     0
340
0
 46
1.0
 50
0.0
 44
0.0
 45
0.0
 49
-0.3
 74
     4
 75
     0
340
0
 46
1.0
 50
0.0
 44
0.0
 45
0.0
  0
LTYPE
  5
DA
330
5
100
AcDbSymbolTableRecord
100
AcDbLinetypeTableRecord
  2
NEW_LINE65
 70
     0
  3

 72
    65
 73
     2
 40
0.8
 49
0.5
 74
     4
 75
     0
340
0
 46
1.0
 50
0.0
 44
0.0
 45
0.0
 49
-0.3
 74
     4
 75
     0
340
0
 46
1.0
 50
0.0
 44
0.0
 45
0.0
  0
LTYPE
  5
DC
330
5
100
AcDbSymbolTableRecord
100
AcDbLinetypeTableRecord
  2
NEW_LINE66
 70
     0
  3

 72
    65
 73
     2
 40
0.8
 49
0.5
 74
     4
 75
     0
340
0
 46
1.0
 50
0.0
 44
0.0
 45
0.0
 49
-0.3
 74
     4
 75
     0
340
0
 46
1.0
 50
0.0
 44
0.0
 45
0.0
  0
LTYPE
  5
DE
330
5
100
AcDbSymbolTableRecord
100
AcDbLinetypeTableRecord
  2
NEW_LINE67
 70
     0
  3

 72
    65
 73
     2
 40
0.8
 49
0.5
 74
     4
 75
     0
340
0
 46
1.0
 50
0.0
 44
0.0
 45
0.0
 49
-0.3
 74
     4
 75
     0
340
0
 46
1.0
 50
0.0
 44
0.0
 45
0.0
  0
LTYPE
  5
E0
330
5
100
AcDbSymbolTableRecord
100
AcDbLinetypeTableRecord
  2
NEW_LINE68
 70
     0
  3

 72
    65
 73
     2
 40
0.8
 49
0.5
 74
     4
 75
     0
340
0
 46
1.0
 50
0.0
 44
0.0
 45
0.0
 49
-0.3
 74
     4
 75
     0
340
0
 46
1.0
 50
0.0
 44
0.0
 45
0.0
  0
LTYPE
  5
E2
330
5
100
AcDbSymbolTableRecord
100
AcDbLinetypeTableRecord
  2
NEW_LINE69
 70
     0
  3

 72
    65
 73
     2
 40
0.8
 49
0.5
 74
     4
 75
     0
340
0
 46
1.0
 50
0.0
 44
0.0
 45
0.0
 49
-0.3
 74
     4
 75
     0
340
0
 46
1.0
 50
0.0
 44
0.0
 45
0.0
  0
LTYPE
  5
E4
330
5
100
AcDbSymbolTableRecord
100
AcDbLinetypeTableRecord
  2
NEW_LINE70
 70
     0
  3

 72
    65
 73
     2
 40
0.8
 49
0.5
 74
     4
 75
     0
340
0
 46
1.0
 50
0.0
 44
0.0
 45
0.0
 49
-0.3
 74
     4
 75
     0
340
0
 46
1.0
 50
0.0
 44
0.0
 45
0.0
  0
LTYPE
  5
E6
330
5
100
AcDbSymbolTableRecord
100
AcDbLinetypeTableRecord
  2
NEW_LINE71
 70
     0
  3

 72
    65
 73
     2
 40
0.8
 49
0.5
 74
     4
 75
     0
340
0
 46
1.0
 50
0.0
 44
0.0
 45
0.0
 49
-0.3
 74
     4
 75
     0
340
0
 46
1.0
 50
0.0
 44
0.0
 45
0.0
  0
LTYPE
  5
E8
330
5
100
AcDbSymbolTableRecord
100
AcDbLinetypeTableRecord
  2
NEW_LINE72
 70
     0
  3

 72
    65
 73
     2
 40
0.8
 49
0.5
 74
     4
 75
     0
340
0
 46
1.0
 50
0.0
 44
0.0
 45
0.0
 49
-0.3
 74
     4
 75
     0
340
0
 46
1.0
 50
0.0
 44
0.0
 45
0.0
  0
LTYPE
  5
EA
330
5
100
AcDbSymbolTableRecord
100
AcDbLinetypeTableRecord
  2
NEW_LINE73
 70
     0
  3

 72
    65
 73
     2
 40
0.8
 49
0.5
 74
     4
 75
     0
340
0
 46
1.0
 50
0.0
 44
0.0
 45
0.0
 49
-0.3
 74
     4
 75
     0
340
0
 46
1.0
 50
0.0
 44
0.0
 45
0.0
  0
LTYPE
  5
EC
330
5
100
AcDbSymbolTableRecord
100
AcDbLinetypeTableRecord
  2
NEW_LINE74
 70
     0
  3

 72
    65
 73
     2
 40
0.8
 49
0.5
 74
     4
 75
     0
340
0
 46
1.0
 50
0.0
 44
0.0
 45
0.0
 49
-0.3
 74
     4
 75
     0
340
0
 46
1.0
 50
0.0
 44
0.0
 45
0.0
  0
LTYPE
  5
EE
330
5
100
AcDbSymbolTableRecord
100
AcDbLinetypeTableRecord
  2
NEW_LINE75
 70
     0
  3

 72
    65
 73
     2
 40
0.8
 49
0.5
 74
     4
 75
     0
340
0
 46
1.0
 50
0.0
 44
0.0
 45
0.0
 49
-0.3
 74
     4
 75
     0
340
0
 46
1.0
 50
0.0
 44
0.0
 45
0.0
  0
LTYPE
  5
F0
330
5
100
AcDbSymbolTableRecord
100
AcDbLinetypeTableRecord
  2
NEW_LINE76
 70
     0
  3

 72
    65
 73
     2
 40
0.8
 49
0.5
 74
     4
 75
     0
340
0
 46
1.0
 50
0.0
 44
0.0
 45
0.0
 49
-0.3
 74
     4
 75
     0
340
0
 46
1.0
 50
0.0
 44
0.0
 45
0.0
  0
LTYPE
  5
F2
330
5
100
AcDbSymbolTableRecord
100
AcDbLinetypeTableRecord
  2
NEW_LINE77
 70
     0
  3

 72
    65
 73
     2
 40
0.8
 49
0.5
 74
     4
 75
     0
340
0
 46
1.0
 50
0.0
 44
0.0
 45
0.0
 49
-0.3
 74
     4
 75
     0
340
0
 46
1.0
 50
0.0
 44
0.0
 45
0.0
  0
LTYPE
  5
F4
330
5
100
AcDbSymbolTableRecord
100
AcDbLinetypeTableRecord
  2
NEW_LINE78
 70
     0
  3

 72
    65
 73
     2
 40
0.8
 49
0.5
 74
     4
 75
     0
340
0
 46
1.0
 50
0.0
 44
0.0
 45
0.0
 49
-0.3
 74
     4
 75
     0
340
0
 46
1.0
 50
0.0
 44
0.0
 45
0.0
  0
LTYPE
  5
F6
330
5
100
AcDbSymbolTableRecord
100
AcDbLinetypeTableRecord
  2
NEW_LINE79
 70
     0
  3

 72
    65
 73
     2
 40
0.8
 49
0.5
 74
     4
 75
     0
340
0
 46
1.0
 50
0.0
 44
0.0
 45
0.0
 49
-0.3
 74
     4
 75
     0
340
0
 46
1.0
 50
0.0
 44
0.0
 45
0.0
  0
LTYPE
  5
F8
330
5
100
AcDbSymbolTableRecord
100
AcDbLinetypeTableRecord
  2
NEW_LINE80
 70
     0
  3

 72
    65
 73
     2
 40
0.8
 49
0.5
 74
     4
 75
     0
340
0
 46
1.0
 50
0.0
 44
0.0
 45
0.0
 49
-0.3
 74
     4
 75
     0
340
0
 46
1.0
 50
0.0
 44
0.0
 45
0.0
  0
LTYPE
  5
FA
330
5
100
AcDbSymbolTableRecord
100
AcDbLinetypeTableRecord
  2
NEW_LINE81
 70
     0
  3

 72
    65
 73
     2
 40
0.8
 49
0.5
 74
     4
 75
     0
340
0
 46
1.0
 50
0.0
 44
0.0
 45
0.0
 49
-0.3
 74
     4
 75
     0
340
0
 46
1.0
 50
0.0
 44
0.0
 45
0.0
  0
LTYPE
  5
FC
330
5
100
AcDbSymbolTableRecord
100
AcDbLinetypeTableRecord
  2
NEW_LINE82
 70
     0
  3

 72
    65
 73
     2
 40
0.8
 49
0.5
 74
     4
 75
     0
340
0
 46
1.0
 50
0.0
 44
0.0
 45
0.0
 49
-0.3
 74
     4
 75
     0
340
0
 46
1.0
 50
0.0
 44
0.0
 45
0.0
  0
LTYPE
  5
FE
330
5
100
AcDbSymbolTableRecord
100
AcDbLinetypeTableRecord
  2
NEW_LINE83
 70
     0
  3

 72
    65
 73
     2
 40
0.8
 49
0.5
 74
     4
 75
     0
340
0
 46
1.0
 50
0.0
 44
0.0
 45
0.0
 49
-0.3
 74
     4
 75
     0
340
0
 46
1.0
 50
0.0
 44
0.0
 45
0.0
  0
LTYPE
  5
100
330
5
100
AcDbSymbolTableRecord
100
AcDbLinetypeTableRecord
  2
NEW_LINE84
 70
     0
  3

 72
    65
 73
     2
 40
0.8
 49
0.5
 74
     4
 75
     0
340
0
 46
1.0
 50
0.0
 44
0.0
 45
0.0
 49
-0.3
 74
     4
 75
     0
340
0
 46
1.0
 50
0.0
 44
0.0
 45
0.0
  0
LTYPE
  5
102
330
5
100
AcDbSymbolTableRecord
100
AcDbLinetypeTableRecord
  2
NEW_LINE85
 70
     0
  3

 72
    65
 73
     2
 40
0.8
 49
0.5
 74
     4
 75
     0
340
0
 46
1.0
 50
0.0
 44
0.0
 45
0.0
 49
-0.3
 74
     4
 75
     0
340
0
 46
1.0
 50
0.0
 44
0.0
 45
0.0
  0
LTYPE
  5
104
330
5
100
AcDbSymbolTableRecord
100
AcDbLinetypeTableRecord
  2
NEW_LINE86
 70
     0
  3

 72
    65
 73
     2
 40
0.8
 49
0.5
 74
     4
 75
     0
340
0
 46
1.0
 50
0.0
 44
0.0
 45
0.0
 49
-0.3
 74
     4
 75
     0
340
0
 46
1.0
 50
0.0
 44
0.0
 45
0.0
  0
LTYPE
  5
138
330
5
100
AcDbSymbolTableRecord
100
AcDbLinetypeTableRecord
  2
NEW_LINE87
 70
     0
  3

 72
    65
 73
     4
 40
1.2
 49
0.5
 74
     4
 75
     0
340
0
 46
1.0
 50
0.0
 44
0.0
 45
0.0
 49
-0.3
 74
     4
 75
     0
340
0
 46
1.0
 50
0.0
 44
0.0
 45
0.0
 49
0.1
 74
     4
 75
     0
340
0
 46
1.0
 50
0.0
 44
0.0
 45
0.0
 49
-0.3
 74
     4
 75
     0
340
0
 46
1.0
 50
0.0
 44
0.0
 45
0.0
  0
LTYPE
  5
13A
330
5
100
AcDbSymbolTableRecord
100
AcDbLinetypeTableRecord
  2
NEW_LINE88
 70
     0
  3

 72
    65
 73
     4
 40
1.2
 49
0.5
 74
     4
 75
     0
340
0
 46
1.0
 50
0.0
 44
0.0
 45
0.0
 49
-0.3
 74
     4
 75
     0
340
0
 46
1.0
 50
0.0
 44
0.0
 45
0.0
 49
0.1
 74
     4
 75
     0
340
0
 46
1.0
 50
0.0
 44
0.0
 45
0.0
 49
-0.3
 74
     4
 75
     0
340
0
 46
1.0
 50
0.0
 44
0.0
 45
0.0
  0
LTYPE
  5
13C
330
5
100
AcDbSymbolTableRecord
100
AcDbLinetypeTableRecord
  2
NEW_LINE89
 70
     0
  3

 72
    65
 73
     4
 40
1.2
 49
0.5
 74
     4
 75
     0
340
0
 46
1.0
 50
0.0
 44
0.0
 45
0.0
 49
-0.3
 74
     4
 75
     0
340
0
 46
1.0
 50
0.0
 44
0.0
 45
0.0
 49
0.1
 74
     4
 75
     0
340
0
 46
1.0
 50
0.0
 44
0.0
 45
0.0
 49
-0.3
 74
     4
 75
     0
340
0
 46
1.0
 50
0.0
 44
0.0
 45
0.0
  0
ENDTAB
  0
TABLE
  2
LAYER
  5
2
330
0
100
AcDbSymbolTable
 70
     2
  0
LAYER
  5
10
330
2
100
AcDbSymbolTableRecord
100
AcDbLayerTableRecord
  2
0
 70
     0
 62
     7
  6
CONTINUOUS
  0
LAYER
  5
40
330
2
100
AcDbSymbolTableRecord
100
AcDbLayerTableRecord
  2
AXIS
 70
     0
 62
     7
  6
CONTINUOUS
  0
ENDTAB
  0
TABLE
  2
STYLE
  5
3
330
0
100
AcDbSymbolTable
 70
     1
  0
STYLE
  5
11
330
3
100
AcDbSymbolTableRecord
100
AcDbTextStyleTableRecord
  2
STANDARD
 70
     0
 40
0.0
 41
1.0
 50
0.0
 71
     0
 42
0.2
  3
txt
  4

  0
ENDTAB
  0
TABLE
  2
VIEW
  5
6
330
0
100
AcDbSymbolTable
 70
     0
  0
ENDTAB
  0
TABLE
  2
UCS
  5
7
330
0
100
AcDbSymbolTable
 70
     0
  0
ENDTAB
  0
TABLE
  2
APPID
  5
9
330
0
100
AcDbSymbolTable
 70
     2
  0
APPID
  5
12
330
9
100
AcDbSymbolTableRecord
100
AcDbRegAppTableRecord
  2
ACAD
 70
     0
  0
APPID
  5
3F
330
9
100
AcDbSymbolTableRecord
100
AcDbRegAppTableRecord
  2
ODA
 70
     0
  0
ENDTAB
  0
TABLE
  2
DIMSTYLE
  5
A
330
0
100
AcDbSymbolTable
 70
     1
  0
DIMSTYLE
105
27
330
A
100
AcDbSymbolTableRecord
100
AcDbDimStyleTableRecord
  2
STANDARD
 70
     0
  3

  4

  5

  6

  7

 40
1.0
 41
0.18
 42
0.0625
 43
0.38
 44
0.18
 45
0.0
 46
0.0
 47
0.0
 48
0.0
140
0.18
141
0.09
142
0.0
143
25.4
144
1.0
145
0.0
146
1.0
147
0.09
 71
     0
 72
     0
 73
     1
 74
     1
 75
     0
 76
     0
 77
     0
 78
     0
170
     0
171
     2
172
     0
173
     0
174
     0
175
     0
176
     0
177
     0
178
     0
270
     2
271
     4
272
     4
273
     2
274
     2
340
11
275
     0
280
     0
281
     0
282
     0
283
     1
284
     0
285
     0
286
     0
287
     3
288
     0
  0
ENDTAB
  0
TABLE
  2
BLOCK_RECORD
  5
1
330
0
100
AcDbSymbolTable
 70
     1
  0
BLOCK_RECORD
  5
1F
330
1
100
AcDbSymbolTableRecord
100
AcDbBlockTableRecord
  2
*MODEL_SPACE
  0
BLOCK_RECORD
  5
1B
330
1
100
AcDbSymbolTableRecord
100
AcDbBlockTableRecord
  2
*PAPER_SPACE
  0
ENDTAB
  0
ENDSEC
  0
SECTION
  2
BLOCKS
  0
BLOCK
  5
20
330
1F
100
AcDbEntity
  8
0
100
AcDbBlockBegin
  2
*MODEL_SPACE
 70
     0
 10
0.0
 20
0.0
 30
0.0
  3
*MODEL_SPACE
  1

  0
ENDBLK
  5
21
330
1F
100
AcDbEntity
  8
0
100
AcDbBlockEnd
  0
BLOCK
  5
1C
330
1B
100
AcDbEntity
 67
     1
  8
0
100
AcDbBlockBegin
  2
*PAPER_SPACE
 70
     0
 10
0.0
 20
0.0
 30
0.0
  3
*PAPER_SPACE
  1

  0
ENDBLK
  5
1D
330
1B
100
AcDbEntity
 67
     1
  8
0
100
AcDbBlockEnd
  0
ENDSEC
  0
SECTION
  2
ENTITIES
  0
SPLINE
  5
41
330
1F
100
AcDbEntity
  8
AXIS
 62
   250
100
AcDbSpline
210
0.0
220
0.0
230
1.0
 70
     8
 71
     3
 72
    60
 73
    56
 74
     0
 42
0.0000000001
 43
0.0000000001
 40
0.0
 40
0.0
 40
0.0
 40
0.0
 40
0.0666666666666667
 40
0.0666666666666667
 40
0.0666666666666667
 40
0.0666666666666667
 40
0.1333333333333333
 40
0.1333333333333333
 40
0.1333333333333333
 40
0.1333333333333333
 40
0.2
 40
0.2
 40
0.2
 40
0.2
 40
0.2666666666666667
 40
0.2666666666666667
 40
0.2666666666666667
 40
0.2666666666666667
 40
0.3333333333333333
 40
0.3333333333333333
 40
0.3333333333333333
 40
0.3333333333333333
 40
0.4
 40
0.4
 40
0.4
 40
0.4
 40
0.4666666666666667
 40
0.4666666666666667
 40
0.4666666666666667
 40
0.4666666666666667
 40
0.5333333333333333
 40
0.5333333333333333
 40
0.5333333333333333
 40
0.5333333333333333
 40
0.6
 40
0.6
 40
0.6
 40
0.6
 40
0.6666666666666666
 40
0.6666666666666666
 40
0.6666666666666666
 40
0.6666666666666666
 40
0.7333333333333333
 40
0.7333333333333333
 40
0.7333333333333333
 40
0.7333333333333333
 40
0.8
 40
0.8
 40
0.8
 40
0.8
 40
0.8666666666666667
 40
0.8666666666666667
 40
0.8666666666666667
 40
0.8666666666666667
 40
1.0
 40
1.0
 40
1.0
 40
1.0
 10
5.7372
 20
-24.5538
 30
0.0
 10
5.7372
 20
-24.5538
 30
0.0
 10
4.8834
 20
-24.328
 30
0.0
 10
4.8834
 20
-24.328
 30
0.0
 10
4.8834
 20
-24.328
 30
0.0
 10
4.8834
 20
-24.328
 30
0.0
 10
3.7722
 20
-24.0381
 30
0.0
 10
3.7722
 20
-24.0381
 30
0.0
 10
3.7722
 20
-24.0381
 30
0.0
 10
3.7722
 20
-24.0381
 30
0.0
 10
1.8396
 20
-23.2577
 30
0.0
 10
1.8396
 20
-23.2577
 30
0.0
 10
1.8396
 20
-23.2577
 30
0.0
 10
1.8396
 20
-23.2577
 30
0.0
 10
0.1344
 20
-22.2237
 30
0.0
 10
0.1344
 20
-22.2237
 30
0.0
 10
0.1344
 20
-22.2237
 30
0.0
 10
0.1344
 20
-22.2237
 30
0.0
 10
-1.5953
 20
-20.9698
 30
0.0
 10
-1.5953
 20
-20.9698
 30
0.0
 10
-1.5953
 20
-20.9698
 30
0.0
 10
-1.5953
 20
-20.9698
 30
0.0
 10
-3.049
 20
-19.5869
 30
0.0
 10
-3.049
 20
-19.5869
 30
0.0
 10
-3.049
 20
-19.5869
 30
0.0
 10
-3.049
 20
-19.5869
 30
0.0
 10
-4.4299
 20
-17.9158
 30
0.0
 10
-4.4299
 20
-17.9158
 30
0.0
 10
-4.4299
 20
-17.9158
 30
0.0
 10
-4.4299
 20
-17.9158
 30
0.0
 10
-5.5861
 20
-16.2225
 30
0.0
 10
-5.5861
 20
-16.2225
 30
0.0
 10
-5.5861
 20
-16.2225
 30
0.0
 10
-5.5861
 20
-16.2225
 30
0.0
 10
-6.5422
 20
-14.2841
 30
0.0
 10
-6.5422
 20
-14.2841
 30
0.0
 10
-6.5422
 20
-14.2841
 30
0.0
 10
-6.5422
 20
-14.2841
 30
0.0
 10
-7.3204
 20
-12.3458
 30
0.0
 10
-7.3204
 20
-12.3458
 30
0.0
 10
-7.3204
 20
-12.3458
 30
0.0
 10
-7.3204
 20
-12.3458
 30
0.0
 10
-7.9384
 20
-10.111
 30
0.0
 10
-7.9384
 20
-10.111
 30
0.0
 10
-7.9384
 20
-10.111
 30
0.0
 10
-7.9384
 20
-10.111
 30
0.0
 10
-8.2381
 20
-7.9132
 30
0.0
 10
-8.2381
 20
-7.9132
 30
0.0
 10
-8.2381
 20
-7.9132
 30
0.0
 10
-8.2381
 20
-7.9132
 30
0.0
 10
-8.338
 20
-5.7154
 30
0.0
 10
-8.338
 20
-5.7154
 30
0.0
 10
-8.338
 20
-5.7154
 30
0.0
 10
-8.338
 20
-5.7154
 30
0.0
 10
-8.3591
 20
-1.7755
 30
0.0
 10
-8.3591
 20
-1.7755
 30
0.0
  0
SPLINE
  5
42
330
1F
100
AcDbEntity
  8
AXIS
 62
   250
100
AcDbSpline
210
0.0
220
0.0
230
1.0
 70
     8
 71
     3
 72
    76
 73
    72
 74
     0
 42
0.0000000001
 43
0.0000000001
 40
0.0
 40
0.0
 40
0.0
 40
0.0
 40
0.0526315789473684
 40
0.0526315789473684
 40
0.0526315789473684
 40
0.0526315789473684
 40
0.1052631578947368
 40
0.1052631578947368
 40
0.1052631578947368
 40
0.1052631578947368
 40
0.1578947368421053
 40
0.1578947368421053
 40
0.1578947368421053
 40
0.1578947368421053
 40
0.2105263157894737
 40
0.2105263157894737
 40
0.2105263157894737
 40
0.2105263157894737
 40
0.2631578947368421
 40
0.2631578947368421
 40
0.2631578947368421
 40
0.2631578947368421
 40
0.3157894736842105
 40
0.3157894736842105
 40
0.3157894736842105
 40
0.3157894736842105
 40
0.3684210526315789
 40
0.3684210526315789
 40
0.3684210526315789
 40
0.3684210526315789
 40
0.4210526315789473
 40
0.4210526315789473
 40
0.4210526315789473
 40
0.4210526315789473
 40
0.4736842105263158
 40
0.4736842105263158
 40
0.4736842105263158
 40
0.4736842105263158
 40
0.5263157894736842
 40
0.5263157894736842
 40
0.5263157894736842
 40
0.5263157894736842
 40
0.5789473684210527
 40
0.5789473684210527
 40
0.5789473684210527
 40
0.5789473684210527
 40
0.631578947368421
 40
0.631578947368421
 40
0.631578947368421
 40
0.631578947368421
 40
0.6842105263157895
 40
0.6842105263157895
 40
0.6842105263157895
 40
0.6842105263157895
 40
0.7368421052631579
 40
0.7368421052631579
 40
0.7368421052631579
 40
0.7368421052631579
 40
0.7894736842105263
 40
0.7894736842105263
 40
0.7894736842105263
 40
0.7894736842105263
 40
0.8421052631578947
 40
0.8421052631578947
 40
0.8421052631578947
 40
0.8421052631578947
 40
0.8947368421052632
 40
0.8947368421052632
 40
0.8947368421052632
 40
0.8947368421052632
 40
1.0
 40
1.0
 40
1.0
 40
1.0
 10
-9.4339
 20
-1.7845
 30
0.0
 10
-9.4339
 20
-1.7845
 30
0.0
 10
-9.4339
 20
-5.7362
 30
0.0
 10
-9.4339
 20
-5.7362
 30
0.0
 10
-9.4339
 20
-5.7362
 30
0.0
 10
-9.4339
 20
-5.7362
 30
0.0
 10
-9.3168
 20
-8.0185
 30
0.0
 10
-9.3168
 20
-8.0185
 30
0.0
 10
-9.3168
 20
-8.0185
 30
0.0
 10
-9.3168
 20
-8.0185
 30
0.0
 10
-8.9653
 20
-10.366
 30
0.0
 10
-8.9653
 20
-10.366
 30
0.0
 10
-8.9653
 20
-10.366
 30
0.0
 10
-8.9653
 20
-10.366
 30
0.0
 10
-8.3536
 20
-12.6222
 30
0.0
 10
-8.3536
 20
-12.6222
 30
0.0
 10
-8.3536
 20
-12.6222
 30
0.0
 10
-8.3536
 20
-12.6222
 30
0.0
 10
-7.4991
 20
-14.8171
 30
0.0
 10
-7.4991
 20
-14.8171
 30
0.0
 10
-7.4991
 20
-14.8171
 30
0.0
 10
-7.4991
 20
-14.8171
 30
0.0
 10
-6.4532
 20
-16.8705
 30
0.0
 10
-6.4532
 20
-16.8705
 30
0.0
 10
-6.4532
 20
-16.8705
 30
0.0
 10
-6.4532
 20
-16.8705
 30
0.0
 10
-5.2365
 20
-18.7313
 30
0.0
 10
-5.2365
 20
-18.7313
 30
0.0
 10
-5.2365
 20
-18.7313
 30
0.0
 10
-5.2365
 20
-18.7313
 30
0.0
 10
-3.7636
 20
-20.421
 30
0.0
 10
-3.7636
 20
-20.421
 30
0.0
 10
-3.7636
 20
-20.421
 30
0.0
 10
-3.7636
 20
-20.421
 30
0.0
 10
-2.1414
 20
-21.9396
 30
0.0
 10
-2.1414
 20
-21.9396
 30
0.0
 10
-2.1414
 20
-21.9396
 30
0.0
 10
-2.1414
 20
-21.9396
 30
0.0
 10
-0.4551
 20
-23.2016
 30
0.0
 10
-0.4551
 20
-23.2016
 30
0.0
 10
-0.4551
 20
-23.2016
 30
0.0
 10
-0.4551
 20
-23.2016
 30
0.0
 10
1.4446
 20
-24.271
 30
0.0
 10
1.4446
 20
-24.271
 30
0.0
 10
1.4446
 20
-24.271
 30
0.0
 10
1.4446
 20
-24.271
 30
0.0
 10
3.5151
 20
-25.0838
 30
0.0
 10
3.5151
 20
-25.0838
 30
0.0
 10
3.5151
 20
-25.0838
 30
0.0
 10
3.5151
 20
-25.0838
 30
0.0
 10
5.4394
 20
-25.6026
 30
0.0
 10
5.4394
 20
-25.6026
 30
0.0
 10
5.4394
 20
-25.6026
 30
0.0
 10
5.4394
 20
-25.6026
 30
0.0
 10
5.5864
 20
-25.4136
 30
0.0
 10
5.5864
 20
-25.4136
 30
0.0
 10
5.5864
 20
-25.4136
 30
0.0
 10
5.5864
 20
-25.4136
 30
0.0
 10
5.6478
 20
-25.2169
 30
0.0
 10
5.6478
 20
-25.2169
 30
0.0
 10
5.6478
 20
-25.2169
 30
0.0
 10
5.6478
 20
-25.2169
 30
0.0
 10
5.6968
 20
-25.0079
 30
0.0
 10
5.6968
 20
-25.0079
 30
0.0
 10
5.6968
 20
-25.0079
 30
0.0
 10
5.6968
 20
-25.0079
 30
0.0
 10
5.6907
 20
-24.8051
 30
0.0
 10
5.6907
 20
-24.8051
 30
0.0
 10
5.6907
 20
-24.8051
 30
0.0
 10
5.6907
 20
-24.8051
 30
0.0
 10
5.6662
 20
-24.59
 30
0.0
 10
5.6662
 20
-24.59
 30
0.0
  0
SPLINE
  5
43
330
1F
100
AcDbEntity
  8
AXIS
 62
   250
100
AcDbSpline
210
0.0
220
0.0
230
1.0
 70
    11
 71
     3
 72
    64
 73
    60
 74
     0
 42
0.0000000001
 43
0.0000000001
 40
0.0
 40
0.0
 40
0.0
 40
0.0
 40
0.0625
 40
0.0625
 40
0.0625
 40
0.0625
 40
0.125
 40
0.125
 40
0.125
 40
0.125
 40
0.1875
 40
0.1875
 40
0.1875
 40
0.1875
 40
0.25
 40
0.25
 40
0.25
 40
0.25
 40
0.3125
 40
0.3125
 40
0.3125
 40
0.3125
 40
0.375
 40
0.375
 40
0.375
 40
0.375
 40
0.4375
 40
0.4375
 40
0.4375
 40
0.4375
 40
0.5
 40
0.5
 40
0.5
 40
0.5
 40
0.5625
 40
0.5625
 40
0.5625
 40
0.5625
 40
0.625
 40
0.625
 40
0.625
 40
0.625
 40
0.6875
 40
0.6875
 40
0.6875
 40
0.6875
 40
0.75
 40
0.75
 40
0.75
 40
0.75
 40
0.8125
 40
0.8125
 40
0.8125
 40
0.8125
 40
0.875
 40
0.875
 40
0.875
 40
0.875
 40
1.0
 40
1.0
 40
1.0
 40
1.0
 10
-12.7482
 20
-2.5373
 30
0.0
 10
-12.7482
 20
-2.5373
 30
0.0
 10
-12.6912
 20
-2.583
 30
0.0
 10
-12.6912
 20
-2.583
 30
0.0
 10
-12.6912
 20
-2.583
 30
0.0
 10
-12.6912
 20
-2.583
 30
0.0
 10
-12.7367
 20
-2.628
 30
0.0
 10
-12.7367
 20
-2.628
 30
0.0
 10
-12.7367
 20
-2.628
 30
0.0
 10
-12.7367
 20
-2.628
 30
0.0
 10
-12.7855
 20
-2.6502
 30
0.0
 10
-12.7855
 20
-2.6502
 30
0.0
 10
-12.7855
 20
-2.6502
 30
0.0
 10
-12.7855
 20
-2.6502
 30
0.0
 10
-12.8683
 20
-2.6665
 30
0.0
 10
-12.8683
 20
-2.6665
 30
0.0
 10
-12.8683
 20
-2.6665
 30
0.0
 10
-12.8683
 20
-2.6665
 30
0.0
 10
-12.9969
 20
-2.6872
 30
0.0
 10
-12.9969
 20
-2.6872
 30
0.0
 10
-12.9969
 20
-2.6872
 30
0.0
 10
-12.9969
 20
-2.6872
 30
0.0
 10
-13.056
 20
-2.6946
 30
0.0
 10
-13.056
 20
-2.6946
 30
0.0
 10
-13.056
 20
-2.6946
 30
0.0
 10
-13.056
 20
-2.6946
 30
0.0
 10
-13.1048
 20
-2.702
 30
0.0
 10
-13.1048
 20
-2.702
 30
0.0
 10
-13.1048
 20
-2.702
 30
0.0
 10
-13.1048
 20
-2.702
 30
0.0
 10
-13.1447
 20
-2.7228
 30
0.0
 10
-13.1447
 20
-2.7228
 30
0.0
 10
-13.1447
 20
-2.7228
 30
0.0
 10
-13.1447
 20
-2.7228
 30
0.0
 10
-13.1654
 20
-2.6769
 30
0.0
 10
-13.1654
 20
-2.6769
 30
0.0
 10
-13.1654
 20
-2.6769
 30
0.0
 10
-13.1654
 20
-2.6769
 30
0.0
 10
-13.1491
 20
-2.6339
 30
0.0
 10
-13.1491
 20
-2.6339
 30
0.0
 10
-13.1491
 20
-2.6339
 30
0.0
 10
-13.1491
 20
-2.6339
 30
0.0
 10
-13.0841
 20
-2.6087
 30
0.0
 10
-13.0841
 20
-2.6087
 30
0.0
 10
-13.0841
 20
-2.6087
 30
0.0
 10
-13.0841
 20
-2.6087
 30
0.0
 10
-13.0161
 20
-2.5939
 30
0.0
 10
-13.0161
 20
-2.5939
 30
0.0
 10
-13.0161
 20
-2.5939
 30
0.0
 10
-13.0161
 20
-2.5939
 30
0.0
 10
-12.8964
 20
-2.5761
 30
0.0
 10
-12.8964
 20
-2.5761
 30
0.0
 10
-12.8964
 20
-2.5761
 30
0.0
 10
-12.8964
 20
-2.5761
 30
0.0
 10
-12.8357
 20
-2.5687
 30
0.0
 10
-12.8357
 20
-2.5687
 30
0.0
 10
-12.8357
 20
-2.5687
 30
0.0
 10
-12.8357
 20
-2.5687
 30
0.0
 10
-12.7482
 20
-2.5373
 30
0.0
 10
-12.7482
 20
-2.5373
 30
0.0
  0
SPLINE
  5
44
330
1F
100
AcDbEntity
  8
AXIS
 62
   250
100
AcDbSpline
210
0.0
220
0.0
230
1.0
 70
     8
 71
     3
 72
    44
 73
    40
 74
     0
 42
0.0000000001
 43
0.0000000001
 40
0.0
 40
0.0
 40
0.0
 40
0.0
 40
0.0909090909090909
 40
0.0909090909090909
 40
0.0909090909090909
 40
0.0909090909090909
 40
0.1818181818181818
 40
0.1818181818181818
 40
0.1818181818181818
 40
0.1818181818181818
 40
0.2727272727272727
 40
0.2727272727272727
 40
0.2727272727272727
 40
0.2727272727272727
 40
0.3636363636363636
 40
0.3636363636363636
 40
0.3636363636363636
 40
0.3636363636363636
 40
0.4545454545454545
 40
0.4545454545454545
 40
0.4545454545454545
 40
0.4545454545454545
 40
0.5454545454545454
 40
0.5454545454545454
 40
0.5454545454545454
 40
0.5454545454545454
 40
0.6363636363636364
 40
0.6363636363636364
 40
0.6363636363636364
 40
0.6363636363636364
 40
0.7272727272727273
 40
0.7272727272727273
 40
0.7272727272727273
 40
0.7272727272727273
 40
0.8181818181818182
 40
0.8181818181818182
 40
0.8181818181818182
 40
0.8181818181818182
 40
1.0
 40
1.0
 40
1.0
 40
1.0
 10
-13.1766
 20
-2.0586
 30
0.0
 10
-13.1766
 20
-2.0586
 30
0.0
 10
-13.2348
 20
-2.1031
 30
0.0
 10
-13.2348
 20
-2.1031
 30
0.0
 10
-13.2348
 20
-2.1031
 30
0.0
 10
-13.2348
 20
-2.1031
 30
0.0
 10
-13.2348
 20
-2.1267
 30
0.0
 10
-13.2348
 20
-2.1267
 30
0.0
 10
-13.2348
 20
-2.1267
 30
0.0
 10
-13.2348
 20
-2.1267
 30
0.0
 10
-13.1571
 20
-2.1628
 30
0.0
 10
-13.1571
 20
-2.1628
 30
0.0
 10
-13.1571
 20
-2.1628
 30
0.0
 10
-13.1571
 20
-2.1628
 30
0.0
 10
-13.1377
 20
-2.1489
 30
0.0
 10
-13.1377
 20
-2.1489
 30
0.0
 10
-13.1377
 20
-2.1489
 30
0.0
 10
-13.1377
 20
-2.1489
 30
0.0
 10
-13.0892
 20
-2.1337
 30
0.0
 10
-13.0892
 20
-2.1337
 30
0.0
 10
-13.0892
 20
-2.1337
 30
0.0
 10
-13.0892
 20
-2.1337
 30
0.0
 10
-13.024
 20
-2.1197
 30
0.0
 10
-13.024
 20
-2.1197
 30
0.0
 10
-13.024
 20
-2.1197
 30
0.0
 10
-13.024
 20
-2.1197
 30
0.0
 10
-12.9352
 20
-2.1086
 30
0.0
 10
-12.9352
 20
-2.1086
 30
0.0
 10
-12.9352
 20
-2.1086
 30
0.0
 10
-12.9352
 20
-2.1086
 30
0.0
 10
-12.8866
 20
-2.1003
 30
0.0
 10
-12.8866
 20
-2.1003
 30
0.0
 10
-12.8866
 20
-2.1003
 30
0.0
 10
-12.8866
 20
-2.1003
 30
0.0
 10
-12.8158
 20
-2.0836
 30
0.0
 10
-12.8158
 20
-2.0836
 30
0.0
 10
-12.8158
 20
-2.0836
 30
0.0
 10
-12.8158
 20
-2.0836
 30
0.0
 10
-12.7742
 20
-2.0697
 30
0.0
 10
-12.7742
 20
-2.0697
 30
0.0
  0
SPLINE
  5
45
330
1F
100
AcDbEntity
  8
AXIS
 62
   250
100
AcDbSpline
210
0.0
220
0.0
230
1.0
 70
    24
 71
     3
 72
     8
 73
     4
 74
     0
 42
0.0000000001
 43
0.0000000001
 40
0.0
 40
0.0
 40
0.0
 40
0.0
 40
1.0
 40
1.0
 40
1.0
 40
1.0
 10
-12.7446
 20
-2.0902
 30
0.0
 10
-12.7446
 20
-2.0902
 30
0.0
 10
-12.7457
 20
-2.1546
 30
0.0
 10
-12.7457
 20
-2.1546
 30
0.0
  0
SPLINE
  5
46
330
1F
100
AcDbEntity
  8
AXIS
 62
   250
100
AcDbSpline
210
0.0
220
0.0
230
1.0
 70
    24
 71
     3
 72
     8
 73
     4
 74
     0
 42
0.0000000001
 43
0.0000000001
 40
0.0
 40
0.0
 40
0.0
 40
0.0
 40
1.0
 40
1.0
 40
1.0
 40
1.0
 10
-13.1523
 20
-2.1579
 30
0.0
 10
-13.1523
 20
-2.1579
 30
0.0
 10
-13.1523
 20
-2.2534
 30
0.0
 10
-13.1523
 20
-2.2534
 30
0.0
  0
SPLINE
  5
47
330
1F
100
AcDbEntity
  8
AXIS
 62
   250
100
AcDbSpline
210
0.0
220
0.0
230
1.0
 70
    24
 71
     3
 72
     8
 73
     4
 74
     0
 42
0.0000000001
 43
0.0000000001
 40
0.0
 40
0.0
 40
0.0
 40
0.0
 40
1.0
 40
1.0
 40
1.0
 40
1.0
 10
-12.7464
 20
-2.2575
 30
0.0
 10
-12.7464
 20
-2.2575
 30
0.0
 10
-12.7474
 20
-2.3459
 30
0.0
 10
-12.7474
 20
-2.3459
 30
0.0
  0
SPLINE
  5
48
330
1F
100
AcDbEntity
  8
AXIS
 62
   250
100
AcDbSpline
210
0.0
220
0.0
230
1.0
 70
    24
 71
     3
 72
     8
 73
     4
 74
     0
 42
0.0000000001
 43
0.0000000001
 40
0.0
 40
0.0
 40
0.0
 40
0.0
 40
1.0
 40
1.0
 40
1.0
 40
1.0
 10
-13.1535
 20
-2.3479
 30
0.0
 10
-13.1535
 20
-2.3479
 30
0.0
 10
-13.1535
 20
-2.4373
 30
0.0
 10
-13.1535
 20
-2.4373
 30
0.0
  0
SPLINE
  5
49
330
1F
100
AcDbEntity
  8
AXIS
 62
   250
100
AcDbSpline
210
0.0
220
0.0
230
1.0
 70
    24
 71
     3
 72
     8
 73
     4
 74
     0
 42
0.0000000001
 43
0.0000000001
 40
0.0
 40
0.0
 40
0.0
 40
0.0
 40
1.0
 40
1.0
 40
1.0
 40
1.0
 10
-12.746
 20
-2.4475
 30
0.0
 10
-12.746
 20
-2.4475
 30
0.0
 10
-12.7469
 20
-2.5382
 30
0.0
 10
-12.7469
 20
-2.5382
 30
0.0
  0
SPLINE
  5
4A
330
1F
100
AcDbEntity
  8
AXIS
 62
   250
100
AcDbSpline
210
0.0
220
0.0
230
1.0
 70
    24
 71
     3
 72
     8
 73
     4
 74
     0
 42
0.0000000001
 43
0.0000000001
 40
0.0
 40
0.0
 40
0.0
 40
0.0
 40
1.0
 40
1.0
 40
1.0
 40
1.0
 10
-13.1533
 20
-2.5382
 30
0.0
 10
-13.1533
 20
-2.5382
 30
0.0
 10
-13.1533
 20
-2.6438
 30
0.0
 10
-13.1533
 20
-2.6438
 30
0.0
  0
SPLINE
  5
4B
330
1F
100
AcDbEntity
  8
AXIS
 62
   250
100
AcDbSpline
210
0.0
220
0.0
230
1.0
 70
     8
 71
     3
 72
    68
 73
    64
 74
     0
 42
0.0000000001
 43
0.0000000001
 40
0.0
 40
0.0
 40
0.0
 40
0.0
 40
0.0588235294117647
 40
0.0588235294117647
 40
0.0588235294117647
 40
0.0588235294117647
 40
0.1176470588235294
 40
0.1176470588235294
 40
0.1176470588235294
 40
0.1176470588235294
 40
0.1764705882352941
 40
0.1764705882352941
 40
0.1764705882352941
 40
0.1764705882352941
 40
0.2352941176470588
 40
0.2352941176470588
 40
0.2352941176470588
 40
0.2352941176470588
 40
0.2941176470588235
 40
0.2941176470588235
 40
0.2941176470588235
 40
0.2941176470588235
 40
0.3529411764705883
 40
0.3529411764705883
 40
0.3529411764705883
 40
0.3529411764705883
 40
0.4117647058823529
 40
0.4117647058823529
 40
0.4117647058823529
 40
0.4117647058823529
 40
0.4705882352941176
 40
0.4705882352941176
 40
0.4705882352941176
 40
0.4705882352941176
 40
0.5294117647058824
 40
0.5294117647058824
 40
0.5294117647058824
 40
0.5294117647058824
 40
0.5882352941176471
 40
0.5882352941176471
 40
0.5882352941176471
 40
0.5882352941176471
 40
0.6470588235294118
 40
0.6470588235294118
 40
0.6470588235294118
 40
0.6470588235294118
 40
0.7058823529411765
 40
0.7058823529411765
 40
0.7058823529411765
 40
0.7058823529411765
 40
0.7647058823529411
 40
0.7647058823529411
 40
0.7647058823529411
 40
0.7647058823529411
 40
0.8235294117647058
 40
0.8235294117647058
 40
0.8235294117647058
 40
0.8235294117647058
 40
0.8823529411764706
 40
0.8823529411764706
 40
0.8823529411764706
 40
0.8823529411764706
 40
1.0
 40
1.0
 40
1.0
 40
1.0
 10
-12.7449
 20
-2.6333
 30
0.0
 10
-12.7449
 20
-2.6333
 30
0.0
 10
-12.7485
 20
-2.675
 30
0.0
 10
-12.7485
 20
-2.675
 30
0.0
 10
-12.7485
 20
-2.675
 30
0.0
 10
-12.7485
 20
-2.675
 30
0.0
 10
-12.7544
 20
-2.7417
 30
0.0
 10
-12.7544
 20
-2.7417
 30
0.0
 10
-12.7544
 20
-2.7417
 30
0.0
 10
-12.7544
 20
-2.7417
 30
0.0
 10
-12.7675
 20
-2.812
 30
0.0
 10
-12.7675
 20
-2.812
 30
0.0
 10
-12.7675
 20
-2.812
 30
0.0
 10
-12.7675
 20
-2.812
 30
0.0
 10
-12.7913
 20
-2.8847
 30
0.0
 10
-12.7913
 20
-2.8847
 30
0.0
 10
-12.7913
 20
-2.8847
 30
0.0
 10
-12.7913
 20
-2.8847
 30
0.0
 10
-12.8127
 20
-2.9383
 30
0.0
 10
-12.8127
 20
-2.9383
 30
0.0
 10
-12.8127
 20
-2.9383
 30
0.0
 10
-12.8127
 20
-2.9383
 30
0.0
 10
-12.8436
 20
-2.9955
 30
0.0
 10
-12.8436
 20
-2.9955
 30
0.0
 10
-12.8436
 20
-2.9955
 30
0.0
 10
-12.8436
 20
-2.9955
 30
0.0
 10
-12.8697
 20
-3.036
 30
0.0
 10
-12.8697
 20
-3.036
 30
0.0
 10
-12.8697
 20
-3.036
 30
0.0
 10
-12.8697
 20
-3.036
 30
0.0
 10
-12.8959
 20
-3.0717
 30
0.0
 10
-12.8959
 20
-3.0717
 30
0.0
 10
-12.8959
 20
-3.0717
 30
0.0
 10
-12.8959
 20
-3.0717
 30
0.0
 10
-12.9256
 20
-3.1075
 30
0.0
 10
-12.9256
 20
-3.1075
 30
0.0
 10
-12.9256
 20
-3.1075
 30
0.0
 10
-12.9256
 20
-3.1075
 30
0.0
 10
-12.9506
 20
-3.1372
 30
0.0
 10
-12.9506
 20
-3.1372
 30
0.0
 10
-12.9506
 20
-3.1372
 30
0.0
 10
-12.9506
 20
-3.1372
 30
0.0
 10
-13.0041
 20
-3.0717
 30
0.0
 10
-13.0041
 20
-3.0717
 30
0.0
 10
-13.0041
 20
-3.0717
 30
0.0
 10
-13.0041
 20
-3.0717
 30
0.0
 10
-13.0528
 20
-3.0002
 30
0.0
 10
-13.0528
 20
-3.0002
 30
0.0
 10
-13.0528
 20
-3.0002
 30
0.0
 10
-13.0528
 20
-3.0002
 30
0.0
 10
-13.0885
 20
-2.9347
 30
0.0
 10
-13.0885
 20
-2.9347
 30
0.0
 10
-13.0885
 20
-2.9347
 30
0.0
 10
-13.0885
 20
-2.9347
 30
0.0
 10
-13.1146
 20
-2.8656
 30
0.0
 10
-13.1146
 20
-2.8656
 30
0.0
 10
-13.1146
 20
-2.8656
 30
0.0
 10
-13.1146
 20
-2.8656
 30
0.0
 10
-13.1325
 20
-2.8049
 30
0.0
 10
-13.1325
 20
-2.8049
 30
0.0
 10
-13.1325
 20
-2.8049
 30
0.0
 10
-13.1325
 20
-2.8049
 30
0.0
 10
-13.1491
 20
-2.7226
 30
0.0
 10
-13.1491
 20
-2.7226
 30
0.0
  0
SPLINE
  5
4C
330
1F
100
AcDbEntity
  8
AXIS
 62
   250
100
AcDbSpline
210
0.0
220
0.0
230
1.0
 70
    11
 71
     3
 72
    64
 73
    60
 74
     0
 42
0.0000000001
 43
0.0000000001
 40
0.0
 40
0.0
 40
0.0
 40
0.0
 40
0.0625
 40
0.0625
 40
0.0625
 40
0.0625
 40
0.125
 40
0.125
 40
0.125
 40
0.125
 40
0.1875
 40
0.1875
 40
0.1875
 40
0.1875
 40
0.25
 40
0.25
 40
0.25
 40
0.25
 40
0.3125
 40
0.3125
 40
0.3125
 40
0.3125
 40
0.375
 40
0.375
 40
0.375
 40
0.375
 40
0.4375
 40
0.4375
 40
0.4375
 40
0.4375
 40
0.5
 40
0.5
 40
0.5
 40
0.5
 40
0.5625
 40
0.5625
 40
0.5625
 40
0.5625
 40
0.625
 40
0.625
 40
0.625
 40
0.625
 40
0.6875
 40
0.6875
 40
0.6875
 40
0.6875
 40
0.75
 40
0.75
 40
0.75
 40
0.75
 40
0.8125
 40
0.8125
 40
0.8125
 40
0.8125
 40
0.875
 40
0.875
 40
0.875
 40
0.875
 40
1.0
 40
1.0
 40
1.0
 40
1.0
 10
-12.7655
 20
-2.1593
 30
0.0
 10
-12.7655
 20
-2.1593
 30
0.0
 10
-12.7085
 20
-2.205
 30
0.0
 10
-12.7085
 20
-2.205
 30
0.0
 10
-12.7085
 20
-2.205
 30
0.0
 10
-12.7085
 20
-2.205
 30
0.0
 10
-12.754
 20
-2.25
 30
0.0
 10
-12.754
 20
-2.25
 30
0.0
 10
-12.754
 20
-2.25
 30
0.0
 10
-12.754
 20
-2.25
 30
0.0
 10
-12.8028
 20
-2.2722
 30
0.0
 10
-12.8028
 20
-2.2722
 30
0.0
 10
-12.8028
 20
-2.2722
 30
0.0
 10
-12.8028
 20
-2.2722
 30
0.0
 10
-12.8856
 20
-2.2885
 30
0.0
 10
-12.8856
 20
-2.2885
 30
0.0
 10
-12.8856
 20
-2.2885
 30
0.0
 10
-12.8856
 20
-2.2885
 30
0.0
 10
-13.0142
 20
-2.3092
 30
0.0
 10
-13.0142
 20
-2.3092
 30
0.0
 10
-13.0142
 20
-2.3092
 30
0.0
 10
-13.0142
 20
-2.3092
 30
0.0
 10
-13.0733
 20
-2.3166
 30
0.0
 10
-13.0733
 20
-2.3166
 30
0.0
 10
-13.0733
 20
-2.3166
 30
0.0
 10
-13.0733
 20
-2.3166
 30
0.0
 10
-13.1221
 20
-2.324
 30
0.0
 10
-13.1221
 20
-2.324
 30
0.0
 10
-13.1221
 20
-2.324
 30
0.0
 10
-13.1221
 20
-2.324
 30
0.0
 10
-13.162
 20
-2.3448
 30
0.0
 10
-13.162
 20
-2.3448
 30
0.0
 10
-13.162
 20
-2.3448
 30
0.0
 10
-13.162
 20
-2.3448
 30
0.0
 10
-13.1827
 20
-2.2989
 30
0.0
 10
-13.1827
 20
-2.2989
 30
0.0
 10
-13.1827
 20
-2.2989
 30
0.0
 10
-13.1827
 20
-2.2989
 30
0.0
 10
-13.1664
 20
-2.2559
 30
0.0
 10
-13.1664
 20
-2.2559
 30
0.0
 10
-13.1664
 20
-2.2559
 30
0.0
 10
-13.1664
 20
-2.2559
 30
0.0
 10
-13.1014
 20
-2.2307
 30
0.0
 10
-13.1014
 20
-2.2307
 30
0.0
 10
-13.1014
 20
-2.2307
 30
0.0
 10
-13.1014
 20
-2.2307
 30
0.0
 10
-13.0334
 20
-2.2159
 30
0.0
 10
-13.0334
 20
-2.2159
 30
0.0
 10
-13.0334
 20
-2.2159
 30
0.0
 10
-13.0334
 20
-2.2159
 30
0.0
 10
-12.9137
 20
-2.1981
 30
0.0
 10
-12.9137
 20
-2.1981
 30
0.0
 10
-12.9137
 20
-2.1981
 30
0.0
 10
-12.9137
 20
-2.1981
 30
0.0
 10
-12.853
 20
-2.1907
 30
0.0
 10
-12.853
 20
-2.1907
 30
0.0
 10
-12.853
 20
-2.1907
 30
0.0
 10
-12.853
 20
-2.1907
 30
0.0
 10
-12.7655
 20
-2.1593
 30
0.0
 10
-12.7655
 20
-2.1593
 30
0.0
  0
SPLINE
  5
4D
330
1F
100
AcDbEntity
  8
AXIS
 62
   250
100
AcDbSpline
210
0.0
220
0.0
230
1.0
 70
    11
 71
     3
 72
    64
 73
    60
 74
     0
 42
0.0000000001
 43
0.0000000001
 40
0.0
 40
0.0
 40
0.0
 40
0.0
 40
0.0625
 40
0.0625
 40
0.0625
 40
0.0625
 40
0.125
 40
0.125
 40
0.125
 40
0.125
 40
0.1875
 40
0.1875
 40
0.1875
 40
0.1875
 40
0.25
 40
0.25
 40
0.25
 40
0.25
 40
0.3125
 40
0.3125
 40
0.3125
 40
0.3125
 40
0.375
 40
0.375
 40
0.375
 40
0.375
 40
0.4375
 40
0.4375
 40
0.4375
 40
0.4375
 40
0.5
 40
0.5
 40
0.5
 40
0.5
 40
0.5625
 40
0.5625
 40
0.5625
 40
0.5625
 40
0.625
 40
0.625
 40
0.625
 40
0.625
 40
0.6875
 40
0.6875
 40
0.6875
 40
0.6875
 40
0.75
 40
0.75
 40
0.75
 40
0.75
 40
0.8125
 40
0.8125
 40
0.8125
 40
0.8125
 40
0.875
 40
0.875
 40
0.875
 40
0.875
 40
1.0
 40
1.0
 40
1.0
 40
1.0
 10
-12.7655
 20
-2.3483
 30
0.0
 10
-12.7655
 20
-2.3483
 30
0.0
 10
-12.7085
 20
-2.394
 30
0.0
 10
-12.7085
 20
-2.394
 30
0.0
 10
-12.7085
 20
-2.394
 30
0.0
 10
-12.7085
 20
-2.394
 30
0.0
 10
-12.754
 20
-2.439
 30
0.0
 10
-12.754
 20
-2.439
 30
0.0
 10
-12.754
 20
-2.439
 30
0.0
 10
-12.754
 20
-2.439
 30
0.0
 10
-12.8028
 20
-2.4612
 30
0.0
 10
-12.8028
 20
-2.4612
 30
0.0
 10
-12.8028
 20
-2.4612
 30
0.0
 10
-12.8028
 20
-2.4612
 30
0.0
 10
-12.8856
 20
-2.4775
 30
0.0
 10
-12.8856
 20
-2.4775
 30
0.0
 10
-12.8856
 20
-2.4775
 30
0.0
 10
-12.8856
 20
-2.4775
 30
0.0
 10
-13.0142
 20
-2.4982
 30
0.0
 10
-13.0142
 20
-2.4982
 30
0.0
 10
-13.0142
 20
-2.4982
 30
0.0
 10
-13.0142
 20
-2.4982
 30
0.0
 10
-13.0733
 20
-2.5056
 30
0.0
 10
-13.0733
 20
-2.5056
 30
0.0
 10
-13.0733
 20
-2.5056
 30
0.0
 10
-13.0733
 20
-2.5056
 30
0.0
 10
-13.1221
 20
-2.513
 30
0.0
 10
-13.1221
 20
-2.513
 30
0.0
 10
-13.1221
 20
-2.513
 30
0.0
 10
-13.1221
 20
-2.513
 30
0.0
 10
-13.162
 20
-2.5338
 30
0.0
 10
-13.162
 20
-2.5338
 30
0.0
 10
-13.162
 20
-2.5338
 30
0.0
 10
-13.162
 20
-2.5338
 30
0.0
 10
-13.1827
 20
-2.4879
 30
0.0
 10
-13.1827
 20
-2.4879
 30
0.0
 10
-13.1827
 20
-2.4879
 30
0.0
 10
-13.1827
 20
-2.4879
 30
0.0
 10
-13.1664
 20
-2.4449
 30
0.0
 10
-13.1664
 20
-2.4449
 30
0.0
 10
-13.1664
 20
-2.4449
 30
0.0
 10
-13.1664
 20
-2.4449
 30
0.0
 10
-13.1014
 20
-2.4197
 30
0.0
 10
-13.1014
 20
-2.4197
 30
0.0
 10
-13.1014
 20
-2.4197
 30
0.0
 10
-13.1014
 20
-2.4197
 30
0.0
 10
-13.0334
 20
-2.4049
 30
0.0
 10
-13.0334
 20
-2.4049
 30
0.0
 10
-13.0334
 20
-2.4049
 30
0.0
 10
-13.0334
 20
-2.4049
 30
0.0
 10
-12.9137
 20
-2.3871
 30
0.0
 10
-12.9137
 20
-2.3871
 30
0.0
 10
-12.9137
 20
-2.3871
 30
0.0
 10
-12.9137
 20
-2.3871
 30
0.0
 10
-12.853
 20
-2.3797
 30
0.0
 10
-12.853
 20
-2.3797
 30
0.0
 10
-12.853
 20
-2.3797
 30
0.0
 10
-12.853
 20
-2.3797
 30
0.0
 10
-12.7655
 20
-2.3483
 30
0.0
 10
-12.7655
 20
-2.3483
 30
0.0
  0
SPLINE
  5
4E
330
1F
100
AcDbEntity
  8
AXIS
 62
   250
100
AcDbSpline
210
0.0
220
0.0
230
1.0
 70
     8
 71
     3
 72
    24
 73
    20
 74
     0
 42
0.0000000001
 43
0.0000000001
 40
0.0
 40
0.0
 40
0.0
 40
0.0
 40
0.1666666666666667
 40
0.1666666666666667
 40
0.1666666666666667
 40
0.1666666666666667
 40
0.3333333333333333
 40
0.3333333333333333
 40
0.3333333333333333
 40
0.3333333333333333
 40
0.5
 40
0.5
 40
0.5
 40
0.5
 40
0.6666666666666666
 40
0.6666666666666666
 40
0.6666666666666666
 40
0.6666666666666666
 40
1.0
 40
1.0
 40
1.0
 40
1.0
 10
-7.002
 20
-0.1381
 30
0.0
 10
-7.002
 20
-0.1381
 30
0.0
 10
-7.063
 20
6.7369
 30
0.0
 10
-7.063
 20
6.7369
 30
0.0
 10
-7.063
 20
6.7369
 30
0.0
 10
-7.063
 20
6.7369
 30
0.0
 10
-10.7375
 20
6.7369
 30
0.0
 10
-10.7375
 20
6.7369
 30
0.0
 10
-10.7375
 20
6.7369
 30
0.0
 10
-10.7375
 20
6.7369
 30
0.0
 10
-10.9967
 20
2.5049
 30
0.0
 10
-10.9967
 20
2.5049
 30
0.0
 10
-10.9967
 20
2.5049
 30
0.0
 10
-10.9967
 20
2.5049
 30
0.0
 10
-12.9178
 20
2.5355
 30
0.0
 10
-12.9178
 20
2.5355
 30
0.0
 10
-12.9178
 20
2.5355
 30
0.0
 10
-12.9178
 20
2.5355
 30
0.0
 10
-12.933
 20
-0.1534
 30
0.0
 10
-12.933
 20
-0.1534
 30
0.0
  0
SPLINE
  5
4F
330
1F
100
AcDbEntity
  8
AXIS
 62
   250
100
AcDbSpline
210
0.0
220
0.0
230
1.0
 70
    24
 71
     3
 72
     8
 73
     4
 74
     0
 42
0.0000000001
 43
0.0000000001
 40
0.0
 40
0.0
 40
0.0
 40
0.0
 40
1.0
 40
1.0
 40
1.0
 40
1.0
 10
-10.3792
 20
6.6909
 30
0.0
 10
-10.3792
 20
6.6909
 30
0.0
 10
-10.4174
 20
-0.2031
 30
0.0
 10
-10.4174
 20
-0.2031
 30
0.0
  0
SPLINE
  5
50
330
1F
100
AcDbEntity
  8
AXIS
 62
   250
100
AcDbSpline
210
0.0
220
0.0
230
1.0
 70
    24
 71
     3
 72
     8
 73
     4
 74
     0
 42
0.0000000001
 43
0.0000000001
 40
0.0
 40
0.0
 40
0.0
 40
0.0
 40
1.0
 40
1.0
 40
1.0
 40
1.0
 10
-9.5597
 20
6.7291
 30
0.0
 10
-9.5597
 20
6.7291
 30
0.0
 10
-9.5216
 20
-0.184
 30
0.0
 10
-9.5216
 20
-0.184
 30
0.0
  0
SPLINE
  5
51
330
1F
100
AcDbEntity
  8
AXIS
 62
   250
100
AcDbSpline
210
0.0
220
0.0
230
1.0
 70
     8
 71
     3
 72
    16
 73
    12
 74
     0
 42
0.0000000001
 43
0.0000000001
 40
0.0
 40
0.0
 40
0.0
 40
0.0
 40
0.25
 40
0.25
 40
0.25
 40
0.25
 40
0.5
 40
0.5
 40
0.5
 40
0.5
 40
1.0
 40
1.0
 40
1.0
 40
1.0
 10
-12.9483
 20
2.0619
 30
0.0
 10
-12.9483
 20
2.0619
 30
0.0
 10
-17.1716
 20
2.0924
 30
0.0
 10
-17.1716
 20
2.0924
 30
0.0
 10
-17.1716
 20
2.0924
 30
0.0
 10
-17.1716
 20
2.0924
 30
0.0
 10
-17.1564
 20
2.8716
 30
0.0
 10
-17.1564
 20
2.8716
 30
0.0
 10
-17.1564
 20
2.8716
 30
0.0
 10
-17.1564
 20
2.8716
 30
0.0
 10
-11.0119
 20
2.8869
 30
0.0
 10
-11.0119
 20
2.8869
 30
0.0
  0
SPLINE
  5
52
330
1F
100
AcDbEntity
  8
AXIS
 62
   250
100
AcDbSpline
210
0.0
220
0.0
230
1.0
 70
    24
 71
     3
 72
     8
 73
     4
 74
     0
 42
0.0000000001
 43
0.0000000001
 40
0.0
 40
0.0
 40
0.0
 40
0.0
 40
1.0
 40
1.0
 40
1.0
 40
1.0
 10
-17.1411
 20
2.6577
 30
0.0
 10
-17.1411
 20
2.6577
 30
0.0
 10
-11.0119
 20
2.6577
 30
0.0
 10
-11.0119
 20
2.6577
 30
0.0
  0
SPLINE
  5
53
330
1F
100
AcDbEntity
  8
AXIS
 62
   250
100
AcDbSpline
210
0.0
220
0.0
230
1.0
 70
    24
 71
     3
 72
     8
 73
     4
 74
     0
 42
0.0000000001
 43
0.0000000001
 40
0.0
 40
0.0
 40
0.0
 40
0.0
 40
1.0
 40
1.0
 40
1.0
 40
1.0
 10
-12.8009
 20
2.8821
 30
0.0
 10
-12.8009
 20
2.8821
 30
0.0
 10
-12.8009
 20
2.6682
 30
0.0
 10
-12.8009
 20
2.6682
 30
0.0
  0
SPLINE
  5
54
330
1F
100
AcDbEntity
  8
AXIS
 62
   250
100
AcDbSpline
210
0.0
220
0.0
230
1.0
 70
    24
 71
     3
 72
     8
 73
     4
 74
     0
 42
0.0000000001
 43
0.0000000001
 40
0.0
 40
0.0
 40
0.0
 40
0.0
 40
1.0
 40
1.0
 40
1.0
 40
1.0
 10
-13.3294
 20
2.6732
 30
0.0
 10
-13.3294
 20
2.6732
 30
0.0
 10
-13.3396
 20
2.0927
 30
0.0
 10
-13.3396
 20
2.0927
 30
0.0
  0
SPLINE
  5
55
330
1F
100
AcDbEntity
  8
AXIS
 62
   250
100
AcDbSpline
210
0.0
220
0.0
230
1.0
 70
     8
 71
     3
 72
    32
 73
    28
 74
     0
 42
0.0000000001
 43
0.0000000001
 40
0.0
 40
0.0
 40
0.0
 40
0.0
 40
0.125
 40
0.125
 40
0.125
 40
0.125
 40
0.25
 40
0.25
 40
0.25
 40
0.25
 40
0.375
 40
0.375
 40
0.375
 40
0.375
 40
0.5
 40
0.5
 40
0.5
 40
0.5
 40
0.625
 40
0.625
 40
0.625
 40
0.625
 40
0.75
 40
0.75
 40
0.75
 40
0.75
 40
1.0
 40
1.0
 40
1.0
 40
1.0
 10
-12.4888
 20
-1.3693
 30
0.0
 10
-12.4888
 20
-1.3693
 30
0.0
 10
-12.478
 20
-0.3433
 30
0.0
 10
-12.478
 20
-0.3433
 30
0.0
 10
-12.478
 20
-0.3433
 30
0.0
 10
-12.478
 20
-0.3433
 30
0.0
 10
-14.7136
 20
-1.3801
 30
0.0
 10
-14.7136
 20
-1.3801
 30
0.0
 10
-14.7136
 20
-1.3801
 30
0.0
 10
-14.7136
 20
-1.3801
 30
0.0
 10
-14.7136
 20
-1.7689
 30
0.0
 10
-14.7136
 20
-1.7689
 30
0.0
 10
-14.7136
 20
-1.7689
 30
0.0
 10
-14.7136
 20
-1.7689
 30
0.0
 10
-6.43
 20
-1.7797
 30
0.0
 10
-6.43
 20
-1.7797
 30
0.0
 10
-6.43
 20
-1.7797
 30
0.0
 10
-6.43
 20
-1.7797
 30
0.0
 10
-6.4732
 20
-0.1597
 30
0.0
 10
-6.4732
 20
-0.1597
 30
0.0
 10
-6.4732
 20
-0.1597
 30
0.0
 10
-6.4732
 20
-0.1597
 30
0.0
 10
-13.4824
 20
-0.1597
 30
0.0
 10
-13.4824
 20
-0.1597
 30
0.0
 10
-13.4824
 20
-0.1597
 30
0.0
 10
-13.4824
 20
-0.1597
 30
0.0
 10
-13.4824
 20
-0.8077
 30
0.0
 10
-13.4824
 20
-0.8077
 30
0.0
  0
SPLINE
  5
56
330
1F
100
AcDbEntity
  8
AXIS
 62
   250
100
AcDbSpline
210
0.0
220
0.0
230
1.0
 70
     8
 71
     3
 72
    40
 73
    36
 74
     0
 42
0.0000000001
 43
0.0000000001
 40
0.0
 40
0.0
 40
0.0
 40
0.0
 40
0.1
 40
0.1
 40
0.1
 40
0.1
 40
0.2
 40
0.2
 40
0.2
 40
0.2
 40
0.3
 40
0.3
 40
0.3
 40
0.3
 40
0.4
 40
0.4
 40
0.4
 40
0.4
 40
0.5
 40
0.5
 40
0.5
 40
0.5
 40
0.6
 40
0.6
 40
0.6
 40
0.6
 40
0.7
 40
0.7
 40
0.7
 40
0.7
 40
0.8
 40
0.8
 40
0.8
 40
0.8
 40
1.0
 40
1.0
 40
1.0
 40
1.0
 10
-13.8025
 20
-1.7534
 30
0.0
 10
-13.8025
 20
-1.7534
 30
0.0
 10
-13.8025
 20
-1.3782
 30
0.0
 10
-13.8025
 20
-1.3782
 30
0.0
 10
-13.8025
 20
-1.3782
 30
0.0
 10
-13.8025
 20
-1.3782
 30
0.0
 10
-12.381
 20
-1.3794
 30
0.0
 10
-12.381
 20
-1.3794
 30
0.0
 10
-12.381
 20
-1.3794
 30
0.0
 10
-12.381
 20
-1.3794
 30
0.0
 10
-12.2877
 20
-1.375
 30
0.0
 10
-12.2877
 20
-1.375
 30
0.0
 10
-12.2877
 20
-1.375
 30
0.0
 10
-12.2877
 20
-1.375
 30
0.0
 10
-12.1898
 20
-1.3482
 30
0.0
 10
-12.1898
 20
-1.3482
 30
0.0
 10
-12.1898
 20
-1.3482
 30
0.0
 10
-12.1898
 20
-1.3482
 30
0.0
 10
-12.0787
 20
-1.3037
 30
0.0
 10
-12.0787
 20
-1.3037
 30
0.0
 10
-12.0787
 20
-1.3037
 30
0.0
 10
-12.0787
 20
-1.3037
 30
0.0
 10
-12.0031
 20
-1.2413
 30
0.0
 10
-12.0031
 20
-1.2413
 30
0.0
 10
-12.0031
 20
-1.2413
 30
0.0
 10
-12.0031
 20
-1.2413
 30
0.0
 10
-11.9052
 20
-1.1522
 30
0.0
 10
-11.9052
 20
-1.1522
 30
0.0
 10
-11.9052
 20
-1.1522
 30
0.0
 10
-11.9052
 20
-1.1522
 30
0.0
 10
-11.4072
 20
-0.5818
 30
0.0
 10
-11.4072
 20
-0.5818
 30
0.0
 10
-11.4072
 20
-0.5818
 30
0.0
 10
-11.4072
 20
-0.5818
 30
0.0
 10
-11.4027
 20
-1.7716
 30
0.0
 10
-11.4027
 20
-1.7716
 30
0.0
  0
SPLINE
  5
57
330
1F
100
AcDbEntity
  8
AXIS
 62
   250
100
AcDbSpline
210
0.0
220
0.0
230
1.0
 70
     8
 71
     3
 72
    16
 73
    12
 74
     0
 42
0.0000000001
 43
0.0000000001
 40
0.0
 40
0.0
 40
0.0
 40
0.0
 40
0.25
 40
0.25
 40
0.25
 40
0.25
 40
0.5
 40
0.5
 40
0.5
 40
0.5
 40
1.0
 40
1.0
 40
1.0
 40
1.0
 10
-14.721
 20
-1.7557
 30
0.0
 10
-14.721
 20
-1.7557
 30
0.0
 10
-14.7139
 20
-2.0551
 30
0.0
 10
-14.7139
 20
-2.0551
 30
0.0
 10
-14.7139
 20
-2.0551
 30
0.0
 10
-14.7139
 20
-2.0551
 30
0.0
 10
-10.516
 20
-2.0622
 30
0.0
 10
-10.516
 20
-2.0622
 30
0.0
 10
-10.516
 20
-2.0622
 30
0.0
 10
-10.516
 20
-2.0622
 30
0.0
 10
-10.516
 20
-1.7699
 30
0.0
 10
-10.516
 20
-1.7699
 30
0.0
  0
SPLINE
  5
58
330
1F
100
AcDbEntity
  8
AXIS
 62
   250
100
AcDbSpline
210
0.0
220
0.0
230
1.0
 70
     8
 71
     3
 72
    36
 73
    32
 74
     0
 42
0.0000000001
 43
0.0000000001
 40
0.0
 40
0.0
 40
0.0
 40
0.0
 40
0.1111111111111111
 40
0.1111111111111111
 40
0.1111111111111111
 40
0.1111111111111111
 40
0.2222222222222222
 40
0.2222222222222222
 40
0.2222222222222222
 40
0.2222222222222222
 40
0.3333333333333333
 40
0.3333333333333333
 40
0.3333333333333333
 40
0.3333333333333333
 40
0.4444444444444444
 40
0.4444444444444444
 40
0.4444444444444444
 40
0.4444444444444444
 40
0.5555555555555556
 40
0.5555555555555556
 40
0.5555555555555556
 40
0.5555555555555556
 40
0.6666666666666666
 40
0.6666666666666666
 40
0.6666666666666666
 40
0.6666666666666666
 40
0.7777777777777778
 40
0.7777777777777778
 40
0.7777777777777778
 40
0.7777777777777778
 40
1.0
 40
1.0
 40
1.0
 40
1.0
 10
-8.847
 20
-1.7659
 30
0.0
 10
-8.847
 20
-1.7659
 30
0.0
 10
-8.837
 20
-0.8164
 30
0.0
 10
-8.837
 20
-0.8164
 30
0.0
 10
-8.837
 20
-0.8164
 30
0.0
 10
-8.837
 20
-0.8164
 30
0.0
 10
-7.665
 20
-0.8114
 30
0.0
 10
-7.665
 20
-0.8114
 30
0.0
 10
-7.665
 20
-0.8114
 30
0.0
 10
-7.665
 20
-0.8114
 30
0.0
 10
-7.6401
 20
-1.7659
 30
0.0
 10
-7.6401
 20
-1.7659
 30
0.0
 10
-7.6401
 20
-1.7659
 30
0.0
 10
-7.6401
 20
-1.7659
 30
0.0
 10
-7.9144
 20
-1.7659
 30
0.0
 10
-7.9144
 20
-1.7659
 30
0.0
 10
-7.9144
 20
-1.7659
 30
0.0
 10
-7.9144
 20
-1.7659
 30
0.0
 10
-7.9144
 20
-1.516
 30
0.0
 10
-7.9144
 20
-1.516
 30
0.0
 10
-7.9144
 20
-1.516
 30
0.0
 10
-7.9144
 20
-1.516
 30
0.0
 10
-7.7797
 20
-1.516
 30
0.0
 10
-7.7797
 20
-1.516
 30
0.0
 10
-7.7797
 20
-1.516
 30
0.0
 10
-7.7797
 20
-1.516
 30
0.0
 10
-7.7947
 20
-0.8813
 30
0.0
 10
-7.7947
 20
-0.8813
 30
0.0
 10
-7.7947
 20
-0.8813
 30
0.0
 10
-7.7947
 20
-0.8813
 30
0.0
 10
-7.6879
 20
-0.816
 30
0.0
 10
-7.6879
 20
-0.816
 30
0.0
  0
SPLINE
  5
59
330
1F
100
AcDbEntity
  8
AXIS
  6
NEW_LINE1
 62
   250
100
AcDbSpline
210
0.0
220
0.0
230
1.0
 70
     8
 71
     3
 72
    16
 73
    12
 74
     0
 42
0.0000000001
 43
0.0000000001
 40
0.0
 40
0.0
 40
0.0
 40
0.0
 40
0.25
 40
0.25
 40
0.25
 40
0.25
 40
0.5
 40
0.5
 40
0.5
 40
0.5
 40
1.0
 40
1.0
 40
1.0
 40
1.0
 10
-16.2785
 20
-16.0958
 30
0.0
 10
-16.2785
 20
-16.0958
 30
0.0
 10
-10.2073
 20
-16.0958
 30
0.0
 10
-10.2073
 20
-16.0958
 30
0.0
 10
-10.2073
 20
-16.0958
 30
0.0
 10
-10.2073
 20
-16.0958
 30
0.0
 10
-10.2155
 20
-16.7058
 30
0.0
 10
-10.2155
 20
-16.7058
 30
0.0
 10
-10.2155
 20
-16.7058
 30
0.0
 10
-10.2155
 20
-16.7058
 30
0.0
 10
-14.8465
 20
-16.742
 30
0.0
 10
-14.8465
 20
-16.742
 30
0.0
  0
SPLINE
  5
5B
330
1F
100
AcDbEntity
  8
AXIS
  6
NEW_LINE2
 62
   250
100
AcDbSpline
210
0.0
220
0.0
230
1.0
 70
     8
 71
     3
 72
    16
 73
    12
 74
     0
 42
0.0000000001
 43
0.0000000001
 40
0.0
 40
0.0
 40
0.0
 40
0.0
 40
0.25
 40
0.25
 40
0.25
 40
0.25
 40
0.5
 40
0.5
 40
0.5
 40
0.5
 40
1.0
 40
1.0
 40
1.0
 40
1.0
 10
-10.2281
 20
-12.8607
 30
0.0
 10
-10.2281
 20
-12.8607
 30
0.0
 10
-10.2073
 20
-13.1378
 30
0.0
 10
-10.2073
 20
-13.1378
 30
0.0
 10
-10.2073
 20
-13.1378
 30
0.0
 10
-10.2073
 20
-13.1378
 30
0.0
 10
-14.3717
 20
-13.1378
 30
0.0
 10
-14.3717
 20
-13.1378
 30
0.0
 10
-14.3717
 20
-13.1378
 30
0.0
 10
-14.3717
 20
-13.1378
 30
0.0
 10
-14.3976
 20
-16.0424
 30
0.0
 10
-14.3976
 20
-16.0424
 30
0.0
  0
SPLINE
  5
5D
330
1F
100
AcDbEntity
  8
AXIS
  6
NEW_LINE3
 62
   250
100
AcDbSpline
210
0.0
220
0.0
230
1.0
 70
    24
 71
     3
 72
     8
 73
     4
 74
     0
 42
0.0000000001
 43
0.0000000001
 40
0.0
 40
0.0
 40
0.0
 40
0.0
 40
1.0
 40
1.0
 40
1.0
 40
1.0
 10
-20.9568
 20
-16.0958
 30
0.0
 10
-20.9568
 20
-16.0958
 30
0.0
 10
-20.9568
 20
-13.1378
 30
0.0
 10
-20.9568
 20
-13.1378
 30
0.0
  0
SPLINE
  5
5F
330
1F
100
AcDbEntity
  8
AXIS
  6
NEW_LINE4
 62
   250
100
AcDbSpline
210
0.0
220
0.0
230
1.0
 70
    24
 71
     3
 72
     8
 73
     4
 74
     0
 42
0.0000000001
 43
0.0000000001
 40
0.0
 40
0.0
 40
0.0
 40
0.0
 40
1.0
 40
1.0
 40
1.0
 40
1.0
 10
-20.5265
 20
-16.0958
 30
0.0
 10
-20.5265
 20
-16.0958
 30
0.0
 10
-20.5265
 20
-13.1378
 30
0.0
 10
-20.5265
 20
-13.1378
 30
0.0
  0
SPLINE
  5
61
330
1F
100
AcDbEntity
  8
AXIS
  6
NEW_LINE5
 62
   250
100
AcDbSpline
210
0.0
220
0.0
230
1.0
 70
    24
 71
     3
 72
     8
 73
     4
 74
     0
 42
0.0000000001
 43
0.0000000001
 40
0.0
 40
0.0
 40
0.0
 40
0.0
 40
1.0
 40
1.0
 40
1.0
 40
1.0
 10
-10.8459
 20
-16.0958
 30
0.0
 10
-10.8459
 20
-16.0958
 30
0.0
 10
-10.8459
 20
-13.1378
 30
0.0
 10
-10.8459
 20
-13.1378
 30
0.0
  0
SPLINE
  5
63
330
1F
100
AcDbEntity
  8
AXIS
  6
NEW_LINE6
 62
   250
100
AcDbSpline
210
0.0
220
0.0
230
1.0
 70
    24
 71
     3
 72
     8
 73
     4
 74
     0
 42
0.0000000001
 43
0.0000000001
 40
0.0
 40
0.0
 40
0.0
 40
0.0
 40
1.0
 40
1.0
 40
1.0
 40
1.0
 10
-10.4157
 20
-16.0958
 30
0.0
 10
-10.4157
 20
-16.0958
 30
0.0
 10
-10.4157
 20
-13.1378
 30
0.0
 10
-10.4157
 20
-13.1378
 30
0.0
  0
SPLINE
  5
65
330
1F
100
AcDbEntity
  8
AXIS
  6
NEW_LINE7
 62
   250
100
AcDbSpline
210
0.0
220
0.0
230
1.0
 70
    24
 71
     3
 72
     8
 73
     4
 74
     0
 42
0.0000000001
 43
0.0000000001
 40
0.0
 40
0.0
 40
0.0
 40
0.0
 40
1.0
 40
1.0
 40
1.0
 40
1.0
 10
-11.8641
 20
-21.0603
 30
0.0
 10
-11.8641
 20
-21.0603
 30
0.0
 10
-15.5181
 20
-21.1156
 30
0.0
 10
-15.5181
 20
-21.1156
 30
0.0
  0
SPLINE
  5
67
330
1F
100
AcDbEntity
  8
AXIS
  6
NEW_LINE8
 62
   250
100
AcDbSpline
210
0.0
220
0.0
230
1.0
 70
    24
 71
     3
 72
     8
 73
     4
 74
     0
 42
0.0000000001
 43
0.0000000001
 40
0.0
 40
0.0
 40
0.0
 40
0.0
 40
1.0
 40
1.0
 40
1.0
 40
1.0
 10
-15.8119
 20
-21.1156
 30
0.0
 10
-15.8119
 20
-21.1156
 30
0.0
 10
-19.5054
 20
-21.1156
 30
0.0
 10
-19.5054
 20
-21.1156
 30
0.0
  0
SPLINE
  5
69
330
1F
100
AcDbEntity
  8
AXIS
  6
NEW_LINE9
 62
   250
100
AcDbSpline
210
0.0
220
0.0
230
1.0
 70
    24
 71
     3
 72
     8
 73
     4
 74
     0
 42
0.0000000001
 43
0.0000000001
 40
0.0
 40
0.0
 40
0.0
 40
0.0
 40
1.0
 40
1.0
 40
1.0
 40
1.0
 10
-19.4815
 20
-20.2467
 30
0.0
 10
-19.4815
 20
-20.2467
 30
0.0
 10
-19.4815
 20
-19.8313
 30
0.0
 10
-19.4815
 20
-19.8313
 30
0.0
  0
SPLINE
  5
6B
330
1F
100
AcDbEntity
  8
AXIS
  6
NEW_LINE10
 62
   250
100
AcDbSpline
210
0.0
220
0.0
230
1.0
 70
    24
 71
     3
 72
     8
 73
     4
 74
     0
 42
0.0000000001
 43
0.0000000001
 40
0.0
 40
0.0
 40
0.0
 40
0.0
 40
1.0
 40
1.0
 40
1.0
 40
1.0
 10
-19.4815
 20
-19.6586
 30
0.0
 10
-19.4815
 20
-19.6586
 30
0.0
 10
-19.4815
 20
-19.2441
 30
0.0
 10
-19.4815
 20
-19.2441
 30
0.0
  0
SPLINE
  5
6D
330
1F
100
AcDbEntity
  8
AXIS
  6
NEW_LINE11
 62
   250
100
AcDbSpline
210
0.0
220
0.0
230
1.0
 70
    24
 71
     3
 72
     8
 73
     4
 74
     0
 42
0.0000000001
 43
0.0000000001
 40
0.0
 40
0.0
 40
0.0
 40
0.0
 40
1.0
 40
1.0
 40
1.0
 40
1.0
 10
-11.8485
 20
-19.6586
 30
0.0
 10
-11.8485
 20
-19.6586
 30
0.0
 10
-11.8485
 20
-19.1702
 30
0.0
 10
-11.8485
 20
-19.1702
 30
0.0
  0
SPLINE
  5
6F
330
1F
100
AcDbEntity
  8
AXIS
  6
NEW_LINE12
 62
   250
100
AcDbSpline
210
0.0
220
0.0
230
1.0
 70
     8
 71
     3
 72
    28
 73
    24
 74
     0
 42
0.0000000001
 43
0.0000000001
 40
0.0
 40
0.0
 40
0.0
 40
0.0
 40
0.1428571428571428
 40
0.1428571428571428
 40
0.1428571428571428
 40
0.1428571428571428
 40
0.2857142857142857
 40
0.2857142857142857
 40
0.2857142857142857
 40
0.2857142857142857
 40
0.4285714285714285
 40
0.4285714285714285
 40
0.4285714285714285
 40
0.4285714285714285
 40
0.5714285714285714
 40
0.5714285714285714
 40
0.5714285714285714
 40
0.5714285714285714
 40
0.7142857142857143
 40
0.7142857142857143
 40
0.7142857142857143
 40
0.7142857142857143
 40
1.0
 40
1.0
 40
1.0
 40
1.0
 10
-19.6971
 20
-16.6956
 30
0.0
 10
-19.6971
 20
-16.6956
 30
0.0
 10
-19.6165
 20
-16.7797
 30
0.0
 10
-19.6165
 20
-16.7797
 30
0.0
 10
-19.6165
 20
-16.7797
 30
0.0
 10
-19.6165
 20
-16.7797
 30
0.0
 10
-19.556
 20
-16.8792
 30
0.0
 10
-19.556
 20
-16.8792
 30
0.0
 10
-19.556
 20
-16.8792
 30
0.0
 10
-19.556
 20
-16.8792
 30
0.0
 10
-19.5186
 20
-16.9895
 30
0.0
 10
-19.5186
 20
-16.9895
 30
0.0
 10
-19.5186
 20
-16.9895
 30
0.0
 10
-19.5186
 20
-16.9895
 30
0.0
 10
-19.5059
 20
-17.1053
 30
0.0
 10
-19.5059
 20
-17.1053
 30
0.0
 10
-19.5059
 20
-17.1053
 30
0.0
 10
-19.5059
 20
-17.1053
 30
0.0
 10
-19.5095
 20
-19.2133
 30
0.0
 10
-19.5095
 20
-19.2133
 30
0.0
 10
-19.5095
 20
-19.2133
 30
0.0
 10
-19.5095
 20
-19.2133
 30
0.0
 10
-13.8756
 20
-19.203
 30
0.0
 10
-13.8756
 20
-19.203
 30
0.0
  0
SPLINE
  5
71
330
1F
100
AcDbEntity
  8
AXIS
  6
NEW_LINE13
 62
   250
100
AcDbSpline
210
0.0
220
0.0
230
1.0
 70
     8
 71
     3
 72
    28
 73
    24
 74
     0
 42
0.0000000001
 43
0.0000000001
 40
0.0
 40
0.0
 40
0.0
 40
0.0
 40
0.1428571428571428
 40
0.1428571428571428
 40
0.1428571428571428
 40
0.1428571428571428
 40
0.2857142857142857
 40
0.2857142857142857
 40
0.2857142857142857
 40
0.2857142857142857
 40
0.4285714285714285
 40
0.4285714285714285
 40
0.4285714285714285
 40
0.4285714285714285
 40
0.5714285714285714
 40
0.5714285714285714
 40
0.5714285714285714
 40
0.5714285714285714
 40
0.7142857142857143
 40
0.7142857142857143
 40
0.7142857142857143
 40
0.7142857142857143
 40
1.0
 40
1.0
 40
1.0
 40
1.0
 10
-11.633
 20
-16.6956
 30
0.0
 10
-11.633
 20
-16.6956
 30
0.0
 10
-11.7135
 20
-16.7797
 30
0.0
 10
-11.7135
 20
-16.7797
 30
0.0
 10
-11.7135
 20
-16.7797
 30
0.0
 10
-11.7135
 20
-16.7797
 30
0.0
 10
-11.774
 20
-16.8793
 30
0.0
 10
-11.774
 20
-16.8793
 30
0.0
 10
-11.774
 20
-16.8793
 30
0.0
 10
-11.774
 20
-16.8793
 30
0.0
 10
-11.8114
 20
-16.9895
 30
0.0
 10
-11.8114
 20
-16.9895
 30
0.0
 10
-11.8114
 20
-16.9895
 30
0.0
 10
-11.8114
 20
-16.9895
 30
0.0
 10
-11.8241
 20
-17.1053
 30
0.0
 10
-11.8241
 20
-17.1053
 30
0.0
 10
-11.8241
 20
-17.1053
 30
0.0
 10
-11.8241
 20
-17.1053
 30
0.0
 10
-11.8232
 20
-19.2062
 30
0.0
 10
-11.8232
 20
-19.2062
 30
0.0
 10
-11.8232
 20
-19.2062
 30
0.0
 10
-11.8232
 20
-19.2062
 30
0.0
 10
-13.8295
 20
-19.2045
 30
0.0
 10
-13.8295
 20
-19.2045
 30
0.0
  0
SPLINE
  5
73
330
1F
100
AcDbEntity
  8
AXIS
  6
NEW_LINE14
 62
   250
100
AcDbSpline
210
0.0
220
0.0
230
1.0
 70
    11
 71
     3
 72
    24
 73
    20
 74
     0
 42
0.0000000001
 43
0.0000000001
 40
0.0
 40
0.0
 40
0.0
 40
0.0
 40
0.1666666666666667
 40
0.1666666666666667
 40
0.1666666666666667
 40
0.1666666666666667
 40
0.3333333333333333
 40
0.3333333333333333
 40
0.3333333333333333
 40
0.3333333333333333
 40
0.5
 40
0.5
 40
0.5
 40
0.5
 40
0.6666666666666666
 40
0.6666666666666666
 40
0.6666666666666666
 40
0.6666666666666666
 40
1.0
 40
1.0
 40
1.0
 40
1.0
 10
-15.8122
 20
-21.0995
 30
0.0
 10
-15.8122
 20
-21.0995
 30
0.0
 10
-15.8189
 20
-20.7146
 30
0.0
 10
-15.8189
 20
-20.7146
 30
0.0
 10
-15.8189
 20
-20.7146
 30
0.0
 10
-15.8189
 20
-20.7146
 30
0.0
 10
-15.4855
 20
-20.7278
 30
0.0
 10
-15.4855
 20
-20.7278
 30
0.0
 10
-15.4855
 20
-20.7278
 30
0.0
 10
-15.4855
 20
-20.7278
 30
0.0
 10
-15.5692
 20
-24.0725
 30
0.0
 10
-15.5692
 20
-24.0725
 30
0.0
 10
-15.5692
 20
-24.0725
 30
0.0
 10
-15.5692
 20
-24.0725
 30
0.0
 10
-15.768
 20
-24.083
 30
0.0
 10
-15.768
 20
-24.083
 30
0.0
 10
-15.768
 20
-24.083
 30
0.0
 10
-15.768
 20
-24.083
 30
0.0
 10
-15.8122
 20
-21.0995
 30
0.0
 10
-15.8122
 20
-21.0995
 30
0.0
  0
SPLINE
  5
75
330
1F
100
AcDbEntity
  8
AXIS
  6
NEW_LINE15
 62
   250
100
AcDbSpline
210
0.0
220
0.0
230
1.0
 70
     8
 71
     3
 72
    44
 73
    40
 74
     0
 42
0.0000000001
 43
0.0000000001
 40
0.0
 40
0.0
 40
0.0
 40
0.0
 40
0.0909090909090909
 40
0.0909090909090909
 40
0.0909090909090909
 40
0.0909090909090909
 40
0.1818181818181818
 40
0.1818181818181818
 40
0.1818181818181818
 40
0.1818181818181818
 40
0.2727272727272727
 40
0.2727272727272727
 40
0.2727272727272727
 40
0.2727272727272727
 40
0.3636363636363636
 40
0.3636363636363636
 40
0.3636363636363636
 40
0.3636363636363636
 40
0.4545454545454545
 40
0.4545454545454545
 40
0.4545454545454545
 40
0.4545454545454545
 40
0.5454545454545454
 40
0.5454545454545454
 40
0.5454545454545454
 40
0.5454545454545454
 40
0.6363636363636364
 40
0.6363636363636364
 40
0.6363636363636364
 40
0.6363636363636364
 40
0.7272727272727273
 40
0.7272727272727273
 40
0.7272727272727273
 40
0.7272727272727273
 40
0.8181818181818182
 40
0.8181818181818182
 40
0.8181818181818182
 40
0.8181818181818182
 40
1.0
 40
1.0
 40
1.0
 40
1.0
 10
-11.4275
 20
-16.6852
 30
0.0
 10
-11.4275
 20
-16.6852
 30
0.0
 10
-11.4275
 20
-17.1053
 30
0.0
 10
-11.4275
 20
-17.1053
 30
0.0
 10
-11.4275
 20
-17.1053
 30
0.0
 10
-11.4275
 20
-17.1053
 30
0.0
 10
-11.3545
 20
-17.1271
 30
0.0
 10
-11.3545
 20
-17.1271
 30
0.0
 10
-11.3545
 20
-17.1271
 30
0.0
 10
-11.3545
 20
-17.1271
 30
0.0
 10
-11.3066
 20
-17.1677
 30
0.0
 10
-11.3066
 20
-17.1677
 30
0.0
 10
-11.3066
 20
-17.1677
 30
0.0
 10
-11.3066
 20
-17.1677
 30
0.0
 10
-11.2882
 20
-17.2156
 30
0.0
 10
-11.2882
 20
-17.2156
 30
0.0
 10
-11.2882
 20
-17.2156
 30
0.0
 10
-11.2882
 20
-17.2156
 30
0.0
 10
-11.2882
 20
-17.2636
 30
0.0
 10
-11.2882
 20
-17.2636
 30
0.0
 10
-11.2882
 20
-17.2636
 30
0.0
 10
-11.2882
 20
-17.2636
 30
0.0
 10
-11.3066
 20
-17.3189
 30
0.0
 10
-11.3066
 20
-17.3189
 30
0.0
 10
-11.3066
 20
-17.3189
 30
0.0
 10
-11.3066
 20
-17.3189
 30
0.0
 10
-11.3545
 20
-17.3521
 30
0.0
 10
-11.3545
 20
-17.3521
 30
0.0
 10
-11.3545
 20
-17.3521
 30
0.0
 10
-11.3545
 20
-17.3521
 30
0.0
 10
-11.4097
 20
-17.3668
 30
0.0
 10
-11.4097
 20
-17.3668
 30
0.0
 10
-11.4097
 20
-17.3668
 30
0.0
 10
-11.4097
 20
-17.3668
 30
0.0
 10
-11.4281
 20
-17.5623
 30
0.0
 10
-11.4281
 20
-17.5623
 30
0.0
 10
-11.4281
 20
-17.5623
 30
0.0
 10
-11.4281
 20
-17.5623
 30
0.0
 10
-11.8219
 20
-17.9459
 30
0.0
 10
-11.8219
 20
-17.9459
 30
0.0
  0
SPLINE
  5
77
330
1F
100
AcDbEntity
  8
AXIS
  6
NEW_LINE16
 62
   250
100
AcDbSpline
210
0.0
220
0.0
230
1.0
 70
     8
 71
     3
 72
    44
 73
    40
 74
     0
 42
0.0000000001
 43
0.0000000001
 40
0.0
 40
0.0
 40
0.0
 40
0.0
 40
0.0909090909090909
 40
0.0909090909090909
 40
0.0909090909090909
 40
0.0909090909090909
 40
0.1818181818181818
 40
0.1818181818181818
 40
0.1818181818181818
 40
0.1818181818181818
 40
0.2727272727272727
 40
0.2727272727272727
 40
0.2727272727272727
 40
0.2727272727272727
 40
0.3636363636363636
 40
0.3636363636363636
 40
0.3636363636363636
 40
0.3636363636363636
 40
0.4545454545454545
 40
0.4545454545454545
 40
0.4545454545454545
 40
0.4545454545454545
 40
0.5454545454545454
 40
0.5454545454545454
 40
0.5454545454545454
 40
0.5454545454545454
 40
0.6363636363636364
 40
0.6363636363636364
 40
0.6363636363636364
 40
0.6363636363636364
 40
0.7272727272727273
 40
0.7272727272727273
 40
0.7272727272727273
 40
0.7272727272727273
 40
0.8181818181818182
 40
0.8181818181818182
 40
0.8181818181818182
 40
0.8181818181818182
 40
1.0
 40
1.0
 40
1.0
 40
1.0
 10
-11.4796
 20
-21.2303
 30
0.0
 10
-11.4796
 20
-21.2303
 30
0.0
 10
-11.4857
 20
-23.7744
 30
0.0
 10
-11.4857
 20
-23.7744
 30
0.0
 10
-11.4857
 20
-23.7744
 30
0.0
 10
-11.4857
 20
-23.7744
 30
0.0
 10
-11.4895
 20
-23.789
 30
0.0
 10
-11.4895
 20
-23.789
 30
0.0
 10
-11.4895
 20
-23.789
 30
0.0
 10
-11.4895
 20
-23.789
 30
0.0
 10
-11.5339
 20
-23.9579
 30
0.0
 10
-11.5339
 20
-23.9579
 30
0.0
 10
-11.5339
 20
-23.9579
 30
0.0
 10
-11.5339
 20
-23.9579
 30
0.0
 10
-11.5918
 20
-23.9965
 30
0.0
 10
-11.5918
 20
-23.9965
 30
0.0
 10
-11.5918
 20
-23.9965
 30
0.0
 10
-11.5918
 20
-23.9965
 30
0.0
 10
-11.746
 20
-24.0738
 30
0.0
 10
-11.746
 20
-24.0738
 30
0.0
 10
-11.746
 20
-24.0738
 30
0.0
 10
-11.746
 20
-24.0738
 30
0.0
 10
-11.9003
 20
-24.0158
 30
0.0
 10
-11.9003
 20
-24.0158
 30
0.0
 10
-11.9003
 20
-24.0158
 30
0.0
 10
-11.9003
 20
-24.0158
 30
0.0
 10
-11.9677
 20
-23.9096
 30
0.0
 10
-11.9677
 20
-23.9096
 30
0.0
 10
-11.9677
 20
-23.9096
 30
0.0
 10
-11.9677
 20
-23.9096
 30
0.0
 10
-12.0496
 20
-23.7793
 30
0.0
 10
-12.0496
 20
-23.7793
 30
0.0
 10
-12.0496
 20
-23.7793
 30
0.0
 10
-12.0496
 20
-23.7793
 30
0.0
 10
-11.8903
 20
-23.7805
 30
0.0
 10
-11.8903
 20
-23.7805
 30
0.0
 10
-11.8903
 20
-23.7805
 30
0.0
 10
-11.8903
 20
-23.7805
 30
0.0
 10
-11.8317
 20
-20.9241
 30
0.0
 10
-11.8317
 20
-20.9241
 30
0.0
  0
SPLINE
  5
79
330
1F
100
AcDbEntity
  8
AXIS
  6
NEW_LINE17
 62
   250
100
AcDbSpline
210
0.0
220
0.0
230
1.0
 70
     8
 71
     3
 72
    16
 73
    12
 74
     0
 42
0.0000000001
 43
0.0000000001
 40
0.0
 40
0.0
 40
0.0
 40
0.0
 40
0.25
 40
0.25
 40
0.25
 40
0.25
 40
0.5
 40
0.5
 40
0.5
 40
0.5
 40
1.0
 40
1.0
 40
1.0
 40
1.0
 10
-11.4511
 20
-21.0861
 30
0.0
 10
-11.4493
 20
-20.9846
 30
0.0
 10
-11.4884
 20
-20.8866
 30
0.0
 10
-11.5595
 20
-20.8143
 30
0.0
 10
-11.5595
 20
-20.8143
 30
0.0
 10
-11.6307
 20
-20.7419
 30
0.0
 10
-11.7279
 20
-20.7012
 30
0.0
 10
-11.8294
 20
-20.7012
 30
0.0
 10
-11.8294
 20
-20.7012
 30
0.0
 10
-11.8294
 20
-20.7012
 30
0.0
 10
-11.8233
 20
-19.8204
 30
0.0
 10
-11.8233
 20
-19.8204
 30
0.0
  0
SPLINE
  5
7B
330
1F
100
AcDbEntity
  8
AXIS
  6
NEW_LINE18
 62
   250
100
AcDbSpline
210
0.0
220
0.0
230
1.0
 70
     8
 71
     3
 72
    44
 73
    40
 74
     0
 42
0.0000000001
 43
0.0000000001
 40
0.0
 40
0.0
 40
0.0
 40
0.0
 40
0.0909090909090909
 40
0.0909090909090909
 40
0.0909090909090909
 40
0.0909090909090909
 40
0.1818181818181818
 40
0.1818181818181818
 40
0.1818181818181818
 40
0.1818181818181818
 40
0.2727272727272727
 40
0.2727272727272727
 40
0.2727272727272727
 40
0.2727272727272727
 40
0.3636363636363636
 40
0.3636363636363636
 40
0.3636363636363636
 40
0.3636363636363636
 40
0.4545454545454545
 40
0.4545454545454545
 40
0.4545454545454545
 40
0.4545454545454545
 40
0.5454545454545454
 40
0.5454545454545454
 40
0.5454545454545454
 40
0.5454545454545454
 40
0.6363636363636364
 40
0.6363636363636364
 40
0.6363636363636364
 40
0.6363636363636364
 40
0.7272727272727273
 40
0.7272727272727273
 40
0.7272727272727273
 40
0.7272727272727273
 40
0.8181818181818182
 40
0.8181818181818182
 40
0.8181818181818182
 40
0.8181818181818182
 40
1.0
 40
1.0
 40
1.0
 40
1.0
 10
-19.5111
 20
-20.7146
 30
0.0
 10
-19.6126
 20
-20.7146
 30
0.0
 10
-19.7098
 20
-20.7553
 30
0.0
 10
-19.781
 20
-20.8277
 30
0.0
 10
-19.781
 20
-20.8277
 30
0.0
 10
-19.8521
 20
-20.9001
 30
0.0
 10
-19.8911
 20
-20.9981
 30
0.0
 10
-19.8894
 20
-21.0996
 30
0.0
 10
-19.8894
 20
-21.0996
 30
0.0
 10
-19.8894
 20
-21.0996
 30
0.0
 10
-19.8548
 20
-23.7878
 30
0.0
 10
-19.8548
 20
-23.7878
 30
0.0
 10
-19.8548
 20
-23.7878
 30
0.0
 10
-19.8548
 20
-23.7878
 30
0.0
 10
-19.8065
 20
-23.9714
 30
0.0
 10
-19.8065
 20
-23.9714
 30
0.0
 10
-19.8065
 20
-23.9714
 30
0.0
 10
-19.8065
 20
-23.9714
 30
0.0
 10
-19.7487
 20
-24.01
 30
0.0
 10
-19.7487
 20
-24.01
 30
0.0
 10
-19.7487
 20
-24.01
 30
0.0
 10
-19.7487
 20
-24.01
 30
0.0
 10
-19.5945
 20
-24.0873
 30
0.0
 10
-19.5945
 20
-24.0873
 30
0.0
 10
-19.5945
 20
-24.0873
 30
0.0
 10
-19.5945
 20
-24.0873
 30
0.0
 10
-19.4403
 20
-24.0293
 30
0.0
 10
-19.4403
 20
-24.0293
 30
0.0
 10
-19.4403
 20
-24.0293
 30
0.0
 10
-19.4403
 20
-24.0293
 30
0.0
 10
-19.3728
 20
-23.9231
 30
0.0
 10
-19.3728
 20
-23.9231
 30
0.0
 10
-19.3728
 20
-23.9231
 30
0.0
 10
-19.3728
 20
-23.9231
 30
0.0
 10
-19.2868
 20
-23.789
 30
0.0
 10
-19.2868
 20
-23.789
 30
0.0
 10
-19.2868
 20
-23.789
 30
0.0
 10
-19.2868
 20
-23.789
 30
0.0
 10
-19.2861
 20
-23.7878
 30
0.0
 10
-19.2861
 20
-23.7878
 30
0.0
  0
SPLINE
  5
7D
330
1F
100
AcDbEntity
  8
AXIS
  6
NEW_LINE19
 62
   250
100
AcDbSpline
210
0.0
220
0.0
230
1.0
 70
    27
 71
     3
 72
    36
 73
    32
 74
     0
 42
0.0000000001
 43
0.0000000001
 40
0.0
 40
0.0
 40
0.0
 40
0.0
 40
0.1111111111111111
 40
0.1111111111111111
 40
0.1111111111111111
 40
0.1111111111111111
 40
0.2222222222222222
 40
0.2222222222222222
 40
0.2222222222222222
 40
0.2222222222222222
 40
0.3333333333333333
 40
0.3333333333333333
 40
0.3333333333333333
 40
0.3333333333333333
 40
0.4444444444444444
 40
0.4444444444444444
 40
0.4444444444444444
 40
0.4444444444444444
 40
0.5555555555555556
 40
0.5555555555555556
 40
0.5555555555555556
 40
0.5555555555555556
 40
0.6666666666666666
 40
0.6666666666666666
 40
0.6666666666666666
 40
0.6666666666666666
 40
0.7777777777777778
 40
0.7777777777777778
 40
0.7777777777777778
 40
0.7777777777777778
 40
1.0
 40
1.0
 40
1.0
 40
1.0
 10
-15.5344
 20
-23.789
 30
0.0
 10
-15.5344
 20
-23.789
 30
0.0
 10
-15.3059
 20
-23.789
 30
0.0
 10
-15.3059
 20
-23.789
 30
0.0
 10
-15.3059
 20
-23.789
 30
0.0
 10
-15.3059
 20
-23.789
 30
0.0
 10
-12.3283
 20
-23.789
 30
0.0
 10
-12.3283
 20
-23.789
 30
0.0
 10
-12.3283
 20
-23.789
 30
0.0
 10
-12.3283
 20
-23.789
 30
0.0
 10
-12.0998
 20
-23.789
 30
0.0
 10
-12.0998
 20
-23.789
 30
0.0
 10
-12.0998
 20
-23.789
 30
0.0
 10
-12.0998
 20
-23.789
 30
0.0
 10
-12.0989
 20
-23.789
 30
0.0
 10
-12.0989
 20
-23.789
 30
0.0
 10
-12.0989
 20
-23.789
 30
0.0
 10
-12.0989
 20
-23.789
 30
0.0
 10
-12.0998
 20
-23.789
 30
0.0
 10
-12.0998
 20
-23.789
 30
0.0
 10
-12.0998
 20
-23.789
 30
0.0
 10
-12.0998
 20
-23.789
 30
0.0
 10
-12.3283
 20
-23.789
 30
0.0
 10
-12.3283
 20
-23.789
 30
0.0
 10
-12.3283
 20
-23.789
 30
0.0
 10
-12.3283
 20
-23.789
 30
0.0
 10
-15.3059
 20
-23.789
 30
0.0
 10
-15.3059
 20
-23.789
 30
0.0
 10
-15.3059
 20
-23.789
 30
0.0
 10
-15.3059
 20
-23.789
 30
0.0
 10
-15.5344
 20
-23.789
 30
0.0
 10
-15.5344
 20
-23.789
 30
0.0
  0
SPLINE
  5
7F
330
1F
100
AcDbEntity
  8
AXIS
  6
NEW_LINE20
 62
   250
100
AcDbSpline
210
0.0
220
0.0
230
1.0
 70
     8
 71
     3
 72
    20
 73
    16
 74
     0
 42
0.0000000001
 43
0.0000000001
 40
0.0
 40
0.0
 40
0.0
 40
0.0
 40
0.2
 40
0.2
 40
0.2
 40
0.2
 40
0.4
 40
0.4
 40
0.4
 40
0.4
 40
0.6
 40
0.6
 40
0.6
 40
0.6
 40
1.0
 40
1.0
 40
1.0
 40
1.0
 10
-15.7827
 20
-23.7893
 30
0.0
 10
-15.8312
 20
-23.7893
 30
0.0
 10
-19.3823
 20
-23.7991
 30
0.0
 10
-19.3823
 20
-23.7991
 30
0.0
 10
-19.3823
 20
-23.7991
 30
0.0
 10
-19.3823
 20
-23.7991
 30
0.0
 10
-19.4987
 20
-21.106
 30
0.0
 10
-19.4987
 20
-21.106
 30
0.0
 10
-19.4987
 20
-21.106
 30
0.0
 10
-19.4987
 20
-21.106
 30
0.0
 10
-19.4987
 20
-20.3185
 30
0.0
 10
-19.4987
 20
-20.3185
 30
0.0
 10
-19.4987
 20
-20.3185
 30
0.0
 10
-19.4987
 20
-20.3185
 30
0.0
 10
-11.8104
 20
-20.3185
 30
0.0
 10
-11.8104
 20
-20.3185
 30
0.0
  0
SPLINE
  5
81
330
1F
100
AcDbEntity
  8
AXIS
  6
NEW_LINE21
 62
   250
100
AcDbSpline
210
0.0
220
0.0
230
1.0
 70
     8
 71
     3
 72
    24
 73
    20
 74
     0
 42
0.0000000001
 43
0.0000000001
 40
0.0
 40
0.0
 40
0.0
 40
0.0
 40
0.1666666666666667
 40
0.1666666666666667
 40
0.1666666666666667
 40
0.1666666666666667
 40
0.3333333333333333
 40
0.3333333333333333
 40
0.3333333333333333
 40
0.3333333333333333
 40
0.5
 40
0.5
 40
0.5
 40
0.5
 40
0.6666666666666666
 40
0.6666666666666666
 40
0.6666666666666666
 40
0.6666666666666666
 40
1.0
 40
1.0
 40
1.0
 40
1.0
 10
-13.6459
 20
-19.8344
 30
0.0
 10
-13.6459
 20
-19.8344
 30
0.0
 10
-19.4269
 20
-19.8403
 30
0.0
 10
-19.4269
 20
-19.8403
 30
0.0
 10
-19.4269
 20
-19.8403
 30
0.0
 10
-19.4269
 20
-19.8403
 30
0.0
 10
-19.8698
 20
-19.7592
 30
0.0
 10
-19.8698
 20
-19.7592
 30
0.0
 10
-19.8698
 20
-19.7592
 30
0.0
 10
-19.8698
 20
-19.7592
 30
0.0
 10
-19.8703
 20
-19.7079
 30
0.0
 10
-19.8703
 20
-19.7079
 30
0.0
 10
-19.8703
 20
-19.7079
 30
0.0
 10
-19.8703
 20
-19.7079
 30
0.0
 10
-19.4857
 20
-19.6528
 30
0.0
 10
-19.4857
 20
-19.6528
 30
0.0
 10
-19.4857
 20
-19.6528
 30
0.0
 10
-19.4857
 20
-19.6528
 30
0.0
 10
-13.6577
 20
-19.6719
 30
0.0
 10
-13.6577
 20
-19.6719
 30
0.0
  0
SPLINE
  5
83
330
1F
100
AcDbEntity
  8
AXIS
  6
NEW_LINE22
 62
   250
100
AcDbSpline
210
0.0
220
0.0
230
1.0
 70
     8
 71
     3
 72
    24
 73
    20
 74
     0
 42
0.0000000001
 43
0.0000000001
 40
0.0
 40
0.0
 40
0.0
 40
0.0
 40
0.1666666666666667
 40
0.1666666666666667
 40
0.1666666666666667
 40
0.1666666666666667
 40
0.3333333333333333
 40
0.3333333333333333
 40
0.3333333333333333
 40
0.3333333333333333
 40
0.5
 40
0.5
 40
0.5
 40
0.5
 40
0.6666666666666666
 40
0.6666666666666666
 40
0.6666666666666666
 40
0.6666666666666666
 40
1.0
 40
1.0
 40
1.0
 40
1.0
 10
-13.8454
 20
-19.6744
 30
0.0
 10
-13.8454
 20
-19.6744
 30
0.0
 10
-11.8559
 20
-19.652
 30
0.0
 10
-11.8559
 20
-19.652
 30
0.0
 10
-11.8559
 20
-19.652
 30
0.0
 10
-11.8559
 20
-19.652
 30
0.0
 10
-11.4616
 20
-19.7108
 30
0.0
 10
-11.4616
 20
-19.7108
 30
0.0
 10
-11.4616
 20
-19.7108
 30
0.0
 10
-11.4616
 20
-19.7108
 30
0.0
 10
-11.4616
 20
-19.7494
 30
0.0
 10
-11.4616
 20
-19.7494
 30
0.0
 10
-11.4616
 20
-19.7494
 30
0.0
 10
-11.4616
 20
-19.7494
 30
0.0
 10
-11.8339
 20
-19.8431
 30
0.0
 10
-11.8339
 20
-19.8431
 30
0.0
 10
-11.8339
 20
-19.8431
 30
0.0
 10
-11.8339
 20
-19.8431
 30
0.0
 10
-13.5904
 20
-19.8431
 30
0.0
 10
-13.5904
 20
-19.8431
 30
0.0
  0
SPLINE
  5
85
330
1F
100
AcDbEntity
  8
AXIS
  6
NEW_LINE23
 62
   250
100
AcDbSpline
210
0.0
220
0.0
230
1.0
 70
     8
 71
     3
 72
    16
 73
    12
 74
     0
 42
0.0000000001
 43
0.0000000001
 40
0.0
 40
0.0
 40
0.0
 40
0.0
 40
0.25
 40
0.25
 40
0.25
 40
0.25
 40
0.5
 40
0.5
 40
0.5
 40
0.5
 40
1.0
 40
1.0
 40
1.0
 40
1.0
 10
-15.8189
 20
-16.6987
 30
0.0
 10
-15.8189
 20
-16.6987
 30
0.0
 10
-15.8013
 20
-17.9395
 30
0.0
 10
-15.8013
 20
-17.9395
 30
0.0
 10
-15.8013
 20
-17.9395
 30
0.0
 10
-15.8013
 20
-17.9395
 30
0.0
 10
-15.5021
 20
-17.9483
 30
0.0
 10
-15.5021
 20
-17.9483
 30
0.0
 10
-15.5021
 20
-17.9483
 30
0.0
 10
-15.5021
 20
-17.9483
 30
0.0
 10
-15.5109
 20
-16.7515
 30
0.0
 10
-15.5109
 20
-16.7515
 30
0.0
  0
SPLINE
  5
87
330
1F
100
AcDbEntity
  8
AXIS
  6
NEW_LINE24
 62
   250
100
AcDbSpline
210
0.0
220
0.0
230
1.0
 70
     8
 71
     3
 72
    44
 73
    40
 74
     0
 42
0.0000000001
 43
0.0000000001
 40
0.0
 40
0.0
 40
0.0
 40
0.0
 40
0.0909090909090909
 40
0.0909090909090909
 40
0.0909090909090909
 40
0.0909090909090909
 40
0.1818181818181818
 40
0.1818181818181818
 40
0.1818181818181818
 40
0.1818181818181818
 40
0.2727272727272727
 40
0.2727272727272727
 40
0.2727272727272727
 40
0.2727272727272727
 40
0.3636363636363636
 40
0.3636363636363636
 40
0.3636363636363636
 40
0.3636363636363636
 40
0.4545454545454545
 40
0.4545454545454545
 40
0.4545454545454545
 40
0.4545454545454545
 40
0.5454545454545454
 40
0.5454545454545454
 40
0.5454545454545454
 40
0.5454545454545454
 40
0.6363636363636364
 40
0.6363636363636364
 40
0.6363636363636364
 40
0.6363636363636364
 40
0.7272727272727273
 40
0.7272727272727273
 40
0.7272727272727273
 40
0.7272727272727273
 40
0.8181818181818182
 40
0.8181818181818182
 40
0.8181818181818182
 40
0.8181818181818182
 40
1.0
 40
1.0
 40
1.0
 40
1.0
 10
-19.9098
 20
-16.6821
 30
0.0
 10
-19.9098
 20
-16.6821
 30
0.0
 10
-19.9098
 20
-17.1022
 30
0.0
 10
-19.9098
 20
-17.1022
 30
0.0
 10
-19.9098
 20
-17.1022
 30
0.0
 10
-19.9098
 20
-17.1022
 30
0.0
 10
-19.9826
 20
-17.124
 30
0.0
 10
-19.9826
 20
-17.124
 30
0.0
 10
-19.9826
 20
-17.124
 30
0.0
 10
-19.9826
 20
-17.124
 30
0.0
 10
-20.0304
 20
-17.1646
 30
0.0
 10
-20.0304
 20
-17.1646
 30
0.0
 10
-20.0304
 20
-17.1646
 30
0.0
 10
-20.0304
 20
-17.1646
 30
0.0
 10
-20.0488
 20
-17.2125
 30
0.0
 10
-20.0488
 20
-17.2125
 30
0.0
 10
-20.0488
 20
-17.2125
 30
0.0
 10
-20.0488
 20
-17.2125
 30
0.0
 10
-20.0488
 20
-17.2605
 30
0.0
 10
-20.0488
 20
-17.2605
 30
0.0
 10
-20.0488
 20
-17.2605
 30
0.0
 10
-20.0488
 20
-17.2605
 30
0.0
 10
-20.0304
 20
-17.3158
 30
0.0
 10
-20.0304
 20
-17.3158
 30
0.0
 10
-20.0304
 20
-17.3158
 30
0.0
 10
-20.0304
 20
-17.3158
 30
0.0
 10
-19.9826
 20
-17.349
 30
0.0
 10
-19.9826
 20
-17.349
 30
0.0
 10
-19.9826
 20
-17.349
 30
0.0
 10
-19.9826
 20
-17.349
 30
0.0
 10
-19.9275
 20
-17.3637
 30
0.0
 10
-19.9275
 20
-17.3637
 30
0.0
 10
-19.9275
 20
-17.3637
 30
0.0
 10
-19.9275
 20
-17.3637
 30
0.0
 10
-19.9092
 20
-17.5592
 30
0.0
 10
-19.9092
 20
-17.5592
 30
0.0
 10
-19.9092
 20
-17.5592
 30
0.0
 10
-19.9092
 20
-17.5592
 30
0.0
 10
-19.5161
 20
-17.9428
 30
0.0
 10
-19.5161
 20
-17.9428
 30
0.0
  0
SPLINE
  5
89
330
1F
100
AcDbEntity
  8
AXIS
  6
NEW_LINE25
 62
   250
100
AcDbSpline
210
0.0
220
0.0
230
1.0
 70
     8
 71
     3
 72
    28
 73
    24
 74
     0
 42
0.0000000001
 43
0.0000000001
 40
0.0
 40
0.0
 40
0.0
 40
0.0
 40
0.1428571428571428
 40
0.1428571428571428
 40
0.1428571428571428
 40
0.1428571428571428
 40
0.2857142857142857
 40
0.2857142857142857
 40
0.2857142857142857
 40
0.2857142857142857
 40
0.4285714285714285
 40
0.4285714285714285
 40
0.4285714285714285
 40
0.4285714285714285
 40
0.5714285714285714
 40
0.5714285714285714
 40
0.5714285714285714
 40
0.5714285714285714
 40
0.7142857142857143
 40
0.7142857142857143
 40
0.7142857142857143
 40
0.7142857142857143
 40
1.0
 40
1.0
 40
1.0
 40
1.0
 10
-14.8746
 20
-16.7062
 30
0.0
 10
-14.8746
 20
-16.7062
 30
0.0
 10
-21.1761
 20
-16.6957
 30
0.0
 10
-21.1761
 20
-16.6957
 30
0.0
 10
-21.1761
 20
-16.6957
 30
0.0
 10
-21.1761
 20
-16.6957
 30
0.0
 10
-21.1652
 20
-16.0958
 30
0.0
 10
-21.1652
 20
-16.0958
 30
0.0
 10
-21.1652
 20
-16.0958
 30
0.0
 10
-21.1652
 20
-16.0958
 30
0.0
 10
-16.2693
 20
-16.0895
 30
0.0
 10
-16.2693
 20
-16.0895
 30
0.0
 10
-16.2693
 20
-16.0895
 30
0.0
 10
-16.2693
 20
-16.0895
 30
0.0
 10
-16.2777
 20
-13.1392
 30
0.0
 10
-16.2777
 20
-13.1392
 30
0.0
 10
-16.2777
 20
-13.1392
 30
0.0
 10
-16.2777
 20
-13.1392
 30
0.0
 10
-21.1652
 20
-13.1378
 30
0.0
 10
-21.1652
 20
-13.1378
 30
0.0
 10
-21.1652
 20
-13.1378
 30
0.0
 10
-21.1652
 20
-13.1378
 30
0.0
 10
-21.1652
 20
-12.8689
 30
0.0
 10
-21.1652
 20
-12.8689
 30
0.0
  0
SPLINE
  5
8B
330
1F
100
AcDbEntity
  8
AXIS
  6
NEW_LINE26
 62
   250
100
AcDbSpline
210
0.0
220
0.0
230
1.0
 70
     8
 71
     3
 72
    16
 73
    12
 74
     0
 42
0.0000000001
 43
0.0000000001
 40
0.0
 40
0.0
 40
0.0
 40
0.0
 40
0.25
 40
0.25
 40
0.25
 40
0.25
 40
0.5
 40
0.5
 40
0.5
 40
0.5
 40
1.0
 40
1.0
 40
1.0
 40
1.0
 10
-13.6806
 20
-15.621
 30
0.0
 10
-13.6806
 20
-15.621
 30
0.0
 10
-11.3381
 20
-15.6387
 30
0.0
 10
-11.3381
 20
-15.6387
 30
0.0
 10
-11.3381
 20
-15.6387
 30
0.0
 10
-11.3381
 20
-15.6387
 30
0.0
 10
-11.3356
 20
-15.9552
 30
0.0
 10
-11.3356
 20
-15.9552
 30
0.0
 10
-11.3356
 20
-15.9552
 30
0.0
 10
-11.3356
 20
-15.9552
 30
0.0
 10
-13.648
 20
-15.9722
 30
0.0
 10
-13.648
 20
-15.9722
 30
0.0
  0
SPLINE
  5
8D
330
1F
100
AcDbEntity
  8
AXIS
  6
NEW_LINE27
 62
   250
100
AcDbSpline
210
0.0
220
0.0
230
1.0
 70
     8
 71
     3
 72
    16
 73
    12
 74
     0
 42
0.0000000001
 43
0.0000000001
 40
0.0
 40
0.0
 40
0.0
 40
0.0
 40
0.25
 40
0.25
 40
0.25
 40
0.25
 40
0.5
 40
0.5
 40
0.5
 40
0.5
 40
1.0
 40
1.0
 40
1.0
 40
1.0
 10
-16.2913
 20
-15.679
 30
0.0
 10
-16.2913
 20
-15.679
 30
0.0
 10
-20.0559
 20
-15.679
 30
0.0
 10
-20.0559
 20
-15.679
 30
0.0
 10
-20.0559
 20
-15.679
 30
0.0
 10
-20.0559
 20
-15.679
 30
0.0
 10
-20.0393
 20
-15.9808
 30
0.0
 10
-20.0393
 20
-15.9808
 30
0.0
 10
-20.0393
 20
-15.9808
 30
0.0
 10
-20.0393
 20
-15.9808
 30
0.0
 10
-16.2443
 20
-16.0059
 30
0.0
 10
-16.2443
 20
-16.0059
 30
0.0
  0
SPLINE
  5
8F
330
1F
100
AcDbEntity
  8
AXIS
  6
NEW_LINE28
 62
   250
100
AcDbSpline
210
0.0
220
0.0
230
1.0
 70
     8
 71
     3
 72
    16
 73
    12
 74
     0
 42
0.0000000001
 43
0.0000000001
 40
0.0
 40
0.0
 40
0.0
 40
0.0
 40
0.25
 40
0.25
 40
0.25
 40
0.25
 40
0.5
 40
0.5
 40
0.5
 40
0.5
 40
1.0
 40
1.0
 40
1.0
 40
1.0
 10
-17.8377
 20
-13.8027
 30
0.0
 10
-17.8377
 20
-13.8027
 30
0.0
 10
-18.1639
 20
-13.8027
 30
0.0
 10
-18.1639
 20
-13.8027
 30
0.0
 10
-18.1639
 20
-13.8027
 30
0.0
 10
-18.1639
 20
-13.8027
 30
0.0
 10
-18.1639
 20
-14.3376
 30
0.0
 10
-18.1639
 20
-14.3376
 30
0.0
 10
-18.1639
 20
-14.3376
 30
0.0
 10
-18.1639
 20
-14.3376
 30
0.0
 10
-17.8377
 20
-14.3524
 30
0.0
 10
-17.8377
 20
-14.3524
 30
0.0
  0
SPLINE
  5
91
330
1F
100
AcDbEntity
  8
AXIS
  6
NEW_LINE29
 62
   250
100
AcDbSpline
210
0.0
220
0.0
230
1.0
 70
     8
 71
     3
 72
    36
 73
    32
 74
     0
 42
0.0000000001
 43
0.0000000001
 40
0.0
 40
0.0
 40
0.0
 40
0.0
 40
0.1111111111111111
 40
0.1111111111111111
 40
0.1111111111111111
 40
0.1111111111111111
 40
0.2222222222222222
 40
0.2222222222222222
 40
0.2222222222222222
 40
0.2222222222222222
 40
0.3333333333333333
 40
0.3333333333333333
 40
0.3333333333333333
 40
0.3333333333333333
 40
0.4444444444444444
 40
0.4444444444444444
 40
0.4444444444444444
 40
0.4444444444444444
 40
0.5555555555555556
 40
0.5555555555555556
 40
0.5555555555555556
 40
0.5555555555555556
 40
0.6666666666666666
 40
0.6666666666666666
 40
0.6666666666666666
 40
0.6666666666666666
 40
0.7777777777777778
 40
0.7777777777777778
 40
0.7777777777777778
 40
0.7777777777777778
 40
1.0
 40
1.0
 40
1.0
 40
1.0
 10
-17.8371
 20
-13.1379
 30
0.0
 10
-17.8371
 20
-13.1379
 30
0.0
 10
-17.8371
 20
-14.7606
 30
0.0
 10
-17.8371
 20
-14.7606
 30
0.0
 10
-17.8371
 20
-14.7606
 30
0.0
 10
-17.8371
 20
-14.7606
 30
0.0
 10
-17.8624
 20
-14.9194
 30
0.0
 10
-17.8624
 20
-14.9194
 30
0.0
 10
-17.8624
 20
-14.9194
 30
0.0
 10
-17.8624
 20
-14.9194
 30
0.0
 10
-17.9625
 20
-15.0782
 30
0.0
 10
-17.9625
 20
-15.0782
 30
0.0
 10
-17.9625
 20
-15.0782
 30
0.0
 10
-17.9625
 20
-15.0782
 30
0.0
 10
-18.1543
 20
-15.237
 30
0.0
 10
-18.1543
 20
-15.237
 30
0.0
 10
-18.1543
 20
-15.237
 30
0.0
 10
-18.1543
 20
-15.237
 30
0.0
 10
-18.3295
 20
-15.2871
 30
0.0
 10
-18.3295
 20
-15.2871
 30
0.0
 10
-18.3295
 20
-15.2871
 30
0.0
 10
-18.3295
 20
-15.2871
 30
0.0
 10
-19.2887
 20
-15.4292
 30
0.0
 10
-19.2887
 20
-15.4292
 30
0.0
 10
-19.2887
 20
-15.4292
 30
0.0
 10
-19.2887
 20
-15.4292
 30
0.0
 10
-19.322
 20
-15.5044
 30
0.0
 10
-19.322
 20
-15.5044
 30
0.0
 10
-19.322
 20
-15.5044
 30
0.0
 10
-19.322
 20
-15.5044
 30
0.0
 10
-19.3304
 20
-15.6799
 30
0.0
 10
-19.3304
 20
-15.6799
 30
0.0
  0
SPLINE
  5
93
330
1F
100
AcDbEntity
  8
AXIS
  6
NEW_LINE30
 62
   250
100
AcDbSpline
210
0.0
220
0.0
230
1.0
 70
    24
 71
     3
 72
     8
 73
     4
 74
     0
 42
0.0000000001
 43
0.0000000001
 40
0.0
 40
0.0
 40
0.0
 40
0.0
 40
1.0
 40
1.0
 40
1.0
 40
1.0
 10
-16.2913
 20
-14.7616
 30
0.0
 10
-16.2913
 20
-14.7616
 30
0.0
 10
-17.8375
 20
-14.7616
 30
0.0
 10
-17.8375
 20
-14.7616
 30
0.0
  0
SPLINE
  5
95
330
1F
100
AcDbEntity
  8
AXIS
  6
NEW_LINE31
 62
   250
100
AcDbSpline
210
0.0
220
0.0
230
1.0
 70
     8
 71
     3
 72
    20
 73
    16
 74
     0
 42
0.0000000001
 43
0.0000000001
 40
0.0
 40
0.0
 40
0.0
 40
0.0
 40
0.2
 40
0.2
 40
0.2
 40
0.2
 40
0.4
 40
0.4
 40
0.4
 40
0.4
 40
0.6
 40
0.6
 40
0.6
 40
0.6
 40
1.0
 40
1.0
 40
1.0
 40
1.0
 10
-13.5378
 20
-13.1458
 30
0.0
 10
-13.5378
 20
-13.1458
 30
0.0
 10
-13.535
 20
-14.4935
 30
0.0
 10
-13.535
 20
-14.7616
 30
0.0
 10
-13.535
 20
-14.7616
 30
0.0
 10
-13.535
 20
-15.0297
 30
0.0
 10
-13.3375
 20
-15.2569
 30
0.0
 10
-13.072
 20
-15.2942
 30
0.0
 10
-13.072
 20
-15.2942
 30
0.0
 10
-12.8065
 20
-15.3315
 30
0.0
 10
-12.0809
 20
-15.446
 30
0.0
 10
-12.0809
 20
-15.446
 30
0.0
 10
-12.0809
 20
-15.446
 30
0.0
 10
-12.0809
 20
-15.446
 30
0.0
 10
-12.0809
 20
-15.6242
 30
0.0
 10
-12.0809
 20
-15.6242
 30
0.0
  0
SPLINE
  5
97
330
1F
100
AcDbEntity
  8
AXIS
  6
NEW_LINE32
 62
   250
100
AcDbSpline
210
0.0
220
0.0
230
1.0
 70
    24
 71
     3
 72
     8
 73
     4
 74
     0
 42
0.0000000001
 43
0.0000000001
 40
0.0
 40
0.0
 40
0.0
 40
0.0
 40
1.0
 40
1.0
 40
1.0
 40
1.0
 10
-13.535
 20
-14.7616
 30
0.0
 10
-13.535
 20
-14.7616
 30
0.0
 10
-13.9493
 20
-14.7616
 30
0.0
 10
-13.9493
 20
-14.7616
 30
0.0
  0
SPLINE
  5
99
330
1F
100
AcDbEntity
  8
AXIS
  6
NEW_LINE33
 62
   250
100
AcDbSpline
210
0.0
220
0.0
230
1.0
 70
     8
 71
     3
 72
    24
 73
    20
 74
     0
 42
0.0000000001
 43
0.0000000001
 40
0.0
 40
0.0
 40
0.0
 40
0.0
 40
0.1666666666666667
 40
0.1666666666666667
 40
0.1666666666666667
 40
0.1666666666666667
 40
0.3333333333333333
 40
0.3333333333333333
 40
0.3333333333333333
 40
0.3333333333333333
 40
0.5
 40
0.5
 40
0.5
 40
0.5
 40
0.6666666666666666
 40
0.6666666666666666
 40
0.6666666666666666
 40
0.6666666666666666
 40
1.0
 40
1.0
 40
1.0
 40
1.0
 10
-15.1885
 20
-4.8017
 30
0.0
 10
-15.1885
 20
-4.8017
 30
0.0
 10
-10.0096
 20
-4.8017
 30
0.0
 10
-10.0096
 20
-4.8017
 30
0.0
 10
-10.0096
 20
-4.8017
 30
0.0
 10
-10.0096
 20
-4.8017
 30
0.0
 10
-10.0874
 20
-2.2253
 30
0.0
 10
-10.0874
 20
-2.2253
 30
0.0
 10
-10.0874
 20
-2.2253
 30
0.0
 10
-10.0874
 20
-2.2253
 30
0.0
 10
-10.1456
 20
-2.1281
 30
0.0
 10
-10.1456
 20
-2.1281
 30
0.0
 10
-10.1456
 20
-2.1281
 30
0.0
 10
-10.1456
 20
-2.1281
 30
0.0
 10
-10.2135
 20
-2.0698
 30
0.0
 10
-10.2135
 20
-2.0698
 30
0.0
 10
-10.2135
 20
-2.0698
 30
0.0
 10
-10.2135
 20
-2.0698
 30
0.0
 10
-15.0841
 20
-2.0795
 30
0.0
 10
-15.0841
 20
-2.0795
 30
0.0
  0
SPLINE
  5
9B
330
1F
100
AcDbEntity
  8
AXIS
  6
NEW_LINE34
 62
   250
100
AcDbSpline
210
0.0
220
0.0
230
1.0
 70
     8
 71
     3
 72
    24
 73
    20
 74
     0
 42
0.0000000001
 43
0.0000000001
 40
0.0
 40
0.0
 40
0.0
 40
0.0
 40
0.1666666666666667
 40
0.1666666666666667
 40
0.1666666666666667
 40
0.1666666666666667
 40
0.3333333333333333
 40
0.3333333333333333
 40
0.3333333333333333
 40
0.3333333333333333
 40
0.5
 40
0.5
 40
0.5
 40
0.5
 40
0.6666666666666666
 40
0.6666666666666666
 40
0.6666666666666666
 40
0.6666666666666666
 40
1.0
 40
1.0
 40
1.0
 40
1.0
 10
-15.2909
 20
-4.8017
 30
0.0
 10
-15.2909
 20
-4.8017
 30
0.0
 10
-21.3802
 20
-4.8017
 30
0.0
 10
-21.3802
 20
-4.8017
 30
0.0
 10
-21.3802
 20
-4.8017
 30
0.0
 10
-21.3802
 20
-4.8017
 30
0.0
 10
-21.3189
 20
-2.2315
 30
0.0
 10
-21.3189
 20
-2.2315
 30
0.0
 10
-21.3189
 20
-2.2315
 30
0.0
 10
-21.3189
 20
-2.2315
 30
0.0
 10
-21.2917
 20
-2.0955
 30
0.0
 10
-21.2917
 20
-2.0955
 30
0.0
 10
-21.2917
 20
-2.0955
 30
0.0
 10
-21.2917
 20
-2.0955
 30
0.0
 10
-21.0741
 20
-2.0683
 30
0.0
 10
-21.0741
 20
-2.0683
 30
0.0
 10
-21.0741
 20
-2.0683
 30
0.0
 10
-21.0741
 20
-2.0683
 30
0.0
 10
-15.2188
 20
-2.0819
 30
0.0
 10
-15.2188
 20
-2.0819
 30
0.0
  0
SPLINE
  5
9D
330
1F
100
AcDbEntity
  8
AXIS
  6
NEW_LINE35
 62
   250
100
AcDbSpline
210
0.0
220
0.0
230
1.0
 70
    24
 71
     3
 72
     8
 73
     4
 74
     0
 42
0.0000000001
 43
0.0000000001
 40
0.0
 40
0.0
 40
0.0
 40
0.0
 40
1.0
 40
1.0
 40
1.0
 40
1.0
 10
-15.0493
 20
-8.8353
 30
0.0
 10
-15.0493
 20
-8.8353
 30
0.0
 10
-21.4004
 20
-8.8353
 30
0.0
 10
-21.4004
 20
-8.8353
 30
0.0
  0
SPLINE
  5
9F
330
1F
100
AcDbEntity
  8
AXIS
  6
NEW_LINE36
 62
   250
100
AcDbSpline
210
0.0
220
0.0
230
1.0
 70
    24
 71
     3
 72
     8
 73
     4
 74
     0
 42
0.0000000001
 43
0.0000000001
 40
0.0
 40
0.0
 40
0.0
 40
0.0
 40
1.0
 40
1.0
 40
1.0
 40
1.0
 10
-14.5824
 20
-8.4992
 30
0.0
 10
-14.5824
 20
-8.4992
 30
0.0
 10
-21.0644
 20
-8.4992
 30
0.0
 10
-21.0644
 20
-8.4992
 30
0.0
  0
SPLINE
  5
A1
330
1F
100
AcDbEntity
  8
AXIS
  6
NEW_LINE37
 62
   250
100
AcDbSpline
210
0.0
220
0.0
230
1.0
 70
     8
 71
     3
 72
    44
 73
    40
 74
     0
 42
0.0000000001
 43
0.0000000001
 40
0.0
 40
0.0
 40
0.0
 40
0.0
 40
0.0909090909090909
 40
0.0909090909090909
 40
0.0909090909090909
 40
0.0909090909090909
 40
0.1818181818181818
 40
0.1818181818181818
 40
0.1818181818181818
 40
0.1818181818181818
 40
0.2727272727272727
 40
0.2727272727272727
 40
0.2727272727272727
 40
0.2727272727272727
 40
0.3636363636363636
 40
0.3636363636363636
 40
0.3636363636363636
 40
0.3636363636363636
 40
0.4545454545454545
 40
0.4545454545454545
 40
0.4545454545454545
 40
0.4545454545454545
 40
0.5454545454545454
 40
0.5454545454545454
 40
0.5454545454545454
 40
0.5454545454545454
 40
0.6363636363636364
 40
0.6363636363636364
 40
0.6363636363636364
 40
0.6363636363636364
 40
0.7272727272727273
 40
0.7272727272727273
 40
0.7272727272727273
 40
0.7272727272727273
 40
0.8181818181818182
 40
0.8181818181818182
 40
0.8181818181818182
 40
0.8181818181818182
 40
1.0
 40
1.0
 40
1.0
 40
1.0
 10
-15.9854
 20
-12.766
 30
0.0
 10
-15.9854
 20
-12.766
 30
0.0
 10
-15.9854
 20
-12.2252
 30
0.0
 10
-15.9854
 20
-12.2252
 30
0.0
 10
-15.9854
 20
-12.2252
 30
0.0
 10
-15.9854
 20
-12.2252
 30
0.0
 10
-16.329
 20
-12.2345
 30
0.0
 10
-16.4997
 20
-12.2345
 30
0.0
 10
-16.4997
 20
-12.2345
 30
0.0
 10
-16.6704
 20
-12.2345
 30
0.0
 10
-16.8089
 20
-12.096
 30
0.0
 10
-16.8089
 20
-11.9252
 30
0.0
 10
-16.8089
 20
-11.9252
 30
0.0
 10
-16.8089
 20
-11.7544
 30
0.0
 10
-16.6704
 20
-11.616
 30
0.0
 10
-16.4997
 20
-11.616
 30
0.0
 10
-16.4997
 20
-11.616
 30
0.0
 10
-16.329
 20
-11.616
 30
0.0
 10
-15.9005
 20
-11.6115
 30
0.0
 10
-15.9005
 20
-11.6115
 30
0.0
 10
-15.9005
 20
-11.6115
 30
0.0
 10
-15.9005
 20
-11.6115
 30
0.0
 10
-15.641
 20
-11.6053
 30
0.0
 10
-15.641
 20
-11.6053
 30
0.0
 10
-15.641
 20
-11.6053
 30
0.0
 10
-15.641
 20
-11.6053
 30
0.0
 10
-15.4919
 20
-11.6603
 30
0.0
 10
-15.4919
 20
-11.6603
 30
0.0
 10
-15.4919
 20
-11.6603
 30
0.0
 10
-15.4919
 20
-11.6603
 30
0.0
 10
-15.3899
 20
-11.7783
 30
0.0
 10
-15.3899
 20
-11.7783
 30
0.0
 10
-15.3899
 20
-11.7783
 30
0.0
 10
-15.3899
 20
-11.7783
 30
0.0
 10
-15.3742
 20
-11.9591
 30
0.0
 10
-15.3742
 20
-11.9591
 30
0.0
 10
-15.3742
 20
-11.9591
 30
0.0
 10
-15.3742
 20
-11.9591
 30
0.0
 10
-15.3742
 20
-12.7219
 30
0.0
 10
-15.3742
 20
-12.7219
 30
0.0
  0
SPLINE
  5
A3
330
1F
100
AcDbEntity
  8
AXIS
  6
NEW_LINE38
 62
   250
100
AcDbSpline
210
0.0
220
0.0
230
1.0
 70
    24
 71
     3
 72
     8
 73
     4
 74
     0
 42
0.0000000001
 43
0.0000000001
 40
0.0
 40
0.0
 40
0.0
 40
0.0
 40
1.0
 40
1.0
 40
1.0
 40
1.0
 10
-10.4029
 20
-8.4992
 30
0.0
 10
-10.4029
 20
-8.4992
 30
0.0
 10
-15.0355
 20
-8.4992
 30
0.0
 10
-15.0355
 20
-8.4992
 30
0.0
  0
SPLINE
  5
A5
330
1F
100
AcDbEntity
  8
AXIS
  6
NEW_LINE39
 62
   250
100
AcDbSpline
210
0.0
220
0.0
230
1.0
 70
    24
 71
     3
 72
     8
 73
     4
 74
     0
 42
0.0000000001
 43
0.0000000001
 40
0.0
 40
0.0
 40
0.0
 40
0.0
 40
1.0
 40
1.0
 40
1.0
 40
1.0
 10
-10.1188
 20
-8.8353
 30
0.0
 10
-10.1188
 20
-8.8353
 30
0.0
 10
-14.9263
 20
-8.8353
 30
0.0
 10
-14.9263
 20
-8.8353
 30
0.0
  0
SPLINE
  5
A7
330
1F
100
AcDbEntity
  8
AXIS
  6
NEW_LINE40
 62
   250
100
AcDbSpline
210
0.0
220
0.0
230
1.0
 70
     8
 71
     3
 72
    20
 73
    16
 74
     0
 42
0.0000000001
 43
0.0000000001
 40
0.0
 40
0.0
 40
0.0
 40
0.0
 40
0.2
 40
0.2
 40
0.2
 40
0.2
 40
0.4
 40
0.4
 40
0.4
 40
0.4
 40
0.6
 40
0.6
 40
0.6
 40
0.6
 40
1.0
 40
1.0
 40
1.0
 40
1.0
 10
-15.6066
 20
-12.8997
 30
0.0
 10
-15.6066
 20
-12.8997
 30
0.0
 10
-9.9935
 20
-12.8691
 30
0.0
 10
-9.9935
 20
-12.8691
 30
0.0
 10
-9.9935
 20
-12.8691
 30
0.0
 10
-9.9935
 20
-12.8691
 30
0.0
 10
-9.9725
 20
-8.8647
 30
0.0
 10
-9.9725
 20
-8.8647
 30
0.0
 10
-9.9725
 20
-8.8647
 30
0.0
 10
-9.9725
 20
-8.8647
 30
0.0
 10
-10.3001
 20
-8.4435
 30
0.0
 10
-10.3001
 20
-8.4435
 30
0.0
 10
-10.3001
 20
-8.4435
 30
0.0
 10
-10.3001
 20
-8.4435
 30
0.0
 10
-10.3157
 20
-4.8399
 30
0.0
 10
-10.3157
 20
-4.8399
 30
0.0
  0
SPLINE
  5
A9
330
1F
100
AcDbEntity
  8
AXIS
  6
NEW_LINE41
 62
   250
100
AcDbSpline
210
0.0
220
0.0
230
1.0
 70
     8
 71
     3
 72
    20
 73
    16
 74
     0
 42
0.0000000001
 43
0.0000000001
 40
0.0
 40
0.0
 40
0.0
 40
0.0
 40
0.2
 40
0.2
 40
0.2
 40
0.2
 40
0.4
 40
0.4
 40
0.4
 40
0.4
 40
0.6
 40
0.6
 40
0.6
 40
0.6
 40
1.0
 40
1.0
 40
1.0
 40
1.0
 10
-15.6416
 20
-12.8689
 30
0.0
 10
-15.6416
 20
-12.8689
 30
0.0
 10
-21.3925
 20
-12.8689
 30
0.0
 10
-21.3925
 20
-12.8689
 30
0.0
 10
-21.3925
 20
-12.8689
 30
0.0
 10
-21.3925
 20
-12.8689
 30
0.0
 10
-21.4047
 20
-8.8413
 30
0.0
 10
-21.4047
 20
-8.8413
 30
0.0
 10
-21.4047
 20
-8.8413
 30
0.0
 10
-21.4047
 20
-8.8413
 30
0.0
 10
-21.0344
 20
-8.471
 30
0.0
 10
-21.0344
 20
-8.471
 30
0.0
 10
-21.0344
 20
-8.471
 30
0.0
 10
-21.0344
 20
-8.471
 30
0.0
 10
-21.0752
 20
-4.7932
 30
0.0
 10
-21.0752
 20
-4.7932
 30
0.0
  0
SPLINE
  5
AB
330
1F
100
AcDbEntity
  8
AXIS
  6
NEW_LINE42
 62
   250
100
AcDbSpline
210
0.0
220
0.0
230
1.0
 70
     8
 71
     3
 72
    28
 73
    24
 74
     0
 42
0.0000000001
 43
0.0000000001
 40
0.0
 40
0.0
 40
0.0
 40
0.0
 40
0.1428571428571428
 40
0.1428571428571428
 40
0.1428571428571428
 40
0.1428571428571428
 40
0.2857142857142857
 40
0.2857142857142857
 40
0.2857142857142857
 40
0.2857142857142857
 40
0.4285714285714285
 40
0.4285714285714285
 40
0.4285714285714285
 40
0.4285714285714285
 40
0.5714285714285714
 40
0.5714285714285714
 40
0.5714285714285714
 40
0.5714285714285714
 40
0.7142857142857143
 40
0.7142857142857143
 40
0.7142857142857143
 40
0.7142857142857143
 40
1.0
 40
1.0
 40
1.0
 40
1.0
 10
-18.9785
 20
3.3164
 30
0.0
 10
-18.9785
 20
3.3164
 30
0.0
 10
-10.9927
 20
3.296
 30
0.0
 10
-10.9927
 20
3.296
 30
0.0
 10
-10.9927
 20
3.296
 30
0.0
 10
-10.9927
 20
3.296
 30
0.0
 10
-11.0194
 20
7.0123
 30
0.0
 10
-11.0194
 20
7.0123
 30
0.0
 10
-11.0194
 20
7.0123
 30
0.0
 10
-11.0194
 20
7.0123
 30
0.0
 10
-11.1128
 20
7.1861
 30
0.0
 10
-11.1128
 20
7.1861
 30
0.0
 10
-11.1128
 20
7.1861
 30
0.0
 10
-11.1128
 20
7.1861
 30
0.0
 10
-11.2328
 20
7.2931
 30
0.0
 10
-11.2328
 20
7.2931
 30
0.0
 10
-11.2328
 20
7.2931
 30
0.0
 10
-11.2328
 20
7.2931
 30
0.0
 10
-19.9983
 20
7.2925
 30
0.0
 10
-19.9983
 20
7.2925
 30
0.0
 10
-19.9983
 20
7.2925
 30
0.0
 10
-20.1441
 20
7.2925
 30
0.0
 10
-20.263
 20
7.1756
 30
0.0
 10
-20.2656
 20
7.0298
 30
0.0
  0
SPLINE
  5
AD
330
1F
100
AcDbEntity
  8
AXIS
  6
NEW_LINE43
 62
   250
100
AcDbSpline
210
0.0
220
0.0
230
1.0
 70
     8
 71
     3
 72
    12
 73
     8
 74
     0
 42
0.0000000001
 43
0.0000000001
 40
0.0
 40
0.0
 40
0.0
 40
0.0
 40
0.3333333333333333
 40
0.3333333333333333
 40
0.3333333333333333
 40
0.3333333333333333
 40
1.0
 40
1.0
 40
1.0
 40
1.0
 10
-20.2656
 20
7.0298
 30
0.0
 10
-20.2682
 20
6.884
 30
0.0
 10
-20.358
 20
3.3094
 30
0.0
 10
-20.358
 20
3.3094
 30
0.0
 10
-20.358
 20
3.3094
 30
0.0
 10
-20.358
 20
3.3094
 30
0.0
 10
-18.9531
 20
3.3074
 30
0.0
 10
-18.9531
 20
3.3074
 30
0.0
  0
SPLINE
  5
AF
330
1F
100
AcDbEntity
  8
AXIS
  6
NEW_LINE44
 62
   250
100
AcDbSpline
210
0.0
220
0.0
230
1.0
 70
     8
 71
     3
 72
   124
 73
   120
 74
     0
 42
0.0000000001
 43
0.0000000001
 40
0.0
 40
0.0
 40
0.0
 40
0.0
 40
0.032258064516129
 40
0.032258064516129
 40
0.032258064516129
 40
0.032258064516129
 40
0.0645161290322581
 40
0.0645161290322581
 40
0.0645161290322581
 40
0.0645161290322581
 40
0.0967741935483871
 40
0.0967741935483871
 40
0.0967741935483871
 40
0.0967741935483871
 40
0.1290322580645161
 40
0.1290322580645161
 40
0.1290322580645161
 40
0.1290322580645161
 40
0.1612903225806452
 40
0.1612903225806452
 40
0.1612903225806452
 40
0.1612903225806452
 40
0.1935483870967742
 40
0.1935483870967742
 40
0.1935483870967742
 40
0.1935483870967742
 40
0.2258064516129032
 40
0.2258064516129032
 40
0.2258064516129032
 40
0.2258064516129032
 40
0.2580645161290323
 40
0.2580645161290323
 40
0.2580645161290323
 40
0.2580645161290323
 40
0.2903225806451613
 40
0.2903225806451613
 40
0.2903225806451613
 40
0.2903225806451613
 40
0.3225806451612903
 40
0.3225806451612903
 40
0.3225806451612903
 40
0.3225806451612903
 40
0.3548387096774194
 40
0.3548387096774194
 40
0.3548387096774194
 40
0.3548387096774194
 40
0.3870967741935484
 40
0.3870967741935484
 40
0.3870967741935484
 40
0.3870967741935484
 40
0.4193548387096774
 40
0.4193548387096774
 40
0.4193548387096774
 40
0.4193548387096774
 40
0.4516129032258064
 40
0.4516129032258064
 40
0.4516129032258064
 40
0.4516129032258064
 40
0.4838709677419355
 40
0.4838709677419355
 40
0.4838709677419355
 40
0.4838709677419355
 40
0.5161290322580645
 40
0.5161290322580645
 40
0.5161290322580645
 40
0.5161290322580645
 40
0.5483870967741935
 40
0.5483870967741935
 40
0.5483870967741935
 40
0.5483870967741935
 40
0.5806451612903226
 40
0.5806451612903226
 40
0.5806451612903226
 40
0.5806451612903226
 40
0.6129032258064516
 40
0.6129032258064516
 40
0.6129032258064516
 40
0.6129032258064516
 40
0.6451612903225806
 40
0.6451612903225806
 40
0.6451612903225806
 40
0.6451612903225806
 40
0.6774193548387096
 40
0.6774193548387096
 40
0.6774193548387096
 40
0.6774193548387096
 40
0.7096774193548387
 40
0.7096774193548387
 40
0.7096774193548387
 40
0.7096774193548387
 40
0.7419354838709677
 40
0.7419354838709677
 40
0.7419354838709677
 40
0.7419354838709677
 40
0.7741935483870968
 40
0.7741935483870968
 40
0.7741935483870968
 40
0.7741935483870968
 40
0.8064516129032258
 40
0.8064516129032258
 40
0.8064516129032258
 40
0.8064516129032258
 40
0.8387096774193549
 40
0.8387096774193549
 40
0.8387096774193549
 40
0.8387096774193549
 40
0.8709677419354839
 40
0.8709677419354839
 40
0.8709677419354839
 40
0.8709677419354839
 40
0.9032258064516129
 40
0.9032258064516129
 40
0.9032258064516129
 40
0.9032258064516129
 40
0.9354838709677419
 40
0.9354838709677419
 40
0.9354838709677419
 40
0.9354838709677419
 40
1.0
 40
1.0
 40
1.0
 40
1.0
 10
-17.7436
 20
3.2442
 30
0.0
 10
-17.7436
 20
3.2442
 30
0.0
 10
-17.8185
 20
3.1692
 30
0.0
 10
-17.8185
 20
3.1692
 30
0.0
 10
-17.8185
 20
3.1692
 30
0.0
 10
-17.8185
 20
3.1692
 30
0.0
 10
-17.8149
 20
2.9799
 30
0.0
 10
-17.8149
 20
2.9799
 30
0.0
 10
-17.8149
 20
2.9799
 30
0.0
 10
-17.8149
 20
2.9799
 30
0.0
 10
-17.7401
 20
2.9013
 30
0.0
 10
-17.7401
 20
2.9013
 30
0.0
 10
-17.7401
 20
2.9013
 30
0.0
 10
-17.7401
 20
2.9013
 30
0.0
 10
-17.7436
 20
2.5834
 30
0.0
 10
-17.7436
 20
2.5834
 30
0.0
 10
-17.7436
 20
2.5834
 30
0.0
 10
-17.7436
 20
2.5834
 30
0.0
 10
-17.8185
 20
2.5084
 30
0.0
 10
-17.8185
 20
2.5084
 30
0.0
 10
-17.8185
 20
2.5084
 30
0.0
 10
-17.8185
 20
2.5084
 30
0.0
 10
-17.822
 20
2.3227
 30
0.0
 10
-17.822
 20
2.3227
 30
0.0
 10
-17.822
 20
2.3227
 30
0.0
 10
-17.822
 20
2.3227
 30
0.0
 10
-17.7436
 20
2.237
 30
0.0
 10
-17.7436
 20
2.237
 30
0.0
 10
-17.7436
 20
2.237
 30
0.0
 10
-17.7436
 20
2.237
 30
0.0
 10
-17.7472
 20
1.9155
 30
0.0
 10
-17.7472
 20
1.9155
 30
0.0
 10
-17.7472
 20
1.9155
 30
0.0
 10
-17.7472
 20
1.9155
 30
0.0
 10
-17.8042
 20
1.8584
 30
0.0
 10
-17.8042
 20
1.8584
 30
0.0
 10
-17.8042
 20
1.8584
 30
0.0
 10
-17.8042
 20
1.8584
 30
0.0
 10
-17.8114
 20
1.6548
 30
0.0
 10
-17.8114
 20
1.6548
 30
0.0
 10
-17.8114
 20
1.6548
 30
0.0
 10
-17.8114
 20
1.6548
 30
0.0
 10
-17.7401
 20
1.5726
 30
0.0
 10
-17.7401
 20
1.5726
 30
0.0
 10
-17.7401
 20
1.5726
 30
0.0
 10
-17.7401
 20
1.5726
 30
0.0
 10
-17.7401
 20
1.2512
 30
0.0
 10
-17.7401
 20
1.2512
 30
0.0
 10
-17.7401
 20
1.2512
 30
0.0
 10
-17.7401
 20
1.2512
 30
0.0
 10
-17.8114
 20
1.1726
 30
0.0
 10
-17.8114
 20
1.1726
 30
0.0
 10
-17.8114
 20
1.1726
 30
0.0
 10
-17.8114
 20
1.1726
 30
0.0
 10
-17.8149
 20
0.9869
 30
0.0
 10
-17.8149
 20
0.9869
 30
0.0
 10
-17.8149
 20
0.9869
 30
0.0
 10
-17.8149
 20
0.9869
 30
0.0
 10
-17.7472
 20
0.919
 30
0.0
 10
-17.7472
 20
0.919
 30
0.0
 10
-17.7472
 20
0.919
 30
0.0
 10
-17.7472
 20
0.919
 30
0.0
 10
-17.742
 20
0.5851
 30
0.0
 10
-17.742
 20
0.5851
 30
0.0
 10
-17.742
 20
0.5851
 30
0.0
 10
-17.742
 20
0.5851
 30
0.0
 10
-17.8148
 20
0.5291
 30
0.0
 10
-17.8148
 20
0.5291
 30
0.0
 10
-17.8148
 20
0.5291
 30
0.0
 10
-17.8148
 20
0.5291
 30
0.0
 10
-17.8148
 20
0.3387
 30
0.0
 10
-17.8148
 20
0.3387
 30
0.0
 10
-17.8148
 20
0.3387
 30
0.0
 10
-17.8148
 20
0.3387
 30
0.0
 10
-17.7476
 20
0.2491
 30
0.0
 10
-17.7476
 20
0.2491
 30
0.0
 10
-17.7476
 20
0.2491
 30
0.0
 10
-17.7476
 20
0.2491
 30
0.0
 10
-17.7476
 20
-0.0813
 30
0.0
 10
-17.7476
 20
-0.0813
 30
0.0
 10
-17.7476
 20
-0.0813
 30
0.0
 10
-17.7476
 20
-0.0813
 30
0.0
 10
-17.8148
 20
-0.1597
 30
0.0
 10
-17.8148
 20
-0.1597
 30
0.0
 10
-17.8148
 20
-0.1597
 30
0.0
 10
-17.8148
 20
-0.1597
 30
0.0
 10
-17.8148
 20
-0.3389
 30
0.0
 10
-17.8148
 20
-0.3389
 30
0.0
 10
-17.8148
 20
-0.3389
 30
0.0
 10
-17.8148
 20
-0.3389
 30
0.0
 10
-17.7532
 20
-0.4061
 30
0.0
 10
-17.7532
 20
-0.4061
 30
0.0
 10
-17.7532
 20
-0.4061
 30
0.0
 10
-17.7532
 20
-0.4061
 30
0.0
 10
-17.7532
 20
-0.7253
 30
0.0
 10
-17.7532
 20
-0.7253
 30
0.0
 10
-17.7532
 20
-0.7253
 30
0.0
 10
-17.7532
 20
-0.7253
 30
0.0
 10
-17.8148
 20
-0.8261
 30
0.0
 10
-17.8148
 20
-0.8261
 30
0.0
 10
-17.8148
 20
-0.8261
 30
0.0
 10
-17.8148
 20
-0.8261
 30
0.0
 10
-17.8133
 20
-1.0123
 30
0.0
 10
-17.8133
 20
-1.0123
 30
0.0
 10
-17.8133
 20
-1.0123
 30
0.0
 10
-17.8133
 20
-1.0123
 30
0.0
 10
-17.743
 20
-1.0827
 30
0.0
 10
-17.743
 20
-1.0827
 30
0.0
 10
-17.743
 20
-1.0827
 30
0.0
 10
-17.743
 20
-1.0827
 30
0.0
 10
-17.743
 20
-1.3895
 30
0.0
 10
-17.743
 20
-1.3895
 30
0.0
 10
-17.743
 20
-1.3895
 30
0.0
 10
-17.743
 20
-1.3895
 30
0.0
 10
-17.8174
 20
-1.489
 30
0.0
 10
-17.8174
 20
-1.489
 30
0.0
 10
-17.8174
 20
-1.489
 30
0.0
 10
-17.8174
 20
-1.489
 30
0.0
 10
-17.8174
 20
-1.717
 30
0.0
 10
-17.8174
 20
-1.717
 30
0.0
  0
SPLINE
  5
B1
330
1F
100
AcDbEntity
  8
AXIS
  6
NEW_LINE45
 62
   250
100
AcDbSpline
210
0.0
220
0.0
230
1.0
 70
     8
 71
     3
 72
    40
 73
    36
 74
     0
 42
0.0000000001
 43
0.0000000001
 40
0.0
 40
0.0
 40
0.0
 40
0.0
 40
0.1
 40
0.1
 40
0.1
 40
0.1
 40
0.2
 40
0.2
 40
0.2
 40
0.2
 40
0.3
 40
0.3
 40
0.3
 40
0.3
 40
0.4
 40
0.4
 40
0.4
 40
0.4
 40
0.5
 40
0.5
 40
0.5
 40
0.5
 40
0.6
 40
0.6
 40
0.6
 40
0.6
 40
0.7
 40
0.7
 40
0.7
 40
0.7
 40
0.8
 40
0.8
 40
0.8
 40
0.8
 40
1.0
 40
1.0
 40
1.0
 40
1.0
 10
-17.1524
 20
3.2728
 30
0.0
 10
-17.1524
 20
3.2728
 30
0.0
 10
-16.9418
 20
3.1461
 30
0.0
 10
-16.9418
 20
3.1461
 30
0.0
 10
-16.9418
 20
3.1461
 30
0.0
 10
-16.9418
 20
3.1461
 30
0.0
 10
-16.71
 20
3.0617
 30
0.0
 10
-16.71
 20
3.0617
 30
0.0
 10
-16.71
 20
3.0617
 30
0.0
 10
-16.71
 20
3.0617
 30
0.0
 10
-16.3449
 20
2.9632
 30
0.0
 10
-16.3449
 20
2.9632
 30
0.0
 10
-16.3449
 20
2.9632
 30
0.0
 10
-16.3449
 20
2.9632
 30
0.0
 10
-16.0921
 20
2.935
 30
0.0
 10
-16.0921
 20
2.935
 30
0.0
 10
-16.0921
 20
2.935
 30
0.0
 10
-16.0921
 20
2.935
 30
0.0
 10
-15.8113
 20
2.9561
 30
0.0
 10
-15.8113
 20
2.9561
 30
0.0
 10
-15.8113
 20
2.9561
 30
0.0
 10
-15.8113
 20
2.9561
 30
0.0
 10
-15.5725
 20
2.9913
 30
0.0
 10
-15.5725
 20
2.9913
 30
0.0
 10
-15.5725
 20
2.9913
 30
0.0
 10
-15.5725
 20
2.9913
 30
0.0
 10
-15.2706
 20
3.0546
 30
0.0
 10
-15.2706
 20
3.0546
 30
0.0
 10
-15.2706
 20
3.0546
 30
0.0
 10
-15.2706
 20
3.0546
 30
0.0
 10
-15.1021
 20
3.125
 30
0.0
 10
-15.1021
 20
3.125
 30
0.0
 10
-15.1021
 20
3.125
 30
0.0
 10
-15.1021
 20
3.125
 30
0.0
 10
-14.8002
 20
3.2657
 30
0.0
 10
-14.8002
 20
3.2657
 30
0.0
  0
SPLINE
  5
B3
330
1F
100
AcDbEntity
  8
AXIS
  6
NEW_LINE46
 62
   250
100
AcDbSpline
210
0.0
220
0.0
230
1.0
 70
     8
 71
     3
 72
    16
 73
    12
 74
     0
 42
0.0000000001
 43
0.0000000001
 40
0.0
 40
0.0
 40
0.0
 40
0.0
 40
0.25
 40
0.25
 40
0.25
 40
0.25
 40
0.5
 40
0.5
 40
0.5
 40
0.5
 40
1.0
 40
1.0
 40
1.0
 40
1.0
 10
-16.7754
 20
2.9021
 30
0.0
 10
-16.7754
 20
2.9021
 30
0.0
 10
-16.6118
 20
2.9366
 30
0.0
 10
-16.6118
 20
2.9366
 30
0.0
 10
-16.6118
 20
2.9366
 30
0.0
 10
-16.6118
 20
2.9366
 30
0.0
 10
-16.5042
 20
2.9538
 30
0.0
 10
-16.5042
 20
2.9538
 30
0.0
 10
-16.5042
 20
2.9538
 30
0.0
 10
-16.5042
 20
2.9538
 30
0.0
 10
-16.3493
 20
2.9797
 30
0.0
 10
-16.3493
 20
2.9797
 30
0.0
  0
SPLINE
  5
B5
330
1F
100
AcDbEntity
  8
AXIS
  6
NEW_LINE47
 62
   250
100
AcDbSpline
210
0.0
220
0.0
230
1.0
 70
     8
 71
     3
 72
    16
 73
    12
 74
     0
 42
0.0000000001
 43
0.0000000001
 40
0.0
 40
0.0
 40
0.0
 40
0.0
 40
0.25
 40
0.25
 40
0.25
 40
0.25
 40
0.5
 40
0.5
 40
0.5
 40
0.5
 40
1.0
 40
1.0
 40
1.0
 40
1.0
 10
-15.6478
 20
2.9926
 30
0.0
 10
-15.6478
 20
2.9926
 30
0.0
 10
-15.5101
 20
2.9797
 30
0.0
 10
-15.5101
 20
2.9797
 30
0.0
 10
-15.5101
 20
2.9797
 30
0.0
 10
-15.5101
 20
2.9797
 30
0.0
 10
-15.3208
 20
2.9452
 30
0.0
 10
-15.3208
 20
2.9452
 30
0.0
 10
-15.3208
 20
2.9452
 30
0.0
 10
-15.3208
 20
2.9452
 30
0.0
 10
-15.1615
 20
2.915
 30
0.0
 10
-15.1615
 20
2.915
 30
0.0
  0
SPLINE
  5
B7
330
1F
100
AcDbEntity
  8
AXIS
  6
NEW_LINE48
 62
   250
100
AcDbSpline
210
0.0
220
0.0
230
1.0
 70
     8
 71
     3
 72
    40
 73
    36
 74
     0
 42
0.0000000001
 43
0.0000000001
 40
0.0
 40
0.0
 40
0.0
 40
0.0
 40
0.1
 40
0.1
 40
0.1
 40
0.1
 40
0.2
 40
0.2
 40
0.2
 40
0.2
 40
0.3
 40
0.3
 40
0.3
 40
0.3
 40
0.4
 40
0.4
 40
0.4
 40
0.4
 40
0.5
 40
0.5
 40
0.5
 40
0.5
 40
0.6
 40
0.6
 40
0.6
 40
0.6
 40
0.7
 40
0.7
 40
0.7
 40
0.7
 40
0.8
 40
0.8
 40
0.8
 40
0.8
 40
1.0
 40
1.0
 40
1.0
 40
1.0
 10
-13.8505
 20
2.9091
 30
0.0
 10
-13.8505
 20
2.9091
 30
0.0
 10
-13.7709
 20
2.9426
 30
0.0
 10
-13.7709
 20
2.9426
 30
0.0
 10
-13.7709
 20
2.9426
 30
0.0
 10
-13.7709
 20
2.9426
 30
0.0
 10
-13.696
 20
2.9726
 30
0.0
 10
-13.696
 20
2.9726
 30
0.0
 10
-13.696
 20
2.9726
 30
0.0
 10
-13.696
 20
2.9726
 30
0.0
 10
-13.6338
 20
2.9911
 30
0.0
 10
-13.6338
 20
2.9911
 30
0.0
 10
-13.6338
 20
2.9911
 30
0.0
 10
-13.6338
 20
2.9911
 30
0.0
 10
-13.5969
 20
3.0026
 30
0.0
 10
-13.5969
 20
3.0026
 30
0.0
 10
-13.5969
 20
3.0026
 30
0.0
 10
-13.5969
 20
3.0026
 30
0.0
 10
-13.5784
 20
3.0015
 30
0.0
 10
-13.5784
 20
3.0015
 30
0.0
 10
-13.5784
 20
3.0015
 30
0.0
 10
-13.5784
 20
3.0015
 30
0.0
 10
-13.568
 20
2.998
 30
0.0
 10
-13.568
 20
2.998
 30
0.0
 10
-13.568
 20
2.998
 30
0.0
 10
-13.568
 20
2.998
 30
0.0
 10
-13.5588
 20
2.9865
 30
0.0
 10
-13.5588
 20
2.9865
 30
0.0
 10
-13.5588
 20
2.9865
 30
0.0
 10
-13.5588
 20
2.9865
 30
0.0
 10
-13.5657
 20
2.9634
 30
0.0
 10
-13.5657
 20
2.9634
 30
0.0
 10
-13.5657
 20
2.9634
 30
0.0
 10
-13.5657
 20
2.9634
 30
0.0
 10
-13.6303
 20
2.9056
 30
0.0
 10
-13.6303
 20
2.9056
 30
0.0
  0
SPLINE
  5
B9
330
1F
100
AcDbEntity
  8
AXIS
  6
NEW_LINE49
 62
   250
100
AcDbSpline
210
0.0
220
0.0
230
1.0
 70
    24
 71
     3
 72
     8
 73
     4
 74
     0
 42
0.0000000001
 43
0.0000000001
 40
0.0
 40
0.0
 40
0.0
 40
0.0
 40
1.0
 40
1.0
 40
1.0
 40
1.0
 10
-13.5613
 20
3.0786
 30
0.0
 10
-13.5613
 20
3.0786
 30
0.0
 10
-13.5613
 20
2.9855
 30
0.0
 10
-13.5613
 20
2.9855
 30
0.0
  0
SPLINE
  5
BB
330
1F
100
AcDbEntity
  8
AXIS
  6
NEW_LINE50
 62
   250
100
AcDbSpline
210
0.0
220
0.0
230
1.0
 70
     8
 71
     3
 72
    28
 73
    24
 74
     0
 42
0.0000000001
 43
0.0000000001
 40
0.0
 40
0.0
 40
0.0
 40
0.0
 40
0.1428571428571428
 40
0.1428571428571428
 40
0.1428571428571428
 40
0.1428571428571428
 40
0.2857142857142857
 40
0.2857142857142857
 40
0.2857142857142857
 40
0.2857142857142857
 40
0.4285714285714285
 40
0.4285714285714285
 40
0.4285714285714285
 40
0.4285714285714285
 40
0.5714285714285714
 40
0.5714285714285714
 40
0.5714285714285714
 40
0.5714285714285714
 40
0.7142857142857143
 40
0.7142857142857143
 40
0.7142857142857143
 40
0.7142857142857143
 40
1.0
 40
1.0
 40
1.0
 40
1.0
 10
-13.6274
 20
2.1142
 30
0.0
 10
-13.6274
 20
2.1142
 30
0.0
 10
-13.6233
 20
1.9328
 30
0.0
 10
-13.6233
 20
1.9328
 30
0.0
 10
-13.6233
 20
1.9328
 30
0.0
 10
-13.6233
 20
1.9328
 30
0.0
 10
-13.5698
 20
1.8751
 30
0.0
 10
-13.5698
 20
1.8751
 30
0.0
 10
-13.5698
 20
1.8751
 30
0.0
 10
-13.5698
 20
1.8751
 30
0.0
 10
-13.5698
 20
1.8339
 30
0.0
 10
-13.5698
 20
1.8339
 30
0.0
 10
-13.5698
 20
1.8339
 30
0.0
 10
-13.5698
 20
1.8339
 30
0.0
 10
-13.5945
 20
1.8133
 30
0.0
 10
-13.5945
 20
1.8133
 30
0.0
 10
-13.5945
 20
1.8133
 30
0.0
 10
-13.5945
 20
1.8133
 30
0.0
 10
-13.8619
 20
1.9081
 30
0.0
 10
-13.8619
 20
1.9081
 30
0.0
 10
-13.8619
 20
1.9081
 30
0.0
 10
-13.8619
 20
1.9081
 30
0.0
 10
-13.8578
 20
2.1183
 30
0.0
 10
-13.8578
 20
2.1183
 30
0.0
  0
SPLINE
  5
BD
330
1F
100
AcDbEntity
  8
AXIS
  6
NEW_LINE51
 62
   250
100
AcDbSpline
210
0.0
220
0.0
230
1.0
 70
    11
 71
     3
 72
    48
 73
    44
 74
     0
 42
0.0000000001
 43
0.0000000001
 40
0.0
 40
0.0
 40
0.0
 40
0.0
 40
0.0833333333333333
 40
0.0833333333333333
 40
0.0833333333333333
 40
0.0833333333333333
 40
0.1666666666666667
 40
0.1666666666666667
 40
0.1666666666666667
 40
0.1666666666666667
 40
0.25
 40
0.25
 40
0.25
 40
0.25
 40
0.3333333333333333
 40
0.3333333333333333
 40
0.3333333333333333
 40
0.3333333333333333
 40
0.4166666666666667
 40
0.4166666666666667
 40
0.4166666666666667
 40
0.4166666666666667
 40
0.5
 40
0.5
 40
0.5
 40
0.5
 40
0.5833333333333334
 40
0.5833333333333334
 40
0.5833333333333334
 40
0.5833333333333334
 40
0.6666666666666666
 40
0.6666666666666666
 40
0.6666666666666666
 40
0.6666666666666666
 40
0.75
 40
0.75
 40
0.75
 40
0.75
 40
0.8333333333333334
 40
0.8333333333333334
 40
0.8333333333333334
 40
0.8333333333333334
 40
1.0
 40
1.0
 40
1.0
 40
1.0
 10
-13.6133
 20
1.6743
 30
0.0
 10
-13.6133
 20
1.6743
 30
0.0
 10
-13.5612
 20
1.6655
 30
0.0
 10
-13.5612
 20
1.6655
 30
0.0
 10
-13.5612
 20
1.6655
 30
0.0
 10
-13.5612
 20
1.6655
 30
0.0
 10
-13.5698
 20
1.622
 30
0.0
 10
-13.5698
 20
1.622
 30
0.0
 10
-13.5698
 20
1.622
 30
0.0
 10
-13.5698
 20
1.622
 30
0.0
 10
-13.622
 20
1.5697
 30
0.0
 10
-13.622
 20
1.5697
 30
0.0
 10
-13.622
 20
1.5697
 30
0.0
 10
-13.622
 20
1.5697
 30
0.0
 10
-13.623
 20
1.4737
 30
0.0
 10
-13.623
 20
1.4737
 30
0.0
 10
-13.623
 20
1.4737
 30
0.0
 10
-13.623
 20
1.4737
 30
0.0
 10
-13.6189
 20
1.2923
 30
0.0
 10
-13.6189
 20
1.2923
 30
0.0
 10
-13.6189
 20
1.2923
 30
0.0
 10
-13.6189
 20
1.2923
 30
0.0
 10
-13.5654
 20
1.2346
 30
0.0
 10
-13.5654
 20
1.2346
 30
0.0
 10
-13.5654
 20
1.2346
 30
0.0
 10
-13.5654
 20
1.2346
 30
0.0
 10
-13.5654
 20
1.1934
 30
0.0
 10
-13.5654
 20
1.1934
 30
0.0
 10
-13.5654
 20
1.1934
 30
0.0
 10
-13.5654
 20
1.1934
 30
0.0
 10
-13.5901
 20
1.1728
 30
0.0
 10
-13.5901
 20
1.1728
 30
0.0
 10
-13.5901
 20
1.1728
 30
0.0
 10
-13.5901
 20
1.1728
 30
0.0
 10
-13.8575
 20
1.2676
 30
0.0
 10
-13.8575
 20
1.2676
 30
0.0
 10
-13.8575
 20
1.2676
 30
0.0
 10
-13.8575
 20
1.2676
 30
0.0
 10
-13.8577
 20
1.5693
 30
0.0
 10
-13.8577
 20
1.5693
 30
0.0
 10
-13.8577
 20
1.5693
 30
0.0
 10
-13.8577
 20
1.5693
 30
0.0
 10
-13.6133
 20
1.6743
 30
0.0
 10
-13.6133
 20
1.6743
 30
0.0
  0
SPLINE
  5
BF
330
1F
100
AcDbEntity
  8
AXIS
  6
NEW_LINE52
 62
   250
100
AcDbSpline
210
0.0
220
0.0
230
1.0
 70
    11
 71
     3
 72
    48
 73
    44
 74
     0
 42
0.0000000001
 43
0.0000000001
 40
0.0
 40
0.0
 40
0.0
 40
0.0
 40
0.0833333333333333
 40
0.0833333333333333
 40
0.0833333333333333
 40
0.0833333333333333
 40
0.1666666666666667
 40
0.1666666666666667
 40
0.1666666666666667
 40
0.1666666666666667
 40
0.25
 40
0.25
 40
0.25
 40
0.25
 40
0.3333333333333333
 40
0.3333333333333333
 40
0.3333333333333333
 40
0.3333333333333333
 40
0.4166666666666667
 40
0.4166666666666667
 40
0.4166666666666667
 40
0.4166666666666667
 40
0.5
 40
0.5
 40
0.5
 40
0.5
 40
0.5833333333333334
 40
0.5833333333333334
 40
0.5833333333333334
 40
0.5833333333333334
 40
0.6666666666666666
 40
0.6666666666666666
 40
0.6666666666666666
 40
0.6666666666666666
 40
0.75
 40
0.75
 40
0.75
 40
0.75
 40
0.8333333333333334
 40
0.8333333333333334
 40
0.8333333333333334
 40
0.8333333333333334
 40
1.0
 40
1.0
 40
1.0
 40
1.0
 10
-13.5995
 20
0.9997
 30
0.0
 10
-13.5995
 20
0.9997
 30
0.0
 10
-13.5474
 20
0.9909
 30
0.0
 10
-13.5474
 20
0.9909
 30
0.0
 10
-13.5474
 20
0.9909
 30
0.0
 10
-13.5474
 20
0.9909
 30
0.0
 10
-13.556
 20
0.9474
 30
0.0
 10
-13.556
 20
0.9474
 30
0.0
 10
-13.556
 20
0.9474
 30
0.0
 10
-13.556
 20
0.9474
 30
0.0
 10
-13.6082
 20
0.8951
 30
0.0
 10
-13.6082
 20
0.8951
 30
0.0
 10
-13.6082
 20
0.8951
 30
0.0
 10
-13.6082
 20
0.8951
 30
0.0
 10
-13.6092
 20
0.7991
 30
0.0
 10
-13.6092
 20
0.7991
 30
0.0
 10
-13.6092
 20
0.7991
 30
0.0
 10
-13.6092
 20
0.7991
 30
0.0
 10
-13.6051
 20
0.6177
 30
0.0
 10
-13.6051
 20
0.6177
 30
0.0
 10
-13.6051
 20
0.6177
 30
0.0
 10
-13.6051
 20
0.6177
 30
0.0
 10
-13.5516
 20
0.56
 30
0.0
 10
-13.5516
 20
0.56
 30
0.0
 10
-13.5516
 20
0.56
 30
0.0
 10
-13.5516
 20
0.56
 30
0.0
 10
-13.5516
 20
0.5188
 30
0.0
 10
-13.5516
 20
0.5188
 30
0.0
 10
-13.5516
 20
0.5188
 30
0.0
 10
-13.5516
 20
0.5188
 30
0.0
 10
-13.5763
 20
0.4982
 30
0.0
 10
-13.5763
 20
0.4982
 30
0.0
 10
-13.5763
 20
0.4982
 30
0.0
 10
-13.5763
 20
0.4982
 30
0.0
 10
-13.8437
 20
0.593
 30
0.0
 10
-13.8437
 20
0.593
 30
0.0
 10
-13.8437
 20
0.593
 30
0.0
 10
-13.8437
 20
0.593
 30
0.0
 10
-13.8439
 20
0.8947
 30
0.0
 10
-13.8439
 20
0.8947
 30
0.0
 10
-13.8439
 20
0.8947
 30
0.0
 10
-13.8439
 20
0.8947
 30
0.0
 10
-13.5995
 20
0.9997
 30
0.0
 10
-13.5995
 20
0.9997
 30
0.0
  0
SPLINE
  5
C1
330
1F
100
AcDbEntity
  8
AXIS
  6
NEW_LINE53
 62
   250
100
AcDbSpline
210
0.0
220
0.0
230
1.0
 70
    11
 71
     3
 72
    48
 73
    44
 74
     0
 42
0.0000000001
 43
0.0000000001
 40
0.0
 40
0.0
 40
0.0
 40
0.0
 40
0.0833333333333333
 40
0.0833333333333333
 40
0.0833333333333333
 40
0.0833333333333333
 40
0.1666666666666667
 40
0.1666666666666667
 40
0.1666666666666667
 40
0.1666666666666667
 40
0.25
 40
0.25
 40
0.25
 40
0.25
 40
0.3333333333333333
 40
0.3333333333333333
 40
0.3333333333333333
 40
0.3333333333333333
 40
0.4166666666666667
 40
0.4166666666666667
 40
0.4166666666666667
 40
0.4166666666666667
 40
0.5
 40
0.5
 40
0.5
 40
0.5
 40
0.5833333333333334
 40
0.5833333333333334
 40
0.5833333333333334
 40
0.5833333333333334
 40
0.6666666666666666
 40
0.6666666666666666
 40
0.6666666666666666
 40
0.6666666666666666
 40
0.75
 40
0.75
 40
0.75
 40
0.75
 40
0.8333333333333334
 40
0.8333333333333334
 40
0.8333333333333334
 40
0.8333333333333334
 40
1.0
 40
1.0
 40
1.0
 40
1.0
 10
-13.6041
 20
0.3343
 30
0.0
 10
-13.6041
 20
0.3343
 30
0.0
 10
-13.552
 20
0.3255
 30
0.0
 10
-13.552
 20
0.3255
 30
0.0
 10
-13.552
 20
0.3255
 30
0.0
 10
-13.552
 20
0.3255
 30
0.0
 10
-13.5606
 20
0.282
 30
0.0
 10
-13.5606
 20
0.282
 30
0.0
 10
-13.5606
 20
0.282
 30
0.0
 10
-13.5606
 20
0.282
 30
0.0
 10
-13.6128
 20
0.2297
 30
0.0
 10
-13.6128
 20
0.2297
 30
0.0
 10
-13.6128
 20
0.2297
 30
0.0
 10
-13.6128
 20
0.2297
 30
0.0
 10
-13.6138
 20
0.1337
 30
0.0
 10
-13.6138
 20
0.1337
 30
0.0
 10
-13.6138
 20
0.1337
 30
0.0
 10
-13.6138
 20
0.1337
 30
0.0
 10
-13.6097
 20
-0.0477
 30
0.0
 10
-13.6097
 20
-0.0477
 30
0.0
 10
-13.6097
 20
-0.0477
 30
0.0
 10
-13.6097
 20
-0.0477
 30
0.0
 10
-13.5562
 20
-0.1054
 30
0.0
 10
-13.5562
 20
-0.1054
 30
0.0
 10
-13.5562
 20
-0.1054
 30
0.0
 10
-13.5562
 20
-0.1054
 30
0.0
 10
-13.5562
 20
-0.1466
 30
0.0
 10
-13.5562
 20
-0.1466
 30
0.0
 10
-13.5562
 20
-0.1466
 30
0.0
 10
-13.5562
 20
-0.1466
 30
0.0
 10
-13.5809
 20
-0.1672
 30
0.0
 10
-13.5809
 20
-0.1672
 30
0.0
 10
-13.5809
 20
-0.1672
 30
0.0
 10
-13.5809
 20
-0.1672
 30
0.0
 10
-13.8483
 20
-0.0724
 30
0.0
 10
-13.8483
 20
-0.0724
 30
0.0
 10
-13.8483
 20
-0.0724
 30
0.0
 10
-13.8483
 20
-0.0724
 30
0.0
 10
-13.8485
 20
0.2293
 30
0.0
 10
-13.8485
 20
0.2293
 30
0.0
 10
-13.8485
 20
0.2293
 30
0.0
 10
-13.8485
 20
0.2293
 30
0.0
 10
-13.6041
 20
0.3343
 30
0.0
 10
-13.6041
 20
0.3343
 30
0.0
  0
SPLINE
  5
C3
330
1F
100
AcDbEntity
  8
AXIS
  6
NEW_LINE54
 62
   250
100
AcDbSpline
210
0.0
220
0.0
230
1.0
 70
    11
 71
     3
 72
    48
 73
    44
 74
     0
 42
0.0000000001
 43
0.0000000001
 40
0.0
 40
0.0
 40
0.0
 40
0.0
 40
0.0833333333333333
 40
0.0833333333333333
 40
0.0833333333333333
 40
0.0833333333333333
 40
0.1666666666666667
 40
0.1666666666666667
 40
0.1666666666666667
 40
0.1666666666666667
 40
0.25
 40
0.25
 40
0.25
 40
0.25
 40
0.3333333333333333
 40
0.3333333333333333
 40
0.3333333333333333
 40
0.3333333333333333
 40
0.4166666666666667
 40
0.4166666666666667
 40
0.4166666666666667
 40
0.4166666666666667
 40
0.5
 40
0.5
 40
0.5
 40
0.5
 40
0.5833333333333334
 40
0.5833333333333334
 40
0.5833333333333334
 40
0.5833333333333334
 40
0.6666666666666666
 40
0.6666666666666666
 40
0.6666666666666666
 40
0.6666666666666666
 40
0.75
 40
0.75
 40
0.75
 40
0.75
 40
0.8333333333333334
 40
0.8333333333333334
 40
0.8333333333333334
 40
0.8333333333333334
 40
1.0
 40
1.0
 40
1.0
 40
1.0
 10
-13.6179
 20
-0.3311
 30
0.0
 10
-13.6179
 20
-0.3311
 30
0.0
 10
-13.5658
 20
-0.3399
 30
0.0
 10
-13.5658
 20
-0.3399
 30
0.0
 10
-13.5658
 20
-0.3399
 30
0.0
 10
-13.5658
 20
-0.3399
 30
0.0
 10
-13.5744
 20
-0.3834
 30
0.0
 10
-13.5744
 20
-0.3834
 30
0.0
 10
-13.5744
 20
-0.3834
 30
0.0
 10
-13.5744
 20
-0.3834
 30
0.0
 10
-13.6266
 20
-0.4357
 30
0.0
 10
-13.6266
 20
-0.4357
 30
0.0
 10
-13.6266
 20
-0.4357
 30
0.0
 10
-13.6266
 20
-0.4357
 30
0.0
 10
-13.6276
 20
-0.5317
 30
0.0
 10
-13.6276
 20
-0.5317
 30
0.0
 10
-13.6276
 20
-0.5317
 30
0.0
 10
-13.6276
 20
-0.5317
 30
0.0
 10
-13.6235
 20
-0.7131
 30
0.0
 10
-13.6235
 20
-0.7131
 30
0.0
 10
-13.6235
 20
-0.7131
 30
0.0
 10
-13.6235
 20
-0.7131
 30
0.0
 10
-13.57
 20
-0.7708
 30
0.0
 10
-13.57
 20
-0.7708
 30
0.0
 10
-13.57
 20
-0.7708
 30
0.0
 10
-13.57
 20
-0.7708
 30
0.0
 10
-13.57
 20
-0.812
 30
0.0
 10
-13.57
 20
-0.812
 30
0.0
 10
-13.57
 20
-0.812
 30
0.0
 10
-13.57
 20
-0.812
 30
0.0
 10
-13.5947
 20
-0.8326
 30
0.0
 10
-13.5947
 20
-0.8326
 30
0.0
 10
-13.5947
 20
-0.8326
 30
0.0
 10
-13.5947
 20
-0.8326
 30
0.0
 10
-13.8621
 20
-0.7378
 30
0.0
 10
-13.8621
 20
-0.7378
 30
0.0
 10
-13.8621
 20
-0.7378
 30
0.0
 10
-13.8621
 20
-0.7378
 30
0.0
 10
-13.8623
 20
-0.4361
 30
0.0
 10
-13.8623
 20
-0.4361
 30
0.0
 10
-13.8623
 20
-0.4361
 30
0.0
 10
-13.8623
 20
-0.4361
 30
0.0
 10
-13.6179
 20
-0.3311
 30
0.0
 10
-13.6179
 20
-0.3311
 30
0.0
  0
SPLINE
  5
C5
330
1F
100
AcDbEntity
  8
AXIS
  6
NEW_LINE55
 62
   250
100
AcDbSpline
210
0.0
220
0.0
230
1.0
 70
    24
 71
     3
 72
     8
 73
     4
 74
     0
 42
0.0000000001
 43
0.0000000001
 40
0.0
 40
0.0
 40
0.0
 40
0.0
 40
1.0
 40
1.0
 40
1.0
 40
1.0
 10
-13.5639
 20
1.8467
 30
0.0
 10
-13.5639
 20
1.8467
 30
0.0
 10
-13.5593
 20
1.6572
 30
0.0
 10
-13.5593
 20
1.6572
 30
0.0
  0
SPLINE
  5
C7
330
1F
100
AcDbEntity
  8
AXIS
  6
NEW_LINE56
 62
   250
100
AcDbSpline
210
0.0
220
0.0
230
1.0
 70
    24
 71
     3
 72
     8
 73
     4
 74
     0
 42
0.0000000001
 43
0.0000000001
 40
0.0
 40
0.0
 40
0.0
 40
0.0
 40
1.0
 40
1.0
 40
1.0
 40
1.0
 10
-13.5639
 20
1.1974
 30
0.0
 10
-13.5639
 20
1.1974
 30
0.0
 10
-13.5593
 20
1.0079
 30
0.0
 10
-13.5593
 20
1.0079
 30
0.0
  0
SPLINE
  5
C9
330
1F
100
AcDbEntity
  8
AXIS
  6
NEW_LINE57
 62
   250
100
AcDbSpline
210
0.0
220
0.0
230
1.0
 70
    24
 71
     3
 72
     8
 73
     4
 74
     0
 42
0.0000000001
 43
0.0000000001
 40
0.0
 40
0.0
 40
0.0
 40
0.0
 40
1.0
 40
1.0
 40
1.0
 40
1.0
 10
-13.559
 20
0.5089
 30
0.0
 10
-13.559
 20
0.5089
 30
0.0
 10
-13.5544
 20
0.3194
 30
0.0
 10
-13.5544
 20
0.3194
 30
0.0
  0
SPLINE
  5
CB
330
1F
100
AcDbEntity
  8
AXIS
  6
NEW_LINE58
 62
   250
100
AcDbSpline
210
0.0
220
0.0
230
1.0
 70
    24
 71
     3
 72
     8
 73
     4
 74
     0
 42
0.0000000001
 43
0.0000000001
 40
0.0
 40
0.0
 40
0.0
 40
0.0
 40
1.0
 40
1.0
 40
1.0
 40
1.0
 10
-13.5688
 20
-0.16
 30
0.0
 10
-13.5688
 20
-0.16
 30
0.0
 10
-13.5642
 20
-0.3495
 30
0.0
 10
-13.5642
 20
-0.3495
 30
0.0
  0
SPLINE
  5
CD
330
1F
100
AcDbEntity
  8
AXIS
  6
NEW_LINE59
 62
   250
100
AcDbSpline
210
0.0
220
0.0
230
1.0
 70
     8
 71
     3
 72
    36
 73
    32
 74
     0
 42
0.0000000001
 43
0.0000000001
 40
0.0
 40
0.0
 40
0.0
 40
0.0
 40
0.1111111111111111
 40
0.1111111111111111
 40
0.1111111111111111
 40
0.1111111111111111
 40
0.2222222222222222
 40
0.2222222222222222
 40
0.2222222222222222
 40
0.2222222222222222
 40
0.3333333333333333
 40
0.3333333333333333
 40
0.3333333333333333
 40
0.3333333333333333
 40
0.4444444444444444
 40
0.4444444444444444
 40
0.4444444444444444
 40
0.4444444444444444
 40
0.5555555555555556
 40
0.5555555555555556
 40
0.5555555555555556
 40
0.5555555555555556
 40
0.6666666666666666
 40
0.6666666666666666
 40
0.6666666666666666
 40
0.6666666666666666
 40
0.7777777777777778
 40
0.7777777777777778
 40
0.7777777777777778
 40
0.7777777777777778
 40
1.0
 40
1.0
 40
1.0
 40
1.0
 10
-16.7662
 20
2.1187
 30
0.0
 10
-16.7662
 20
2.1187
 30
0.0
 10
-16.7662
 20
1.9209
 30
0.0
 10
-16.7662
 20
1.9209
 30
0.0
 10
-16.7662
 20
1.9209
 30
0.0
 10
-16.7662
 20
1.9209
 30
0.0
 10
-16.4442
 20
1.8519
 30
0.0
 10
-16.4442
 20
1.8519
 30
0.0
 10
-16.4442
 20
1.8519
 30
0.0
 10
-16.4442
 20
1.8519
 30
0.0
 10
-16.1406
 20
1.8243
 30
0.0
 10
-16.1406
 20
1.8243
 30
0.0
 10
-16.1406
 20
1.8243
 30
0.0
 10
-16.1406
 20
1.8243
 30
0.0
 10
-15.8508
 20
1.8289
 30
0.0
 10
-15.8508
 20
1.8289
 30
0.0
 10
-15.8508
 20
1.8289
 30
0.0
 10
-15.8508
 20
1.8289
 30
0.0
 10
-15.6162
 20
1.8427
 30
0.0
 10
-15.6162
 20
1.8427
 30
0.0
 10
-15.6162
 20
1.8427
 30
0.0
 10
-15.6162
 20
1.8427
 30
0.0
 10
-15.4184
 20
1.8657
 30
0.0
 10
-15.4184
 20
1.8657
 30
0.0
 10
-15.4184
 20
1.8657
 30
0.0
 10
-15.4184
 20
1.8657
 30
0.0
 10
-15.1562
 20
1.9209
 30
0.0
 10
-15.1562
 20
1.9209
 30
0.0
 10
-15.1562
 20
1.9209
 30
0.0
 10
-15.1562
 20
1.9209
 30
0.0
 10
-15.1562
 20
2.1141
 30
0.0
 10
-15.1562
 20
2.1141
 30
0.0
  0
SPLINE
  5
CF
330
1F
100
AcDbEntity
  8
AXIS
  6
NEW_LINE60
 62
   250
100
AcDbSpline
210
0.0
220
0.0
230
1.0
 70
    11
 71
     3
 72
    64
 73
    60
 74
     0
 42
0.0000000001
 43
0.0000000001
 40
0.0
 40
0.0
 40
0.0
 40
0.0
 40
0.0625
 40
0.0625
 40
0.0625
 40
0.0625
 40
0.125
 40
0.125
 40
0.125
 40
0.125
 40
0.1875
 40
0.1875
 40
0.1875
 40
0.1875
 40
0.25
 40
0.25
 40
0.25
 40
0.25
 40
0.3125
 40
0.3125
 40
0.3125
 40
0.3125
 40
0.375
 40
0.375
 40
0.375
 40
0.375
 40
0.4375
 40
0.4375
 40
0.4375
 40
0.4375
 40
0.5
 40
0.5
 40
0.5
 40
0.5
 40
0.5625
 40
0.5625
 40
0.5625
 40
0.5625
 40
0.625
 40
0.625
 40
0.625
 40
0.625
 40
0.6875
 40
0.6875
 40
0.6875
 40
0.6875
 40
0.75
 40
0.75
 40
0.75
 40
0.75
 40
0.8125
 40
0.8125
 40
0.8125
 40
0.8125
 40
0.875
 40
0.875
 40
0.875
 40
0.875
 40
1.0
 40
1.0
 40
1.0
 40
1.0
 10
-16.7616
 20
1.5667
 30
0.0
 10
-16.7616
 20
1.5667
 30
0.0
 10
-16.4856
 20
1.6311
 30
0.0
 10
-16.4856
 20
1.6311
 30
0.0
 10
-16.4856
 20
1.6311
 30
0.0
 10
-16.4856
 20
1.6311
 30
0.0
 10
-16.2694
 20
1.6587
 30
0.0
 10
-16.2694
 20
1.6587
 30
0.0
 10
-16.2694
 20
1.6587
 30
0.0
 10
-16.2694
 20
1.6587
 30
0.0
 10
-16.0256
 20
1.6725
 30
0.0
 10
-16.0256
 20
1.6725
 30
0.0
 10
-16.0256
 20
1.6725
 30
0.0
 10
-16.0256
 20
1.6725
 30
0.0
 10
-15.8002
 20
1.6725
 30
0.0
 10
-15.8002
 20
1.6725
 30
0.0
 10
-15.8002
 20
1.6725
 30
0.0
 10
-15.8002
 20
1.6725
 30
0.0
 10
-15.5334
 20
1.6495
 30
0.0
 10
-15.5334
 20
1.6495
 30
0.0
 10
-15.5334
 20
1.6495
 30
0.0
 10
-15.5334
 20
1.6495
 30
0.0
 10
-15.285
 20
1.6173
 30
0.0
 10
-15.285
 20
1.6173
 30
0.0
 10
-15.285
 20
1.6173
 30
0.0
 10
-15.285
 20
1.6173
 30
0.0
 10
-15.1562
 20
1.5713
 30
0.0
 10
-15.1562
 20
1.5713
 30
0.0
 10
-15.1562
 20
1.5713
 30
0.0
 10
-15.1562
 20
1.5713
 30
0.0
 10
-15.1516
 20
1.2493
 30
0.0
 10
-15.1516
 20
1.2493
 30
0.0
 10
-15.1516
 20
1.2493
 30
0.0
 10
-15.1516
 20
1.2493
 30
0.0
 10
-15.4138
 20
1.1941
 30
0.0
 10
-15.4138
 20
1.1941
 30
0.0
 10
-15.4138
 20
1.1941
 30
0.0
 10
-15.4138
 20
1.1941
 30
0.0
 10
-15.6116
 20
1.1711
 30
0.0
 10
-15.6116
 20
1.1711
 30
0.0
 10
-15.6116
 20
1.1711
 30
0.0
 10
-15.6116
 20
1.1711
 30
0.0
 10
-15.8462
 20
1.1573
 30
0.0
 10
-15.8462
 20
1.1573
 30
0.0
 10
-15.8462
 20
1.1573
 30
0.0
 10
-15.8462
 20
1.1573
 30
0.0
 10
-16.136
 20
1.1527
 30
0.0
 10
-16.136
 20
1.1527
 30
0.0
 10
-16.136
 20
1.1527
 30
0.0
 10
-16.136
 20
1.1527
 30
0.0
 10
-16.4396
 20
1.1803
 30
0.0
 10
-16.4396
 20
1.1803
 30
0.0
 10
-16.4396
 20
1.1803
 30
0.0
 10
-16.4396
 20
1.1803
 30
0.0
 10
-16.7616
 20
1.2493
 30
0.0
 10
-16.7616
 20
1.2493
 30
0.0
 10
-16.7616
 20
1.2493
 30
0.0
 10
-16.7616
 20
1.2493
 30
0.0
 10
-16.7616
 20
1.5667
 30
0.0
 10
-16.7616
 20
1.5667
 30
0.0
  0
SPLINE
  5
D1
330
1F
100
AcDbEntity
  8
AXIS
  6
NEW_LINE61
 62
   250
100
AcDbSpline
210
0.0
220
0.0
230
1.0
 70
    11
 71
     3
 72
    64
 73
    60
 74
     0
 42
0.0000000001
 43
0.0000000001
 40
0.0
 40
0.0
 40
0.0
 40
0.0
 40
0.0625
 40
0.0625
 40
0.0625
 40
0.0625
 40
0.125
 40
0.125
 40
0.125
 40
0.125
 40
0.1875
 40
0.1875
 40
0.1875
 40
0.1875
 40
0.25
 40
0.25
 40
0.25
 40
0.25
 40
0.3125
 40
0.3125
 40
0.3125
 40
0.3125
 40
0.375
 40
0.375
 40
0.375
 40
0.375
 40
0.4375
 40
0.4375
 40
0.4375
 40
0.4375
 40
0.5
 40
0.5
 40
0.5
 40
0.5
 40
0.5625
 40
0.5625
 40
0.5625
 40
0.5625
 40
0.625
 40
0.625
 40
0.625
 40
0.625
 40
0.6875
 40
0.6875
 40
0.6875
 40
0.6875
 40
0.75
 40
0.75
 40
0.75
 40
0.75
 40
0.8125
 40
0.8125
 40
0.8125
 40
0.8125
 40
0.875
 40
0.875
 40
0.875
 40
0.875
 40
1.0
 40
1.0
 40
1.0
 40
1.0
 10
-16.7814
 20
0.9067
 30
0.0
 10
-16.7814
 20
0.9067
 30
0.0
 10
-16.5054
 20
0.9711
 30
0.0
 10
-16.5054
 20
0.9711
 30
0.0
 10
-16.5054
 20
0.9711
 30
0.0
 10
-16.5054
 20
0.9711
 30
0.0
 10
-16.2892
 20
0.9987
 30
0.0
 10
-16.2892
 20
0.9987
 30
0.0
 10
-16.2892
 20
0.9987
 30
0.0
 10
-16.2892
 20
0.9987
 30
0.0
 10
-16.0454
 20
1.0125
 30
0.0
 10
-16.0454
 20
1.0125
 30
0.0
 10
-16.0454
 20
1.0125
 30
0.0
 10
-16.0454
 20
1.0125
 30
0.0
 10
-15.82
 20
1.0125
 30
0.0
 10
-15.82
 20
1.0125
 30
0.0
 10
-15.82
 20
1.0125
 30
0.0
 10
-15.82
 20
1.0125
 30
0.0
 10
-15.5532
 20
0.9895
 30
0.0
 10
-15.5532
 20
0.9895
 30
0.0
 10
-15.5532
 20
0.9895
 30
0.0
 10
-15.5532
 20
0.9895
 30
0.0
 10
-15.3048
 20
0.9573
 30
0.0
 10
-15.3048
 20
0.9573
 30
0.0
 10
-15.3048
 20
0.9573
 30
0.0
 10
-15.3048
 20
0.9573
 30
0.0
 10
-15.176
 20
0.9113
 30
0.0
 10
-15.176
 20
0.9113
 30
0.0
 10
-15.176
 20
0.9113
 30
0.0
 10
-15.176
 20
0.9113
 30
0.0
 10
-15.1714
 20
0.5893
 30
0.0
 10
-15.1714
 20
0.5893
 30
0.0
 10
-15.1714
 20
0.5893
 30
0.0
 10
-15.1714
 20
0.5893
 30
0.0
 10
-15.4336
 20
0.5341
 30
0.0
 10
-15.4336
 20
0.5341
 30
0.0
 10
-15.4336
 20
0.5341
 30
0.0
 10
-15.4336
 20
0.5341
 30
0.0
 10
-15.6314
 20
0.5111
 30
0.0
 10
-15.6314
 20
0.5111
 30
0.0
 10
-15.6314
 20
0.5111
 30
0.0
 10
-15.6314
 20
0.5111
 30
0.0
 10
-15.866
 20
0.4973
 30
0.0
 10
-15.866
 20
0.4973
 30
0.0
 10
-15.866
 20
0.4973
 30
0.0
 10
-15.866
 20
0.4973
 30
0.0
 10
-16.1558
 20
0.4927
 30
0.0
 10
-16.1558
 20
0.4927
 30
0.0
 10
-16.1558
 20
0.4927
 30
0.0
 10
-16.1558
 20
0.4927
 30
0.0
 10
-16.4594
 20
0.5203
 30
0.0
 10
-16.4594
 20
0.5203
 30
0.0
 10
-16.4594
 20
0.5203
 30
0.0
 10
-16.4594
 20
0.5203
 30
0.0
 10
-16.7814
 20
0.5893
 30
0.0
 10
-16.7814
 20
0.5893
 30
0.0
 10
-16.7814
 20
0.5893
 30
0.0
 10
-16.7814
 20
0.5893
 30
0.0
 10
-16.7814
 20
0.9067
 30
0.0
 10
-16.7814
 20
0.9067
 30
0.0
  0
SPLINE
  5
D3
330
1F
100
AcDbEntity
  8
AXIS
  6
NEW_LINE62
 62
   250
100
AcDbSpline
210
0.0
220
0.0
230
1.0
 70
    11
 71
     3
 72
    64
 73
    60
 74
     0
 42
0.0000000001
 43
0.0000000001
 40
0.0
 40
0.0
 40
0.0
 40
0.0
 40
0.0625
 40
0.0625
 40
0.0625
 40
0.0625
 40
0.125
 40
0.125
 40
0.125
 40
0.125
 40
0.1875
 40
0.1875
 40
0.1875
 40
0.1875
 40
0.25
 40
0.25
 40
0.25
 40
0.25
 40
0.3125
 40
0.3125
 40
0.3125
 40
0.3125
 40
0.375
 40
0.375
 40
0.375
 40
0.375
 40
0.4375
 40
0.4375
 40
0.4375
 40
0.4375
 40
0.5
 40
0.5
 40
0.5
 40
0.5
 40
0.5625
 40
0.5625
 40
0.5625
 40
0.5625
 40
0.625
 40
0.625
 40
0.625
 40
0.625
 40
0.6875
 40
0.6875
 40
0.6875
 40
0.6875
 40
0.75
 40
0.75
 40
0.75
 40
0.75
 40
0.8125
 40
0.8125
 40
0.8125
 40
0.8125
 40
0.875
 40
0.875
 40
0.875
 40
0.875
 40
1.0
 40
1.0
 40
1.0
 40
1.0
 10
-16.755
 20
0.2335
 30
0.0
 10
-16.755
 20
0.2335
 30
0.0
 10
-16.479
 20
0.2979
 30
0.0
 10
-16.479
 20
0.2979
 30
0.0
 10
-16.479
 20
0.2979
 30
0.0
 10
-16.479
 20
0.2979
 30
0.0
 10
-16.2628
 20
0.3255
 30
0.0
 10
-16.2628
 20
0.3255
 30
0.0
 10
-16.2628
 20
0.3255
 30
0.0
 10
-16.2628
 20
0.3255
 30
0.0
 10
-16.019
 20
0.3393
 30
0.0
 10
-16.019
 20
0.3393
 30
0.0
 10
-16.019
 20
0.3393
 30
0.0
 10
-16.019
 20
0.3393
 30
0.0
 10
-15.7936
 20
0.3393
 30
0.0
 10
-15.7936
 20
0.3393
 30
0.0
 10
-15.7936
 20
0.3393
 30
0.0
 10
-15.7936
 20
0.3393
 30
0.0
 10
-15.5268
 20
0.3163
 30
0.0
 10
-15.5268
 20
0.3163
 30
0.0
 10
-15.5268
 20
0.3163
 30
0.0
 10
-15.5268
 20
0.3163
 30
0.0
 10
-15.2784
 20
0.2841
 30
0.0
 10
-15.2784
 20
0.2841
 30
0.0
 10
-15.2784
 20
0.2841
 30
0.0
 10
-15.2784
 20
0.2841
 30
0.0
 10
-15.1496
 20
0.2381
 30
0.0
 10
-15.1496
 20
0.2381
 30
0.0
 10
-15.1496
 20
0.2381
 30
0.0
 10
-15.1496
 20
0.2381
 30
0.0
 10
-15.145
 20
-0.0839
 30
0.0
 10
-15.145
 20
-0.0839
 30
0.0
 10
-15.145
 20
-0.0839
 30
0.0
 10
-15.145
 20
-0.0839
 30
0.0
 10
-15.4072
 20
-0.1391
 30
0.0
 10
-15.4072
 20
-0.1391
 30
0.0
 10
-15.4072
 20
-0.1391
 30
0.0
 10
-15.4072
 20
-0.1391
 30
0.0
 10
-15.605
 20
-0.1621
 30
0.0
 10
-15.605
 20
-0.1621
 30
0.0
 10
-15.605
 20
-0.1621
 30
0.0
 10
-15.605
 20
-0.1621
 30
0.0
 10
-15.8396
 20
-0.1759
 30
0.0
 10
-15.8396
 20
-0.1759
 30
0.0
 10
-15.8396
 20
-0.1759
 30
0.0
 10
-15.8396
 20
-0.1759
 30
0.0
 10
-16.1294
 20
-0.1805
 30
0.0
 10
-16.1294
 20
-0.1805
 30
0.0
 10
-16.1294
 20
-0.1805
 30
0.0
 10
-16.1294
 20
-0.1805
 30
0.0
 10
-16.433
 20
-0.1529
 30
0.0
 10
-16.433
 20
-0.1529
 30
0.0
 10
-16.433
 20
-0.1529
 30
0.0
 10
-16.433
 20
-0.1529
 30
0.0
 10
-16.755
 20
-0.0839
 30
0.0
 10
-16.755
 20
-0.0839
 30
0.0
 10
-16.755
 20
-0.0839
 30
0.0
 10
-16.755
 20
-0.0839
 30
0.0
 10
-16.755
 20
0.2335
 30
0.0
 10
-16.755
 20
0.2335
 30
0.0
  0
SPLINE
  5
D5
330
1F
100
AcDbEntity
  8
AXIS
  6
NEW_LINE63
 62
   250
100
AcDbSpline
210
0.0
220
0.0
230
1.0
 70
     8
 71
     3
 72
    44
 73
    40
 74
     0
 42
0.0000000001
 43
0.0000000001
 40
0.0
 40
0.0
 40
0.0
 40
0.0
 40
0.0909090909090909
 40
0.0909090909090909
 40
0.0909090909090909
 40
0.0909090909090909
 40
0.1818181818181818
 40
0.1818181818181818
 40
0.1818181818181818
 40
0.1818181818181818
 40
0.2727272727272727
 40
0.2727272727272727
 40
0.2727272727272727
 40
0.2727272727272727
 40
0.3636363636363636
 40
0.3636363636363636
 40
0.3636363636363636
 40
0.3636363636363636
 40
0.4545454545454545
 40
0.4545454545454545
 40
0.4545454545454545
 40
0.4545454545454545
 40
0.5454545454545454
 40
0.5454545454545454
 40
0.5454545454545454
 40
0.5454545454545454
 40
0.6363636363636364
 40
0.6363636363636364
 40
0.6363636363636364
 40
0.6363636363636364
 40
0.7272727272727273
 40
0.7272727272727273
 40
0.7272727272727273
 40
0.7272727272727273
 40
0.8181818181818182
 40
0.8181818181818182
 40
0.8181818181818182
 40
0.8181818181818182
 40
1.0
 40
1.0
 40
1.0
 40
1.0
 10
-15.1566
 20
-0.4524
 30
0.0
 10
-15.1566
 20
-0.4524
 30
0.0
 10
-15.1566
 20
-0.4118
 30
0.0
 10
-15.1566
 20
-0.4118
 30
0.0
 10
-15.1566
 20
-0.4118
 30
0.0
 10
-15.1566
 20
-0.4118
 30
0.0
 10
-15.3822
 20
-0.3747
 30
0.0
 10
-15.3822
 20
-0.3747
 30
0.0
 10
-15.3822
 20
-0.3747
 30
0.0
 10
-15.3822
 20
-0.3747
 30
0.0
 10
-15.576
 20
-0.3482
 30
0.0
 10
-15.576
 20
-0.3482
 30
0.0
 10
-15.576
 20
-0.3482
 30
0.0
 10
-15.576
 20
-0.3482
 30
0.0
 10
-15.8022
 20
-0.3188
 30
0.0
 10
-15.8022
 20
-0.3188
 30
0.0
 10
-15.8022
 20
-0.3188
 30
0.0
 10
-15.8022
 20
-0.3188
 30
0.0
 10
-15.9844
 20
-0.3188
 30
0.0
 10
-15.9844
 20
-0.3188
 30
0.0
 10
-15.9844
 20
-0.3188
 30
0.0
 10
-15.9844
 20
-0.3188
 30
0.0
 10
-16.1988
 20
-0.3217
 30
0.0
 10
-16.1988
 20
-0.3217
 30
0.0
 10
-16.1988
 20
-0.3217
 30
0.0
 10
-16.1988
 20
-0.3217
 30
0.0
 10
-16.3662
 20
-0.3423
 30
0.0
 10
-16.3662
 20
-0.3423
 30
0.0
 10
-16.3662
 20
-0.3423
 30
0.0
 10
-16.3662
 20
-0.3423
 30
0.0
 10
-16.5219
 20
-0.3629
 30
0.0
 10
-16.5219
 20
-0.3629
 30
0.0
 10
-16.5219
 20
-0.3629
 30
0.0
 10
-16.5219
 20
-0.3629
 30
0.0
 10
-16.7599
 20
-0.413
 30
0.0
 10
-16.7599
 20
-0.413
 30
0.0
 10
-16.7599
 20
-0.413
 30
0.0
 10
-16.7599
 20
-0.413
 30
0.0
 10
-16.7599
 20
-0.7397
 30
0.0
 10
-16.7599
 20
-0.7397
 30
0.0
  0
SPLINE
  5
D7
330
1F
100
AcDbEntity
  8
AXIS
  6
NEW_LINE64
 62
   250
100
AcDbSpline
210
0.0
220
0.0
230
1.0
 70
     8
 71
     3
 72
    20
 73
    16
 74
     0
 42
0.0000000001
 43
0.0000000001
 40
0.0
 40
0.0
 40
0.0
 40
0.0
 40
0.2
 40
0.2
 40
0.2
 40
0.2
 40
0.4
 40
0.4
 40
0.4
 40
0.4
 40
0.6
 40
0.6
 40
0.6
 40
0.6
 40
1.0
 40
1.0
 40
1.0
 40
1.0
 10
-16.7572
 20
-1.0966
 30
0.0
 10
-16.7572
 20
-1.0966
 30
0.0
 10
-16.7598
 20
-1.4128
 30
0.0
 10
-16.7598
 20
-1.4128
 30
0.0
 10
-16.7598
 20
-1.4128
 30
0.0
 10
-16.7598
 20
-1.4128
 30
0.0
 10
-16.6425
 20
-1.4363
 30
0.0
 10
-16.6425
 20
-1.4363
 30
0.0
 10
-16.6425
 20
-1.4363
 30
0.0
 10
-16.6425
 20
-1.4363
 30
0.0
 10
-16.546
 20
-1.4546
 30
0.0
 10
-16.546
 20
-1.4546
 30
0.0
 10
-16.546
 20
-1.4546
 30
0.0
 10
-16.546
 20
-1.4546
 30
0.0
 10
-16.4339
 20
-1.4729
 30
0.0
 10
-16.4339
 20
-1.4729
 30
0.0
  0
SPLINE
  5
D9
330
1F
100
AcDbEntity
  8
AXIS
  6
NEW_LINE65
 62
   250
100
AcDbSpline
210
0.0
220
0.0
230
1.0
 70
     8
 71
     3
 72
    16
 73
    12
 74
     0
 42
0.0000000001
 43
0.0000000001
 40
0.0
 40
0.0
 40
0.0
 40
0.0
 40
0.25
 40
0.25
 40
0.25
 40
0.25
 40
0.5
 40
0.5
 40
0.5
 40
0.5
 40
1.0
 40
1.0
 40
1.0
 40
1.0
 10
-15.9078
 20
-1.4971
 30
0.0
 10
-15.9078
 20
-1.4971
 30
0.0
 10
-15.7427
 20
-1.4971
 30
0.0
 10
-15.7427
 20
-1.4971
 30
0.0
 10
-15.7427
 20
-1.4971
 30
0.0
 10
-15.7427
 20
-1.4971
 30
0.0
 10
-15.6206
 20
-1.4839
 30
0.0
 10
-15.6206
 20
-1.4839
 30
0.0
 10
-15.6206
 20
-1.4839
 30
0.0
 10
-15.6206
 20
-1.4839
 30
0.0
 10
-15.4654
 20
-1.4673
 30
0.0
 10
-15.4654
 20
-1.4673
 30
0.0
  0
SPLINE
  5
DB
330
1F
100
AcDbEntity
  8
AXIS
  6
NEW_LINE66
 62
   250
100
AcDbSpline
210
0.0
220
0.0
230
1.0
 70
     8
 71
     3
 72
    28
 73
    24
 74
     0
 42
0.0000000001
 43
0.0000000001
 40
0.0
 40
0.0
 40
0.0
 40
0.0
 40
0.1428571428571428
 40
0.1428571428571428
 40
0.1428571428571428
 40
0.1428571428571428
 40
0.2857142857142857
 40
0.2857142857142857
 40
0.2857142857142857
 40
0.2857142857142857
 40
0.4285714285714285
 40
0.4285714285714285
 40
0.4285714285714285
 40
0.4285714285714285
 40
0.5714285714285714
 40
0.5714285714285714
 40
0.5714285714285714
 40
0.5714285714285714
 40
0.7142857142857143
 40
0.7142857142857143
 40
0.7142857142857143
 40
0.7142857142857143
 40
1.0
 40
1.0
 40
1.0
 40
1.0
 10
-16.4336
 20
-1.9852
 30
0.0
 10
-16.4336
 20
-1.9852
 30
0.0
 10
-16.423
 20
-0.7768
 30
0.0
 10
-16.423
 20
-0.7768
 30
0.0
 10
-16.423
 20
-0.7768
 30
0.0
 10
-16.423
 20
-0.7768
 30
0.0
 10
-16.4071
 20
-0.6125
 30
0.0
 10
-16.4071
 20
-0.6125
 30
0.0
 10
-16.4071
 20
-0.6125
 30
0.0
 10
-16.4071
 20
-0.6125
 30
0.0
 10
-16.3859
 20
-0.4535
 30
0.0
 10
-16.3859
 20
-0.4535
 30
0.0
 10
-16.3859
 20
-0.4535
 30
0.0
 10
-16.3859
 20
-0.4535
 30
0.0
 10
-16.3382
 20
-0.3581
 30
0.0
 10
-16.3382
 20
-0.3581
 30
0.0
 10
-16.3382
 20
-0.3581
 30
0.0
 10
-16.3382
 20
-0.3581
 30
0.0
 10
-16.0202
 20
-0.374
 30
0.0
 10
-16.0202
 20
-0.374
 30
0.0
 10
-16.0202
 20
-0.374
 30
0.0
 10
-16.0202
 20
-0.374
 30
0.0
 10
-15.9778
 20
-0.4641
 30
0.0
 10
-15.9778
 20
-0.4641
 30
0.0
  0
SPLINE
  5
DD
330
1F
100
AcDbEntity
  8
AXIS
  6
NEW_LINE67
 62
   250
100
AcDbSpline
210
0.0
220
0.0
230
1.0
 70
     8
 71
     3
 72
    40
 73
    36
 74
     0
 42
0.0000000001
 43
0.0000000001
 40
0.0
 40
0.0
 40
0.0
 40
0.0
 40
0.1
 40
0.1
 40
0.1
 40
0.1
 40
0.2
 40
0.2
 40
0.2
 40
0.2
 40
0.3
 40
0.3
 40
0.3
 40
0.3
 40
0.4
 40
0.4
 40
0.4
 40
0.4
 40
0.5
 40
0.5
 40
0.5
 40
0.5
 40
0.6
 40
0.6
 40
0.6
 40
0.6
 40
0.7
 40
0.7
 40
0.7
 40
0.7
 40
0.8
 40
0.8
 40
0.8
 40
0.8
 40
1.0
 40
1.0
 40
1.0
 40
1.0
 10
-16.4079
 20
-0.678
 30
0.0
 10
-16.4079
 20
-0.678
 30
0.0
 10
-16.5782
 20
-0.7064
 30
0.0
 10
-16.5782
 20
-0.7064
 30
0.0
 10
-16.5782
 20
-0.7064
 30
0.0
 10
-16.5782
 20
-0.7064
 30
0.0
 10
-16.7826
 20
-0.7462
 30
0.0
 10
-16.7826
 20
-0.7462
 30
0.0
 10
-16.7826
 20
-0.7462
 30
0.0
 10
-16.7826
 20
-0.7462
 30
0.0
 10
-16.9302
 20
-0.8088
 30
0.0
 10
-16.9302
 20
-0.8088
 30
0.0
 10
-16.9302
 20
-0.8088
 30
0.0
 10
-16.9302
 20
-0.8088
 30
0.0
 10
-17.0267
 20
-0.9055
 30
0.0
 10
-17.0267
 20
-0.9055
 30
0.0
 10
-17.0267
 20
-0.9055
 30
0.0
 10
-17.0267
 20
-0.9055
 30
0.0
 10
-17.021
 20
-0.9681
 30
0.0
 10
-17.021
 20
-0.9681
 30
0.0
 10
-17.021
 20
-0.9681
 30
0.0
 10
-17.021
 20
-0.9681
 30
0.0
 10
-16.9245
 20
-1.0363
 30
0.0
 10
-16.9245
 20
-1.0363
 30
0.0
 10
-16.9245
 20
-1.0363
 30
0.0
 10
-16.9245
 20
-1.0363
 30
0.0
 10
-16.7883
 20
-1.0932
 30
0.0
 10
-16.7883
 20
-1.0932
 30
0.0
 10
-16.7883
 20
-1.0932
 30
0.0
 10
-16.7883
 20
-1.0932
 30
0.0
 10
-16.4987
 20
-1.1558
 30
0.0
 10
-16.4987
 20
-1.1558
 30
0.0
 10
-16.4987
 20
-1.1558
 30
0.0
 10
-16.4987
 20
-1.1558
 30
0.0
 10
-16.4249
 20
-1.1672
 30
0.0
 10
-16.4249
 20
-1.1672
 30
0.0
  0
SPLINE
  5
DF
330
1F
100
AcDbEntity
  8
AXIS
  6
NEW_LINE68
 62
   250
100
AcDbSpline
210
0.0
220
0.0
230
1.0
 70
     8
 71
     3
 72
    20
 73
    16
 74
     0
 42
0.0000000001
 43
0.0000000001
 40
0.0
 40
0.0
 40
0.0
 40
0.0
 40
0.2
 40
0.2
 40
0.2
 40
0.2
 40
0.4
 40
0.4
 40
0.4
 40
0.4
 40
0.6
 40
0.6
 40
0.6
 40
0.6
 40
1.0
 40
1.0
 40
1.0
 40
1.0
 10
-16.3568
 20
-1.9921
 30
0.0
 10
-16.3568
 20
-1.9921
 30
0.0
 10
-16.3057
 20
-0.4959
 30
0.0
 10
-16.3057
 20
-0.4959
 30
0.0
 10
-16.3057
 20
-0.4959
 30
0.0
 10
-16.3057
 20
-0.4959
 30
0.0
 10
-16.2206
 20
-0.4504
 30
0.0
 10
-16.2206
 20
-0.4504
 30
0.0
 10
-16.2206
 20
-0.4504
 30
0.0
 10
-16.2206
 20
-0.4504
 30
0.0
 10
-15.9254
 20
-0.4504
 30
0.0
 10
-15.9254
 20
-0.4504
 30
0.0
 10
-15.9254
 20
-0.4504
 30
0.0
 10
-15.9254
 20
-0.4504
 30
0.0
 10
-15.8856
 20
-1.9977
 30
0.0
 10
-15.8856
 20
-1.9977
 30
0.0
  0
SPLINE
  5
E1
330
1F
100
AcDbEntity
  8
AXIS
  6
NEW_LINE69
 62
   250
100
AcDbSpline
210
0.0
220
0.0
230
1.0
 70
     8
 71
     3
 72
    20
 73
    16
 74
     0
 42
0.0000000001
 43
0.0000000001
 40
0.0
 40
0.0
 40
0.0
 40
0.0
 40
0.2
 40
0.2
 40
0.2
 40
0.2
 40
0.4
 40
0.4
 40
0.4
 40
0.4
 40
0.6
 40
0.6
 40
0.6
 40
0.6
 40
1.0
 40
1.0
 40
1.0
 40
1.0
 10
-15.4882
 20
-2.0034
 30
0.0
 10
-15.4882
 20
-2.0034
 30
0.0
 10
-15.4598
 20
-0.4504
 30
0.0
 10
-15.4598
 20
-0.4504
 30
0.0
 10
-15.4598
 20
-0.4504
 30
0.0
 10
-15.4598
 20
-0.4504
 30
0.0
 10
-15.1419
 20
-0.4561
 30
0.0
 10
-15.1419
 20
-0.4561
 30
0.0
 10
-15.1419
 20
-0.4561
 30
0.0
 10
-15.1419
 20
-0.4561
 30
0.0
 10
-15.0738
 20
-0.5073
 30
0.0
 10
-15.0738
 20
-0.5073
 30
0.0
 10
-15.0738
 20
-0.5073
 30
0.0
 10
-15.0738
 20
-0.5073
 30
0.0
 10
-15.017
 20
-1.9921
 30
0.0
 10
-15.017
 20
-1.9921
 30
0.0
  0
SPLINE
  5
E3
330
1F
100
AcDbEntity
  8
AXIS
  6
NEW_LINE70
 62
   250
100
AcDbSpline
210
0.0
220
0.0
230
1.0
 70
     8
 71
     3
 72
    16
 73
    12
 74
     0
 42
0.0000000001
 43
0.0000000001
 40
0.0
 40
0.0
 40
0.0
 40
0.0
 40
0.25
 40
0.25
 40
0.25
 40
0.25
 40
0.5
 40
0.5
 40
0.5
 40
0.5
 40
1.0
 40
1.0
 40
1.0
 40
1.0
 10
-15.4655
 20
-1.1558
 30
0.0
 10
-15.4655
 20
-1.1558
 30
0.0
 10
-15.9083
 20
-1.1615
 30
0.0
 10
-15.9083
 20
-1.1615
 30
0.0
 10
-15.9083
 20
-1.1615
 30
0.0
 10
-15.9083
 20
-1.1615
 30
0.0
 10
-15.897
 20
-0.6893
 30
0.0
 10
-15.897
 20
-0.6893
 30
0.0
 10
-15.897
 20
-0.6893
 30
0.0
 10
-15.897
 20
-0.6893
 30
0.0
 10
-15.4712
 20
-0.6893
 30
0.0
 10
-15.4712
 20
-0.6893
 30
0.0
  0
SPLINE
  5
E5
330
1F
100
AcDbEntity
  8
AXIS
  6
NEW_LINE71
 62
   250
100
AcDbSpline
210
0.0
220
0.0
230
1.0
 70
    11
 71
     3
 72
    20
 73
    16
 74
     0
 42
0.0000000001
 43
0.0000000001
 40
0.0
 40
0.0
 40
0.0
 40
0.0
 40
0.2
 40
0.2
 40
0.2
 40
0.2
 40
0.4
 40
0.4
 40
0.4
 40
0.4
 40
0.6
 40
0.6
 40
0.6
 40
0.6
 40
1.0
 40
1.0
 40
1.0
 40
1.0
 10
-14.6821
 20
-0.3765
 30
0.0
 10
-14.6821
 20
-0.3765
 30
0.0
 10
-14.6821
 20
-1.463
 30
0.0
 10
-14.6821
 20
-1.463
 30
0.0
 10
-14.6821
 20
-1.463
 30
0.0
 10
-14.6821
 20
-1.463
 30
0.0
 10
-15.0284
 20
-1.463
 30
0.0
 10
-15.0284
 20
-1.463
 30
0.0
 10
-15.0284
 20
-1.463
 30
0.0
 10
-15.0284
 20
-1.463
 30
0.0
 10
-15.0284
 20
-0.3765
 30
0.0
 10
-15.0284
 20
-0.3765
 30
0.0
 10
-15.0284
 20
-0.3765
 30
0.0
 10
-15.0284
 20
-0.3765
 30
0.0
 10
-14.6821
 20
-0.3765
 30
0.0
 10
-14.6821
 20
-0.3765
 30
0.0
  0
SPLINE
  5
E7
330
1F
100
AcDbEntity
  8
AXIS
  6
NEW_LINE72
 62
   250
100
AcDbSpline
210
0.0
220
0.0
230
1.0
 70
     8
 71
     3
 72
    16
 73
    12
 74
     0
 42
0.0000000001
 43
0.0000000001
 40
0.0
 40
0.0
 40
0.0
 40
0.0
 40
0.25
 40
0.25
 40
0.25
 40
0.25
 40
0.5
 40
0.5
 40
0.5
 40
0.5
 40
1.0
 40
1.0
 40
1.0
 40
1.0
 10
-17.8304
 20
7.3022
 30
0.0
 10
-17.8304
 20
7.3022
 30
0.0
 10
-17.8304
 20
16.9426
 30
0.0
 10
-17.8304
 20
16.9426
 30
0.0
 10
-17.8304
 20
16.9426
 30
0.0
 10
-17.8304
 20
16.9426
 30
0.0
 10
-17.6932
 20
17.2482
 30
0.0
 10
-17.6932
 20
17.2482
 30
0.0
 10
-17.6932
 20
17.2482
 30
0.0
 10
-17.6932
 20
17.2482
 30
0.0
 10
-16.7021
 20
17.2482
 30
0.0
 10
-16.7021
 20
17.2482
 30
0.0
  0
SPLINE
  5
E9
330
1F
100
AcDbEntity
  8
AXIS
  6
NEW_LINE73
 62
   250
100
AcDbSpline
210
0.0
220
0.0
230
1.0
 70
     8
 71
     3
 72
    16
 73
    12
 74
     0
 42
0.0000000001
 43
0.0000000001
 40
0.0
 40
0.0
 40
0.0
 40
0.0
 40
0.25
 40
0.25
 40
0.25
 40
0.25
 40
0.5
 40
0.5
 40
0.5
 40
0.5
 40
1.0
 40
1.0
 40
1.0
 40
1.0
 10
-15.3299
 20
17.2634
 30
0.0
 10
-15.3299
 20
17.2634
 30
0.0
 10
-13.6985
 20
17.2634
 30
0.0
 10
-13.6985
 20
17.2634
 30
0.0
 10
-13.6985
 20
17.2634
 30
0.0
 10
-13.6985
 20
17.2634
 30
0.0
 10
-13.5613
 20
16.9732
 30
0.0
 10
-13.5613
 20
16.9732
 30
0.0
 10
-13.5613
 20
16.9732
 30
0.0
 10
-13.5613
 20
16.9732
 30
0.0
 10
-13.5613
 20
7.3175
 30
0.0
 10
-13.5613
 20
7.3175
 30
0.0
  0
SPLINE
  5
EB
330
1F
100
AcDbEntity
  8
AXIS
  6
NEW_LINE74
 62
   250
100
AcDbSpline
210
0.0
220
0.0
230
1.0
 70
    11
 71
     3
 72
    80
 73
    76
 74
     0
 42
0.0000000001
 43
0.0000000001
 40
0.0
 40
0.0
 40
0.0
 40
0.0
 40
0.05
 40
0.05
 40
0.05
 40
0.05
 40
0.1
 40
0.1
 40
0.1
 40
0.1
 40
0.15
 40
0.15
 40
0.15
 40
0.15
 40
0.2
 40
0.2
 40
0.2
 40
0.2
 40
0.25
 40
0.25
 40
0.25
 40
0.25
 40
0.3
 40
0.3
 40
0.3
 40
0.3
 40
0.35
 40
0.35
 40
0.35
 40
0.35
 40
0.4
 40
0.4
 40
0.4
 40
0.4
 40
0.45
 40
0.45
 40
0.45
 40
0.45
 40
0.5
 40
0.5
 40
0.5
 40
0.5
 40
0.55
 40
0.55
 40
0.55
 40
0.55
 40
0.6
 40
0.6
 40
0.6
 40
0.6
 40
0.65
 40
0.65
 40
0.65
 40
0.65
 40
0.7
 40
0.7
 40
0.7
 40
0.7
 40
0.75
 40
0.75
 40
0.75
 40
0.75
 40
0.8
 40
0.8
 40
0.8
 40
0.8
 40
0.85
 40
0.85
 40
0.85
 40
0.85
 40
0.9
 40
0.9
 40
0.9
 40
0.9
 40
1.0
 40
1.0
 40
1.0
 40
1.0
 10
-16.6976
 20
16.3911
 30
0.0
 10
-16.6976
 20
16.3911
 30
0.0
 10
-16.6976
 20
18.5667
 30
0.0
 10
-16.6976
 20
18.5667
 30
0.0
 10
-16.6976
 20
18.5667
 30
0.0
 10
-16.6976
 20
18.5667
 30
0.0
 10
-16.1678
 20
20.6211
 30
0.0
 10
-16.1678
 20
20.6211
 30
0.0
 10
-16.1678
 20
20.6211
 30
0.0
 10
-16.1678
 20
20.6211
 30
0.0
 10
-15.8828
 20
20.6211
 30
0.0
 10
-15.8828
 20
20.6211
 30
0.0
 10
-15.8828
 20
20.6211
 30
0.0
 10
-15.8828
 20
20.6211
 30
0.0
 10
-15.331
 20
18.5977
 30
0.0
 10
-15.331
 20
18.5977
 30
0.0
 10
-15.331
 20
18.5977
 30
0.0
 10
-15.331
 20
18.5977
 30
0.0
 10
-15.3314
 20
16.3203
 30
0.0
 10
-15.3314
 20
16.3203
 30
0.0
 10
-15.3314
 20
16.3203
 30
0.0
 10
-15.3314
 20
16.3203
 30
0.0
 10
-15.3492
 20
16.1955
 30
0.0
 10
-15.3492
 20
16.1955
 30
0.0
 10
-15.3492
 20
16.1955
 30
0.0
 10
-15.3492
 20
16.1955
 30
0.0
 10
-15.4026
 20
16.0306
 30
0.0
 10
-15.4026
 20
16.0306
 30
0.0
 10
-15.4026
 20
16.0306
 30
0.0
 10
-15.4026
 20
16.0306
 30
0.0
 10
-15.496
 20
15.9058
 30
0.0
 10
-15.496
 20
15.9058
 30
0.0
 10
-15.496
 20
15.9058
 30
0.0
 10
-15.496
 20
15.9058
 30
0.0
 10
-15.6027
 20
15.8123
 30
0.0
 10
-15.6027
 20
15.8123
 30
0.0
 10
-15.6027
 20
15.8123
 30
0.0
 10
-15.6027
 20
15.8123
 30
0.0
 10
-15.7361
 20
15.7321
 30
0.0
 10
-15.7361
 20
15.7321
 30
0.0
 10
-15.7361
 20
15.7321
 30
0.0
 10
-15.7361
 20
15.7321
 30
0.0
 10
-15.8873
 20
15.683
 30
0.0
 10
-15.8873
 20
15.683
 30
0.0
 10
-15.8873
 20
15.683
 30
0.0
 10
-15.8873
 20
15.683
 30
0.0
 10
-16.0252
 20
15.6786
 30
0.0
 10
-16.0252
 20
15.6786
 30
0.0
 10
-16.0252
 20
15.6786
 30
0.0
 10
-16.0252
 20
15.6786
 30
0.0
 10
-16.1452
 20
15.683
 30
0.0
 10
-16.1452
 20
15.683
 30
0.0
 10
-16.1452
 20
15.683
 30
0.0
 10
-16.1452
 20
15.683
 30
0.0
 10
-16.292
 20
15.7187
 30
0.0
 10
-16.292
 20
15.7187
 30
0.0
 10
-16.292
 20
15.7187
 30
0.0
 10
-16.292
 20
15.7187
 30
0.0
 10
-16.4076
 20
15.7766
 30
0.0
 10
-16.4076
 20
15.7766
 30
0.0
 10
-16.4076
 20
15.7766
 30
0.0
 10
-16.4076
 20
15.7766
 30
0.0
 10
-16.541
 20
15.8925
 30
0.0
 10
-16.541
 20
15.8925
 30
0.0
 10
-16.541
 20
15.8925
 30
0.0
 10
-16.541
 20
15.8925
 30
0.0
 10
-16.6121
 20
16.0217
 30
0.0
 10
-16.6121
 20
16.0217
 30
0.0
 10
-16.6121
 20
16.0217
 30
0.0
 10
-16.6121
 20
16.0217
 30
0.0
 10
-16.6788
 20
16.1821
 30
0.0
 10
-16.6788
 20
16.1821
 30
0.0
 10
-16.6788
 20
16.1821
 30
0.0
 10
-16.6788
 20
16.1821
 30
0.0
 10
-16.6976
 20
16.3911
 30
0.0
 10
-16.6976
 20
16.3911
 30
0.0
  0
SPLINE
  5
ED
330
1F
100
AcDbEntity
  8
AXIS
  6
NEW_LINE75
 62
   250
100
AcDbSpline
210
0.0
220
0.0
230
1.0
 70
    11
 71
     3
 72
    40
 73
    36
 74
     0
 42
0.0000000001
 43
0.0000000001
 40
0.0
 40
0.0
 40
0.0
 40
0.0
 40
0.1
 40
0.1
 40
0.1
 40
0.1
 40
0.2
 40
0.2
 40
0.2
 40
0.2
 40
0.3
 40
0.3
 40
0.3
 40
0.3
 40
0.4
 40
0.4
 40
0.4
 40
0.4
 40
0.5
 40
0.5
 40
0.5
 40
0.5
 40
0.6
 40
0.6
 40
0.6
 40
0.6
 40
0.7
 40
0.7
 40
0.7
 40
0.7
 40
0.8
 40
0.8
 40
0.8
 40
0.8
 40
1.0
 40
1.0
 40
1.0
 40
1.0
 10
-16.1729
 20
19.656
 30
0.0
 10
-16.1729
 20
19.656
 30
0.0
 10
-16.2159
 20
18.483
 30
0.0
 10
-16.2159
 20
18.483
 30
0.0
 10
-16.2159
 20
18.483
 30
0.0
 10
-16.2159
 20
18.483
 30
0.0
 10
-16.2159
 20
18.1251
 30
0.0
 10
-16.2159
 20
18.1251
 30
0.0
 10
-16.2159
 20
18.1251
 30
0.0
 10
-16.2159
 20
18.1251
 30
0.0
 10
-16.1644
 20
17.0109
 30
0.0
 10
-16.1644
 20
17.0109
 30
0.0
 10
-16.1644
 20
17.0109
 30
0.0
 10
-16.1644
 20
17.0109
 30
0.0
 10
-15.9016
 20
17.003
 30
0.0
 10
-15.9016
 20
17.003
 30
0.0
 10
-15.9016
 20
17.003
 30
0.0
 10
-15.9016
 20
17.003
 30
0.0
 10
-15.9486
 20
18.1393
 30
0.0
 10
-15.9486
 20
18.1393
 30
0.0
 10
-15.9486
 20
18.1393
 30
0.0
 10
-15.9486
 20
18.1393
 30
0.0
 10
-15.9486
 20
18.505
 30
0.0
 10
-15.9486
 20
18.505
 30
0.0
 10
-15.9486
 20
18.505
 30
0.0
 10
-15.9486
 20
18.505
 30
0.0
 10
-15.9173
 20
19.138
 30
0.0
 10
-15.9173
 20
19.138
 30
0.0
 10
-15.9173
 20
19.138
 30
0.0
 10
-15.9173
 20
19.138
 30
0.0
 10
-15.8974
 20
19.6474
 30
0.0
 10
-15.8974
 20
19.6474
 30
0.0
 10
-15.8974
 20
19.6474
 30
0.0
 10
-15.8974
 20
19.6474
 30
0.0
 10
-16.1729
 20
19.656
 30
0.0
 10
-16.1729
 20
19.656
 30
0.0
  0
SPLINE
  5
EF
330
1F
100
AcDbEntity
  8
AXIS
  6
NEW_LINE76
 62
   250
100
AcDbSpline
210
0.0
220
0.0
230
1.0
 70
     8
 71
     3
 72
    12
 73
     8
 74
     0
 42
0.0000000001
 43
0.0000000001
 40
0.0
 40
0.0
 40
0.0
 40
0.0
 40
0.3333333333333333
 40
0.3333333333333333
 40
0.3333333333333333
 40
0.3333333333333333
 40
1.0
 40
1.0
 40
1.0
 40
1.0
 10
-15.1831
 20
20.4876
 30
0.0
 10
-15.1831
 20
20.4876
 30
0.0
 10
-14.6795
 20
18.5973
 30
0.0
 10
-14.6795
 20
18.5973
 30
0.0
 10
-14.6795
 20
18.5973
 30
0.0
 10
-14.6795
 20
18.5973
 30
0.0
 10
-14.6795
 20
17.2567
 30
0.0
 10
-14.6795
 20
17.2567
 30
0.0
  0
SPLINE
  5
F1
330
1F
100
AcDbEntity
  8
AXIS
  6
NEW_LINE77
 62
   250
100
AcDbSpline
210
0.0
220
0.0
230
1.0
 70
     8
 71
     3
 72
    32
 73
    28
 74
     0
 42
0.0000000001
 43
0.0000000001
 40
0.0
 40
0.0
 40
0.0
 40
0.0
 40
0.125
 40
0.125
 40
0.125
 40
0.125
 40
0.25
 40
0.25
 40
0.25
 40
0.25
 40
0.375
 40
0.375
 40
0.375
 40
0.375
 40
0.5
 40
0.5
 40
0.5
 40
0.5
 40
0.625
 40
0.625
 40
0.625
 40
0.625
 40
0.75
 40
0.75
 40
0.75
 40
0.75
 40
1.0
 40
1.0
 40
1.0
 40
1.0
 10
-15.4117
 20
24.4117
 30
0.0
 10
-15.4117
 20
24.4117
 30
0.0
 10
-15.3599
 20
24.3338
 30
0.0
 10
-15.3599
 20
24.3338
 30
0.0
 10
-15.3599
 20
24.3338
 30
0.0
 10
-15.3599
 20
24.3338
 30
0.0
 10
-15.3133
 20
24.1469
 30
0.0
 10
-15.3133
 20
24.1469
 30
0.0
 10
-15.3133
 20
24.1469
 30
0.0
 10
-15.3133
 20
24.1469
 30
0.0
 10
-15.2822
 20
23.2644
 30
0.0
 10
-15.2822
 20
23.2644
 30
0.0
 10
-15.2822
 20
23.2644
 30
0.0
 10
-15.2822
 20
23.2644
 30
0.0
 10
-15.1148
 20
18.7339
 30
0.0
 10
-15.1148
 20
18.7339
 30
0.0
 10
-15.1148
 20
18.7339
 30
0.0
 10
-15.1148
 20
18.7339
 30
0.0
 10
-15.1324
 20
18.5051
 30
0.0
 10
-15.1324
 20
18.5051
 30
0.0
 10
-15.1324
 20
18.5051
 30
0.0
 10
-15.1324
 20
18.5051
 30
0.0
 10
-15.1764
 20
18.1971
 30
0.0
 10
-15.1764
 20
18.1971
 30
0.0
 10
-15.1764
 20
18.1971
 30
0.0
 10
-15.1764
 20
18.1971
 30
0.0
 10
-15.1676
 20
17.2467
 30
0.0
 10
-15.1676
 20
17.2467
 30
0.0
  0
SPLINE
  5
F3
330
1F
100
AcDbEntity
  8
AXIS
  6
NEW_LINE78
 62
   250
100
AcDbSpline
210
0.0
220
0.0
230
1.0
 70
     8
 71
     3
 72
    20
 73
    16
 74
     0
 42
0.0000000001
 43
0.0000000001
 40
0.0
 40
0.0
 40
0.0
 40
0.0
 40
0.2
 40
0.2
 40
0.2
 40
0.2
 40
0.4
 40
0.4
 40
0.4
 40
0.4
 40
0.6
 40
0.6
 40
0.6
 40
0.6
 40
1.0
 40
1.0
 40
1.0
 40
1.0
 10
-15.682
 20
19.9733
 30
0.0
 10
-15.682
 20
19.9733
 30
0.0
 10
-15.52
 20
24.0124
 30
0.0
 10
-15.52
 20
24.0124
 30
0.0
 10
-15.52
 20
24.0124
 30
0.0
 10
-15.52
 20
24.0124
 30
0.0
 10
-15.4628
 20
24.0124
 30
0.0
 10
-15.4628
 20
24.0124
 30
0.0
 10
-15.4628
 20
24.0124
 30
0.0
 10
-15.4628
 20
24.0124
 30
0.0
 10
-15.2627
 20
18.5028
 30
0.0
 10
-15.2627
 20
18.5028
 30
0.0
 10
-15.2627
 20
18.5028
 30
0.0
 10
-15.2627
 20
18.5028
 30
0.0
 10
-15.1389
 20
18.3023
 30
0.0
 10
-15.1389
 20
18.3023
 30
0.0
  0
SPLINE
  5
F5
330
1F
100
AcDbEntity
  8
AXIS
  6
NEW_LINE79
 62
   250
100
AcDbSpline
210
0.0
220
0.0
230
1.0
 70
     8
 71
     3
 72
    12
 73
     8
 74
     0
 42
0.0000000001
 43
0.0000000001
 40
0.0
 40
0.0
 40
0.0
 40
0.0
 40
0.3333333333333333
 40
0.3333333333333333
 40
0.3333333333333333
 40
0.3333333333333333
 40
1.0
 40
1.0
 40
1.0
 40
1.0
 10
-16.2088
 20
20.5007
 30
0.0
 10
-16.2088
 20
20.5007
 30
0.0
 10
-16.0576
 20
24.2051
 30
0.0
 10
-16.0576
 20
24.2051
 30
0.0
 10
-16.0576
 20
24.2051
 30
0.0
 10
-16.0576
 20
24.2051
 30
0.0
 10
-15.9712
 20
24.3779
 30
0.0
 10
-15.9712
 20
24.3779
 30
0.0
  0
SPLINE
  5
F7
330
1F
100
AcDbEntity
  8
AXIS
  6
NEW_LINE80
 62
   250
100
AcDbSpline
210
0.0
220
0.0
230
1.0
 70
     8
 71
     3
 72
    12
 73
     8
 74
     0
 42
0.0000000001
 43
0.0000000001
 40
0.0
 40
0.0
 40
0.0
 40
0.0
 40
0.3333333333333333
 40
0.3333333333333333
 40
0.3333333333333333
 40
0.3333333333333333
 40
1.0
 40
1.0
 40
1.0
 40
1.0
 10
-16.1245
 20
20.6187
 30
0.0
 10
-16.1245
 20
20.6187
 30
0.0
 10
-15.9659
 20
24.4051
 30
0.0
 10
-15.9659
 20
24.4051
 30
0.0
 10
-15.9659
 20
24.4051
 30
0.0
 10
-15.9659
 20
24.4051
 30
0.0
 10
-15.9659
 20
28.2838
 30
0.0
 10
-15.9659
 20
28.2838
 30
0.0
  0
SPLINE
  5
F9
330
1F
100
AcDbEntity
  8
AXIS
  6
NEW_LINE81
 62
   250
100
AcDbSpline
210
0.0
220
0.0
230
1.0
 70
     8
 71
     3
 72
    12
 73
     8
 74
     0
 42
0.0000000001
 43
0.0000000001
 40
0.0
 40
0.0
 40
0.0
 40
0.0
 40
0.3333333333333333
 40
0.3333333333333333
 40
0.3333333333333333
 40
0.3333333333333333
 40
1.0
 40
1.0
 40
1.0
 40
1.0
 10
-15.7088
 20
28.2773
 30
0.0
 10
-15.7088
 20
28.2773
 30
0.0
 10
-15.7212
 20
24.0368
 30
0.0
 10
-15.7212
 20
24.0368
 30
0.0
 10
-15.7212
 20
24.0368
 30
0.0
 10
-15.7212
 20
24.0368
 30
0.0
 10
-15.8702
 20
20.5549
 30
0.0
 10
-15.8702
 20
20.5549
 30
0.0
  0
SPLINE
  5
FB
330
1F
100
AcDbEntity
  8
AXIS
  6
NEW_LINE82
 62
   250
100
AcDbSpline
210
0.0
220
0.0
230
1.0
 70
     8
 71
     3
 72
    28
 73
    24
 74
     0
 42
0.0000000001
 43
0.0000000001
 40
0.0
 40
0.0
 40
0.0
 40
0.0
 40
0.1428571428571428
 40
0.1428571428571428
 40
0.1428571428571428
 40
0.1428571428571428
 40
0.2857142857142857
 40
0.2857142857142857
 40
0.2857142857142857
 40
0.2857142857142857
 40
0.4285714285714285
 40
0.4285714285714285
 40
0.4285714285714285
 40
0.4285714285714285
 40
0.5714285714285714
 40
0.5714285714285714
 40
0.5714285714285714
 40
0.5714285714285714
 40
0.7142857142857143
 40
0.7142857142857143
 40
0.7142857142857143
 40
0.7142857142857143
 40
1.0
 40
1.0
 40
1.0
 40
1.0
 10
-15.7248
 20
24.1206
 30
0.0
 10
-15.7248
 20
24.1206
 30
0.0
 10
-15.654
 20
24.4392
 30
0.0
 10
-15.654
 20
24.4392
 30
0.0
 10
-15.654
 20
24.4392
 30
0.0
 10
-15.654
 20
24.4392
 30
0.0
 10
-15.5773
 20
24.4451
 30
0.0
 10
-15.5773
 20
24.4451
 30
0.0
 10
-15.5773
 20
24.4451
 30
0.0
 10
-15.5773
 20
24.4451
 30
0.0
 10
-15.5065
 20
24.392
 30
0.0
 10
-15.5065
 20
24.392
 30
0.0
 10
-15.5065
 20
24.392
 30
0.0
 10
-15.5065
 20
24.392
 30
0.0
 10
-15.4062
 20
24.1973
 30
0.0
 10
-15.4062
 20
24.1973
 30
0.0
 10
-15.4062
 20
24.1973
 30
0.0
 10
-15.4062
 20
24.1973
 30
0.0
 10
-15.418
 20
25.6251
 30
0.0
 10
-15.418
 20
25.6251
 30
0.0
 10
-15.418
 20
25.6251
 30
0.0
 10
-15.418
 20
25.6251
 30
0.0
 10
-15.4138
 20
28.2582
 30
0.0
 10
-15.4138
 20
28.2582
 30
0.0
  0
SPLINE
  5
FD
330
1F
100
AcDbEntity
  8
AXIS
  6
NEW_LINE83
 62
   250
100
AcDbSpline
210
0.0
220
0.0
230
1.0
 70
    24
 71
     3
 72
     8
 73
     4
 74
     0
 42
0.0000000001
 43
0.0000000001
 40
0.0
 40
0.0
 40
0.0
 40
0.0
 40
1.0
 40
1.0
 40
1.0
 40
1.0
 10
-15.6018
 20
28.2786
 30
0.0
 10
-15.6018
 20
28.2786
 30
0.0
 10
-15.5861
 20
24.457
 30
0.0
 10
-15.5861
 20
24.457
 30
0.0
  0
SPLINE
  5
FF
330
1F
100
AcDbEntity
  8
AXIS
  6
NEW_LINE84
 62
   250
100
AcDbSpline
210
0.0
220
0.0
230
1.0
 70
    11
 71
     3
 72
    36
 73
    32
 74
     0
 42
0.0000000001
 43
0.0000000001
 40
0.0
 40
0.0
 40
0.0
 40
0.0
 40
0.1111111111111111
 40
0.1111111111111111
 40
0.1111111111111111
 40
0.1111111111111111
 40
0.2222222222222222
 40
0.2222222222222222
 40
0.2222222222222222
 40
0.2222222222222222
 40
0.3333333333333333
 40
0.3333333333333333
 40
0.3333333333333333
 40
0.3333333333333333
 40
0.4444444444444444
 40
0.4444444444444444
 40
0.4444444444444444
 40
0.4444444444444444
 40
0.5555555555555556
 40
0.5555555555555556
 40
0.5555555555555556
 40
0.5555555555555556
 40
0.6666666666666666
 40
0.6666666666666666
 40
0.6666666666666666
 40
0.6666666666666666
 40
0.7777777777777778
 40
0.7777777777777778
 40
0.7777777777777778
 40
0.7777777777777778
 40
1.0
 40
1.0
 40
1.0
 40
1.0
 10
-15.231
 20
31.1747
 30
0.0
 10
-15.231
 20
31.1747
 30
0.0
 10
-15.231
 20
28.4688
 30
0.0
 10
-15.231
 20
28.4688
 30
0.0
 10
-15.231
 20
28.4688
 30
0.0
 10
-15.231
 20
28.3583
 30
0.0
 10
-15.3214
 20
28.2679
 30
0.0
 10
-15.4319
 20
28.2679
 30
0.0
 10
-15.4319
 20
28.2679
 30
0.0
 10
-15.4319
 20
28.2679
 30
0.0
 10
-15.9404
 20
28.2679
 30
0.0
 10
-15.9404
 20
28.2679
 30
0.0
 10
-15.9404
 20
28.2679
 30
0.0
 10
-16.0509
 20
28.2679
 30
0.0
 10
-16.1413
 20
28.3583
 30
0.0
 10
-16.1413
 20
28.4688
 30
0.0
 10
-16.1413
 20
28.4688
 30
0.0
 10
-16.1413
 20
28.4688
 30
0.0
 10
-16.1413
 20
31.1747
 30
0.0
 10
-16.1413
 20
31.1747
 30
0.0
 10
-16.1413
 20
31.1747
 30
0.0
 10
-16.1413
 20
31.2852
 30
0.0
 10
-16.0509
 20
31.3756
 30
0.0
 10
-15.9404
 20
31.3756
 30
0.0
 10
-15.9404
 20
31.3756
 30
0.0
 10
-15.9404
 20
31.3756
 30
0.0
 10
-15.4319
 20
31.3756
 30
0.0
 10
-15.4319
 20
31.3756
 30
0.0
 10
-15.4319
 20
31.3756
 30
0.0
 10
-15.3214
 20
31.3756
 30
0.0
 10
-15.231
 20
31.2852
 30
0.0
 10
-15.231
 20
31.1747
 30
0.0
  0
SPLINE
  5
101
330
1F
100
AcDbEntity
  8
AXIS
  6
NEW_LINE85
 62
   250
100
AcDbSpline
210
0.0
220
0.0
230
1.0
 70
     8
 71
     3
 72
    24
 73
    20
 74
     0
 42
0.0000000001
 43
0.0000000001
 40
0.0
 40
0.0
 40
0.0
 40
0.0
 40
0.1666666666666667
 40
0.1666666666666667
 40
0.1666666666666667
 40
0.1666666666666667
 40
0.3333333333333333
 40
0.3333333333333333
 40
0.3333333333333333
 40
0.3333333333333333
 40
0.5
 40
0.5
 40
0.5
 40
0.5
 40
0.6666666666666666
 40
0.6666666666666666
 40
0.6666666666666666
 40
0.6666666666666666
 40
1.0
 40
1.0
 40
1.0
 40
1.0
 10
-15.614
 20
31.3693
 30
0.0
 10
-15.614
 20
31.3693
 30
0.0
 10
-15.5261
 20
31.2875
 30
0.0
 10
-15.5261
 20
31.2875
 30
0.0
 10
-15.5261
 20
31.2875
 30
0.0
 10
-15.5261
 20
31.2875
 30
0.0
 10
-15.4633
 20
31.1554
 30
0.0
 10
-15.4633
 20
31.1554
 30
0.0
 10
-15.4633
 20
31.1554
 30
0.0
 10
-15.4633
 20
31.1554
 30
0.0
 10
-15.4821
 20
28.4566
 30
0.0
 10
-15.4821
 20
28.4566
 30
0.0
 10
-15.4821
 20
28.4566
 30
0.0
 10
-15.4821
 20
28.4566
 30
0.0
 10
-15.5324
 20
28.3371
 30
0.0
 10
-15.5324
 20
28.3371
 30
0.0
 10
-15.5324
 20
28.3371
 30
0.0
 10
-15.5324
 20
28.3371
 30
0.0
 10
-15.6265
 20
28.249
 30
0.0
 10
-15.6265
 20
28.249
 30
0.0
  0
SPLINE
  5
103
330
1F
100
AcDbEntity
  8
AXIS
  6
NEW_LINE86
 62
   250
100
AcDbSpline
210
0.0
220
0.0
230
1.0
 70
     8
 71
     3
 72
    16
 73
    12
 74
     0
 42
0.0000000001
 43
0.0000000001
 40
0.0
 40
0.0
 40
0.0
 40
0.0
 40
0.25
 40
0.25
 40
0.25
 40
0.25
 40
0.5
 40
0.5
 40
0.5
 40
0.5
 40
1.0
 40
1.0
 40
1.0
 40
1.0
 10
-15.2281
 20
30.8051
 30
0.0
 10
-15.2281
 20
30.8051
 30
0.0
 10
-15.4445
 20
30.6773
 30
0.0
 10
-15.4445
 20
30.6773
 30
0.0
 10
-15.4445
 20
30.6773
 30
0.0
 10
-15.4445
 20
30.6773
 30
0.0
 10
-15.4633
 20
29.482
 30
0.0
 10
-15.4633
 20
29.482
 30
0.0
 10
-15.4633
 20
29.482
 30
0.0
 10
-15.4633
 20
29.482
 30
0.0
 10
-15.2315
 20
29.3243
 30
0.0
 10
-15.2315
 20
29.3243
 30
0.0
  0
SPLINE
  5
105
330
1F
100
AcDbEntity
  8
AXIS
 62
   250
100
AcDbSpline
210
0.0
220
0.0
230
1.0
 70
    11
 71
     3
 72
    84
 73
    80
 74
     0
 42
0.0000000001
 43
0.0000000001
 40
0.0
 40
0.0
 40
0.0
 40
0.0
 40
0.0476190476190476
 40
0.0476190476190476
 40
0.0476190476190476
 40
0.0476190476190476
 40
0.0952380952380952
 40
0.0952380952380952
 40
0.0952380952380952
 40
0.0952380952380952
 40
0.1428571428571428
 40
0.1428571428571428
 40
0.1428571428571428
 40
0.1428571428571428
 40
0.1904761904761905
 40
0.1904761904761905
 40
0.1904761904761905
 40
0.1904761904761905
 40
0.2380952380952381
 40
0.2380952380952381
 40
0.2380952380952381
 40
0.2380952380952381
 40
0.2857142857142857
 40
0.2857142857142857
 40
0.2857142857142857
 40
0.2857142857142857
 40
0.3333333333333333
 40
0.3333333333333333
 40
0.3333333333333333
 40
0.3333333333333333
 40
0.3809523809523809
 40
0.3809523809523809
 40
0.3809523809523809
 40
0.3809523809523809
 40
0.4285714285714285
 40
0.4285714285714285
 40
0.4285714285714285
 40
0.4285714285714285
 40
0.4761904761904762
 40
0.4761904761904762
 40
0.4761904761904762
 40
0.4761904761904762
 40
0.5238095238095238
 40
0.5238095238095238
 40
0.5238095238095238
 40
0.5238095238095238
 40
0.5714285714285714
 40
0.5714285714285714
 40
0.5714285714285714
 40
0.5714285714285714
 40
0.6190476190476191
 40
0.6190476190476191
 40
0.6190476190476191
 40
0.6190476190476191
 40
0.6666666666666666
 40
0.6666666666666666
 40
0.6666666666666666
 40
0.6666666666666666
 40
0.7142857142857143
 40
0.7142857142857143
 40
0.7142857142857143
 40
0.7142857142857143
 40
0.7619047619047619
 40
0.7619047619047619
 40
0.7619047619047619
 40
0.7619047619047619
 40
0.8095238095238095
 40
0.8095238095238095
 40
0.8095238095238095
 40
0.8095238095238095
 40
0.8571428571428571
 40
0.8571428571428571
 40
0.8571428571428571
 40
0.8571428571428571
 40
0.9047619047619048
 40
0.9047619047619048
 40
0.9047619047619048
 40
0.9047619047619048
 40
1.0
 40
1.0
 40
1.0
 40
1.0
 10
-2.2308
 20
-13.702
 30
0.0
 10
-2.2308
 20
-13.702
 30
0.0
 10
-2.2398
 20
-13.3547
 30
0.0
 10
-2.2398
 20
-13.3547
 30
0.0
 10
-2.2398
 20
-13.3547
 30
0.0
 10
-2.2398
 20
-13.3547
 30
0.0
 10
-2.0611
 20
-13.3455
 30
0.0
 10
-2.0611
 20
-13.3455
 30
0.0
 10
-2.0611
 20
-13.3455
 30
0.0
 10
-2.0611
 20
-13.3455
 30
0.0
 10
-2.0506
 20
-13.7102
 30
0.0
 10
-2.0506
 20
-13.7102
 30
0.0
 10
-2.0506
 20
-13.7102
 30
0.0
 10
-1.9125
 20
-13.7417
 30
0.0
 10
-1.8032
 20
-13.7803
 30
0.0
 10
-1.7227
 20
-13.8253
 30
0.0
 10
-1.7227
 20
-13.8253
 30
0.0
 10
-1.6167
 20
-13.8845
 30
0.0
 10
-1.5144
 20
-13.9665
 30
0.0
 10
-1.4164
 20
-14.0706
 30
0.0
 10
-1.4164
 20
-14.0706
 30
0.0
 10
-1.2746
 20
-14.2213
 30
0.0
 10
-1.1787
 20
-14.3842
 30
0.0
 10
-1.1292
 20
-14.5591
 30
0.0
 10
-1.1292
 20
-14.5591
 30
0.0
 10
-1.0792
 20
-14.7344
 30
0.0
 10
-1.0808
 20
-14.9036
 30
0.0
 10
-1.134
 20
-15.0674
 30
0.0
 10
-1.134
 20
-15.0674
 30
0.0
 10
-1.1879
 20
-15.2312
 30
0.0
 10
-1.2763
 20
-15.3712
 30
0.0
 10
-1.4
 20
-15.4875
 30
0.0
 10
-1.4
 20
-15.4875
 30
0.0
 10
-1.4925
 20
-15.5746
 30
0.0
 10
-1.5883
 20
-15.6403
 30
0.0
 10
-1.6878
 20
-15.6848
 30
0.0
 10
-1.6878
 20
-15.6848
 30
0.0
 10
-1.7643
 20
-15.7187
 30
0.0
 10
-1.8676
 20
-15.7435
 30
0.0
 10
-1.9982
 20
-15.7592
 30
0.0
 10
-1.9982
 20
-15.7592
 30
0.0
 10
-1.9982
 20
-15.7592
 30
0.0
 10
-1.9892
 20
-16.1066
 30
0.0
 10
-1.9892
 20
-16.1066
 30
0.0
 10
-1.9892
 20
-16.1066
 30
0.0
 10
-1.9892
 20
-16.1066
 30
0.0
 10
-2.1678
 20
-16.1158
 30
0.0
 10
-2.1678
 20
-16.1158
 30
0.0
 10
-2.1678
 20
-16.1158
 30
0.0
 10
-2.1678
 20
-16.1158
 30
0.0
 10
-2.177
 20
-15.7518
 30
0.0
 10
-2.177
 20
-15.7518
 30
0.0
 10
-2.177
 20
-15.7518
 30
0.0
 10
-2.3366
 20
-15.714
 30
0.0
 10
-2.4607
 20
-15.6699
 30
0.0
 10
-2.549
 20
-15.62
 30
0.0
 10
-2.549
 20
-15.62
 30
0.0
 10
-2.6373
 20
-15.57
 30
0.0
 10
-2.7286
 20
-15.4957
 30
0.0
 10
-2.8217
 20
-15.3967
 30
0.0
 10
-2.8217
 20
-15.3967
 30
0.0
 10
-2.9638
 20
-15.2456
 30
0.0
 10
-3.0604
 20
-15.0826
 30
0.0
 10
-3.1114
 20
-14.9077
 30
0.0
 10
-3.1114
 20
-14.9077
 30
0.0
 10
-3.1623
 20
-14.7328
 30
0.0
 10
-3.1621
 20
-14.5642
 30
0.0
 10
-3.1105
 20
-14.4007
 30
0.0
 10
-3.1105
 20
-14.4007
 30
0.0
 10
-3.059
 20
-14.2378
 30
0.0
 10
-2.9667
 20
-14.0935
 30
0.0
 10
-2.8335
 20
-13.9682
 30
0.0
 10
-2.8335
 20
-13.9682
 30
0.0
 10
-2.7437
 20
-13.8837
 30
0.0
 10
-2.6543
 20
-13.8215
 30
0.0
 10
-2.5646
 20
-13.7824
 30
0.0
 10
-2.5646
 20
-13.7824
 30
0.0
 10
-2.4752
 20
-13.7428
 30
0.0
 10
-2.3636
 20
-13.7159
 30
0.0
 10
-2.2308
 20
-13.702
 30
0.0
  0
SPLINE
  5
106
330
1F
100
AcDbEntity
  8
AXIS
 62
   250
100
AcDbSpline
210
0.0
220
0.0
230
1.0
 70
    11
 71
     3
 72
    32
 73
    28
 74
     0
 42
0.0000000001
 43
0.0000000001
 40
0.0
 40
0.0
 40
0.0
 40
0.0
 40
0.125
 40
0.125
 40
0.125
 40
0.125
 40
0.25
 40
0.25
 40
0.25
 40
0.25
 40
0.375
 40
0.375
 40
0.375
 40
0.375
 40
0.5
 40
0.5
 40
0.5
 40
0.5
 40
0.625
 40
0.625
 40
0.625
 40
0.625
 40
0.75
 40
0.75
 40
0.75
 40
0.75
 40
1.0
 40
1.0
 40
1.0
 40
1.0
 10
-2.2237
 20
-13.9505
 30
0.0
 10
-2.3331
 20
-13.9605
 30
0.0
 10
-2.4202
 20
-13.9784
 30
0.0
 10
-2.4842
 20
-14.0044
 30
0.0
 10
-2.4842
 20
-14.0044
 30
0.0
 10
-2.5482
 20
-14.031
 30
0.0
 10
-2.6124
 20
-14.074
 30
0.0
 10
-2.6759
 20
-14.1337
 30
0.0
 10
-2.6759
 20
-14.1337
 30
0.0
 10
-2.8225
 20
-14.2716
 30
0.0
 10
-2.8966
 20
-14.4351
 30
0.0
 10
-2.8991
 20
-14.6247
 30
0.0
 10
-2.8991
 20
-14.6247
 30
0.0
 10
-2.9012
 20
-14.814
 30
0.0
 10
-2.8096
 20
-15.0074
 30
0.0
 10
-2.6236
 20
-15.2051
 30
0.0
 10
-2.6236
 20
-15.2051
 30
0.0
 10
-2.5507
 20
-15.2825
 30
0.0
 10
-2.4784
 20
-15.3443
 30
0.0
 10
-2.4069
 20
-15.3907
 30
0.0
 10
-2.4069
 20
-15.3907
 30
0.0
 10
-2.354
 20
-15.4256
 30
0.0
 10
-2.28
 20
-15.4598
 30
0.0
 10
-2.1841
 20
-15.4929
 30
0.0
 10
-2.1841
 20
-15.4929
 30
0.0
 10
-2.1841
 20
-15.4929
 30
0.0
 10
-2.2237
 20
-13.9505
 30
0.0
 10
-2.2237
 20
-13.9505
 30
0.0
  0
SPLINE
  5
107
330
1F
100
AcDbEntity
  8
AXIS
 62
   250
100
AcDbSpline
210
0.0
220
0.0
230
1.0
 70
    11
 71
     3
 72
    28
 73
    24
 74
     0
 42
0.0000000001
 43
0.0000000001
 40
0.0
 40
0.0
 40
0.0
 40
0.0
 40
0.1428571428571428
 40
0.1428571428571428
 40
0.1428571428571428
 40
0.1428571428571428
 40
0.2857142857142857
 40
0.2857142857142857
 40
0.2857142857142857
 40
0.2857142857142857
 40
0.4285714285714285
 40
0.4285714285714285
 40
0.4285714285714285
 40
0.4285714285714285
 40
0.5714285714285714
 40
0.5714285714285714
 40
0.5714285714285714
 40
0.5714285714285714
 40
0.7142857142857143
 40
0.7142857142857143
 40
0.7142857142857143
 40
0.7142857142857143
 40
1.0
 40
1.0
 40
1.0
 40
1.0
 10
-2.0441
 20
-13.9766
 30
0.0
 10
-2.0441
 20
-13.9766
 30
0.0
 10
-2.0043
 20
-15.5131
 30
0.0
 10
-2.0043
 20
-15.5131
 30
0.0
 10
-2.0043
 20
-15.5131
 30
0.0
 10
-1.9134
 20
-15.5069
 30
0.0
 10
-1.838
 20
-15.4916
 30
0.0
 10
-1.7787
 20
-15.4674
 30
0.0
 10
-1.7787
 20
-15.4674
 30
0.0
 10
-1.7009
 20
-15.4362
 30
0.0
 10
-1.6289
 20
-15.3891
 30
0.0
 10
-1.5628
 20
-15.3269
 30
0.0
 10
-1.5628
 20
-15.3269
 30
0.0
 10
-1.4169
 20
-15.1895
 30
0.0
 10
-1.3449
 20
-15.0251
 30
0.0
 10
-1.3468
 20
-14.8324
 30
0.0
 10
-1.3468
 20
-14.8324
 30
0.0
 10
-1.3489
 20
-14.64
 30
0.0
 10
-1.4373
 20
-14.4506
 30
0.0
 10
-1.6123
 20
-14.2646
 30
0.0
 10
-1.6123
 20
-14.2646
 30
0.0
 10
-1.7431
 20
-14.1255
 30
0.0
 10
-1.8873
 20
-14.0292
 30
0.0
 10
-2.0441
 20
-13.9766
 30
0.0
  0
SPLINE
  5
108
330
1F
100
AcDbEntity
  8
AXIS
 62
   250
100
AcDbSpline
210
0.0
220
0.0
230
1.0
 70
    11
 71
     3
 72
    68
 73
    64
 74
     0
 42
0.0000000001
 43
0.0000000001
 40
0.0
 40
0.0
 40
0.0
 40
0.0
 40
0.0588235294117647
 40
0.0588235294117647
 40
0.0588235294117647
 40
0.0588235294117647
 40
0.1176470588235294
 40
0.1176470588235294
 40
0.1176470588235294
 40
0.1176470588235294
 40
0.1764705882352941
 40
0.1764705882352941
 40
0.1764705882352941
 40
0.1764705882352941
 40
0.2352941176470588
 40
0.2352941176470588
 40
0.2352941176470588
 40
0.2352941176470588
 40
0.2941176470588235
 40
0.2941176470588235
 40
0.2941176470588235
 40
0.2941176470588235
 40
0.3529411764705883
 40
0.3529411764705883
 40
0.3529411764705883
 40
0.3529411764705883
 40
0.4117647058823529
 40
0.4117647058823529
 40
0.4117647058823529
 40
0.4117647058823529
 40
0.4705882352941176
 40
0.4705882352941176
 40
0.4705882352941176
 40
0.4705882352941176
 40
0.5294117647058824
 40
0.5294117647058824
 40
0.5294117647058824
 40
0.5294117647058824
 40
0.5882352941176471
 40
0.5882352941176471
 40
0.5882352941176471
 40
0.5882352941176471
 40
0.6470588235294118
 40
0.6470588235294118
 40
0.6470588235294118
 40
0.6470588235294118
 40
0.7058823529411765
 40
0.7058823529411765
 40
0.7058823529411765
 40
0.7058823529411765
 40
0.7647058823529411
 40
0.7647058823529411
 40
0.7647058823529411
 40
0.7647058823529411
 40
0.8235294117647058
 40
0.8235294117647058
 40
0.8235294117647058
 40
0.8235294117647058
 40
0.8823529411764706
 40
0.8823529411764706
 40
0.8823529411764706
 40
0.8823529411764706
 40
1.0
 40
1.0
 40
1.0
 40
1.0
 10
-1.016
 20
-13.5749
 30
0.0
 10
-1.1168
 20
-13.6182
 30
0.0
 10
-1.209
 20
-13.6314
 30
0.0
 10
-1.2934
 20
-13.6145
 30
0.0
 10
-1.2934
 20
-13.6145
 30
0.0
 10
-1.377
 20
-13.5976
 30
0.0
 10
-1.4526
 20
-13.5536
 30
0.0
 10
-1.5193
 20
-13.4828
 30
0.0
 10
-1.5193
 20
-13.4828
 30
0.0
 10
-1.6201
 20
-13.3756
 30
0.0
 10
-1.6662
 20
-13.2497
 30
0.0
 10
-1.6579
 20
-13.1042
 30
0.0
 10
-1.6579
 20
-13.1042
 30
0.0
 10
-1.6495
 20
-12.9587
 30
0.0
 10
-1.5818
 20
-12.826
 30
0.0
 10
-1.4541
 20
-12.7058
 30
0.0
 10
-1.4541
 20
-12.7058
 30
0.0
 10
-1.3256
 20
-12.5849
 30
0.0
 10
-1.187
 20
-12.5249
 30
0.0
 10
-1.0383
 20
-12.5258
 30
0.0
 10
-1.0383
 20
-12.5258
 30
0.0
 10
-0.8899
 20
-12.527
 30
0.0
 10
-0.7654
 20
-12.581
 30
0.0
 10
-0.6645
 20
-12.6882
 30
0.0
 10
-0.6645
 20
-12.6882
 30
0.0
 10
-0.6004
 20
-12.7564
 30
0.0
 10
-0.5625
 20
-12.8324
 30
0.0
 10
-0.5504
 20
-12.9166
 30
0.0
 10
-0.5504
 20
-12.9166
 30
0.0
 10
-0.5389
 20
-13.0009
 30
0.0
 10
-0.5563
 20
-13.0908
 30
0.0
 10
-0.6035
 20
-13.1869
 30
0.0
 10
-0.6035
 20
-13.1869
 30
0.0
 10
-0.4857
 20
-13.1316
 30
0.0
 10
-0.3724
 20
-13.1141
 30
0.0
 10
-0.2632
 20
-13.1354
 30
0.0
 10
-0.2632
 20
-13.1354
 30
0.0
 10
-0.1547
 20
-13.1566
 30
0.0
 10
-0.0573
 20
-13.2128
 30
0.0
 10
0.0281
 20
-13.3037
 30
0.0
 10
0.0281
 20
-13.3037
 30
0.0
 10
0.1467
 20
-13.4297
 30
0.0
 10
0.2015
 20
-13.5771
 30
0.0
 10
0.1933
 20
-13.7462
 30
0.0
 10
0.1933
 20
-13.7462
 30
0.0
 10
0.1849
 20
-13.9156
 30
0.0
 10
0.108
 20
-14.0687
 30
0.0
 10
-0.0373
 20
-14.2054
 30
0.0
 10
-0.0373
 20
-14.2054
 30
0.0
 10
-0.1826
 20
-14.3421
 30
0.0
 10
-0.3397
 20
-14.4092
 30
0.0
 10
-0.5096
 20
-14.407
 30
0.0
 10
-0.5096
 20
-14.407
 30
0.0
 10
-0.6796
 20
-14.4048
 30
0.0
 10
-0.825
 20
-14.3395
 30
0.0
 10
-0.9458
 20
-14.211
 30
0.0
 10
-0.9458
 20
-14.211
 30
0.0
 10
-1.0358
 20
-14.1155
 30
0.0
 10
-1.0869
 20
-14.0124
 30
0.0
 10
-1.0991
 20
-13.9019
 30
0.0
 10
-1.0991
 20
-13.9019
 30
0.0
 10
-1.1114
 20
-13.792
 30
0.0
 10
-1.0838
 20
-13.6827
 30
0.0
 10
-1.016
 20
-13.5749
 30
0.0
  0
SPLINE
  5
109
330
1F
100
AcDbEntity
  8
AXIS
 62
   250
100
AcDbSpline
210
0.0
220
0.0
230
1.0
 70
    11
 71
     3
 72
    36
 73
    32
 74
     0
 42
0.0000000001
 43
0.0000000001
 40
0.0
 40
0.0
 40
0.0
 40
0.0
 40
0.1111111111111111
 40
0.1111111111111111
 40
0.1111111111111111
 40
0.1111111111111111
 40
0.2222222222222222
 40
0.2222222222222222
 40
0.2222222222222222
 40
0.2222222222222222
 40
0.3333333333333333
 40
0.3333333333333333
 40
0.3333333333333333
 40
0.3333333333333333
 40
0.4444444444444444
 40
0.4444444444444444
 40
0.4444444444444444
 40
0.4444444444444444
 40
0.5555555555555556
 40
0.5555555555555556
 40
0.5555555555555556
 40
0.5555555555555556
 40
0.6666666666666666
 40
0.6666666666666666
 40
0.6666666666666666
 40
0.6666666666666666
 40
0.7777777777777778
 40
0.7777777777777778
 40
0.7777777777777778
 40
0.7777777777777778
 40
1.0
 40
1.0
 40
1.0
 40
1.0
 10
-1.3405
 20
-13.3029
 30
0.0
 10
-1.275
 20
-13.3724
 30
0.0
 10
-1.1989
 20
-13.4081
 30
0.0
 10
-1.1128
 20
-13.4103
 30
0.0
 10
-1.1128
 20
-13.4103
 30
0.0
 10
-1.0264
 20
-13.4123
 30
0.0
 10
-0.9471
 20
-13.3797
 30
0.0
 10
-0.8755
 20
-13.3124
 30
0.0
 10
-0.8755
 20
-13.3124
 30
0.0
 10
-0.806
 20
-13.2469
 30
0.0
 10
-0.7694
 20
-13.1712
 30
0.0
 10
-0.7661
 20
-13.0854
 30
0.0
 10
-0.7661
 20
-13.0854
 30
0.0
 10
-0.7629
 20
-12.9997
 30
0.0
 10
-0.7916
 20
-12.9253
 30
0.0
 10
-0.8512
 20
-12.8619
 30
0.0
 10
-0.8512
 20
-12.8619
 30
0.0
 10
-0.9137
 20
-12.7955
 30
0.0
 10
-0.9885
 20
-12.7612
 30
0.0
 10
-1.077
 20
-12.7592
 30
0.0
 10
-1.077
 20
-12.7592
 30
0.0
 10
-1.1655
 20
-12.7572
 30
0.0
 10
-1.2436
 20
-12.7881
 30
0.0
 10
-1.3121
 20
-12.8525
 30
0.0
 10
-1.3121
 20
-12.8525
 30
0.0
 10
-1.381
 20
-12.9173
 30
0.0
 10
-1.4172
 20
-12.9934
 30
0.0
 10
-1.4215
 20
-13.0801
 30
0.0
 10
-1.4215
 20
-13.0801
 30
0.0
 10
-1.4255
 20
-13.1672
 30
0.0
 10
-1.3982
 20
-13.2416
 30
0.0
 10
-1.3405
 20
-13.3029
 30
0.0
  0
SPLINE
  5
10A
330
1F
100
AcDbEntity
  8
AXIS
 62
   250
100
AcDbSpline
210
0.0
220
0.0
230
1.0
 70
    11
 71
     3
 72
    40
 73
    36
 74
     0
 42
0.0000000001
 43
0.0000000001
 40
0.0
 40
0.0
 40
0.0
 40
0.0
 40
0.1
 40
0.1
 40
0.1
 40
0.1
 40
0.2
 40
0.2
 40
0.2
 40
0.2
 40
0.3
 40
0.3
 40
0.3
 40
0.3
 40
0.4
 40
0.4
 40
0.4
 40
0.4
 40
0.5
 40
0.5
 40
0.5
 40
0.5
 40
0.6
 40
0.6
 40
0.6
 40
0.6
 40
0.7
 40
0.7
 40
0.7
 40
0.7
 40
0.8
 40
0.8
 40
0.8
 40
0.8
 40
1.0
 40
1.0
 40
1.0
 40
1.0
 10
-0.7592
 20
-14.0374
 30
0.0
 10
-0.7109
 20
-14.0888
 30
0.0
 10
-0.6515
 20
-14.1271
 30
0.0
 10
-0.582
 20
-14.1522
 30
0.0
 10
-0.582
 20
-14.1522
 30
0.0
 10
-0.5122
 20
-14.1776
 30
0.0
 10
-0.4408
 20
-14.1808
 30
0.0
 10
-0.3677
 20
-14.1618
 30
0.0
 10
-0.3677
 20
-14.1618
 30
0.0
 10
-0.2946
 20
-14.1426
 30
0.0
 10
-0.2302
 20
-14.1074
 30
0.0
 10
-0.1747
 20
-14.0552
 30
0.0
 10
-0.1747
 20
-14.0552
 30
0.0
 10
-0.0884
 20
-13.9739
 30
0.0
 10
-0.0432
 20
-13.8791
 30
0.0
 10
-0.0396
 20
-13.7704
 30
0.0
 10
-0.0396
 20
-13.7704
 30
0.0
 10
-0.0357
 20
-13.6621
 30
0.0
 10
-0.074
 20
-13.5651
 30
0.0
 10
-0.1546
 20
-13.4794
 30
0.0
 10
-0.1546
 20
-13.4794
 30
0.0
 10
-0.2365
 20
-13.3924
 30
0.0
 10
-0.3329
 20
-13.3476
 30
0.0
 10
-0.4443
 20
-13.3452
 30
0.0
 10
-0.4443
 20
-13.3452
 30
0.0
 10
-0.5557
 20
-13.3428
 30
0.0
 10
-0.6551
 20
-13.3827
 30
0.0
 10
-0.7421
 20
-13.4646
 30
0.0
 10
-0.7421
 20
-13.4646
 30
0.0
 10
-0.827
 20
-13.5445
 30
0.0
 10
-0.8709
 20
-13.6386
 30
0.0
 10
-0.8738
 20
-13.7474
 30
0.0
 10
-0.8738
 20
-13.7474
 30
0.0
 10
-0.8765
 20
-13.8564
 30
0.0
 10
-0.8385
 20
-13.9531
 30
0.0
 10
-0.7592
 20
-14.0374
 30
0.0
  0
SPLINE
  5
10B
330
1F
100
AcDbEntity
  8
AXIS
 62
   250
100
AcDbSpline
210
0.0
220
0.0
230
1.0
 70
    24
 71
     3
 72
     8
 73
     4
 74
     0
 42
0.0000000001
 43
0.0000000001
 40
0.0
 40
0.0
 40
0.0
 40
0.0
 40
1.0
 40
1.0
 40
1.0
 40
1.0
 10
-7.1043
 20
-21.8835
 30
0.0
 10
-7.1043
 20
-21.8835
 30
0.0
 10
1.3954
 20
-13.3634
 30
0.0
 10
1.3954
 20
-13.3634
 30
0.0
  0
SPLINE
  5
10C
330
1F
100
AcDbEntity
  8
AXIS
 62
   250
100
AcDbSpline
210
0.0
220
0.0
230
1.0
 70
    11
 71
     3
 72
    20
 73
    16
 74
     0
 42
0.0000000001
 43
0.0000000001
 40
0.0
 40
0.0
 40
0.0
 40
0.0
 40
0.2
 40
0.2
 40
0.2
 40
0.2
 40
0.4
 40
0.4
 40
0.4
 40
0.4
 40
0.6
 40
0.6
 40
0.6
 40
0.6
 40
1.0
 40
1.0
 40
1.0
 40
1.0
 10
-3.8169
 20
-18.5627
 30
0.0
 10
-3.8169
 20
-18.5627
 30
0.0
 10
-2.2581
 20
-17.4011
 30
0.0
 10
-2.2581
 20
-17.4011
 30
0.0
 10
-2.2581
 20
-17.4011
 30
0.0
 10
-2.2581
 20
-17.4011
 30
0.0
 10
-2.6965
 20
-16.9627
 30
0.0
 10
-2.6965
 20
-16.9627
 30
0.0
 10
-2.6965
 20
-16.9627
 30
0.0
 10
-2.6965
 20
-16.9627
 30
0.0
 10
-3.8175
 20
-18.5621
 30
0.0
 10
-3.8175
 20
-18.5621
 30
0.0
 10
-3.8175
 20
-18.5621
 30
0.0
 10
-3.8175
 20
-18.5621
 30
0.0
 10
-3.8169
 20
-18.5627
 30
0.0
 10
-3.8169
 20
-18.5627
 30
0.0
  0
SPLINE
  5
10D
330
1F
100
AcDbEntity
  8
AXIS
 62
   250
100
AcDbSpline
210
0.0
220
0.0
230
1.0
 70
    11
 71
     3
 72
    20
 73
    16
 74
     0
 42
0.0000000001
 43
0.0000000001
 40
0.0
 40
0.0
 40
0.0
 40
0.0
 40
0.2
 40
0.2
 40
0.2
 40
0.2
 40
0.4
 40
0.4
 40
0.4
 40
0.4
 40
0.6
 40
0.6
 40
0.6
 40
0.6
 40
1.0
 40
1.0
 40
1.0
 40
1.0
 10
-4.692
 20
-19.4751
 30
0.0
 10
-4.692
 20
-19.4751
 30
0.0
 10
-6.2508
 20
-20.6367
 30
0.0
 10
-6.2508
 20
-20.6367
 30
0.0
 10
-6.2508
 20
-20.6367
 30
0.0
 10
-6.2508
 20
-20.6367
 30
0.0
 10
-5.8124
 20
-21.0752
 30
0.0
 10
-5.8124
 20
-21.0752
 30
0.0
 10
-5.8124
 20
-21.0752
 30
0.0
 10
-5.8124
 20
-21.0752
 30
0.0
 10
-4.6914
 20
-19.4757
 30
0.0
 10
-4.6914
 20
-19.4757
 30
0.0
 10
-4.6914
 20
-19.4757
 30
0.0
 10
-4.6914
 20
-19.4757
 30
0.0
 10
-4.692
 20
-19.4751
 30
0.0
 10
-4.692
 20
-19.4751
 30
0.0
  0
SPLINE
  5
10E
330
1F
100
AcDbEntity
  8
AXIS
 62
   250
100
AcDbSpline
210
0.0
220
0.0
230
1.0
 70
    11
 71
     3
 72
    92
 73
    88
 74
     0
 42
0.0000000001
 43
0.0000000001
 40
0.0
 40
0.0
 40
0.0
 40
0.0
 40
0.0434782608695652
 40
0.0434782608695652
 40
0.0434782608695652
 40
0.0434782608695652
 40
0.0869565217391304
 40
0.0869565217391304
 40
0.0869565217391304
 40
0.0869565217391304
 40
0.1304347826086956
 40
0.1304347826086956
 40
0.1304347826086956
 40
0.1304347826086956
 40
0.1739130434782609
 40
0.1739130434782609
 40
0.1739130434782609
 40
0.1739130434782609
 40
0.2173913043478261
 40
0.2173913043478261
 40
0.2173913043478261
 40
0.2173913043478261
 40
0.2608695652173913
 40
0.2608695652173913
 40
0.2608695652173913
 40
0.2608695652173913
 40
0.3043478260869565
 40
0.3043478260869565
 40
0.3043478260869565
 40
0.3043478260869565
 40
0.3478260869565217
 40
0.3478260869565217
 40
0.3478260869565217
 40
0.3478260869565217
 40
0.391304347826087
 40
0.391304347826087
 40
0.391304347826087
 40
0.391304347826087
 40
0.4347826086956522
 40
0.4347826086956522
 40
0.4347826086956522
 40
0.4347826086956522
 40
0.4782608695652174
 40
0.4782608695652174
 40
0.4782608695652174
 40
0.4782608695652174
 40
0.5217391304347826
 40
0.5217391304347826
 40
0.5217391304347826
 40
0.5217391304347826
 40
0.5652173913043478
 40
0.5652173913043478
 40
0.5652173913043478
 40
0.5652173913043478
 40
0.6086956521739131
 40
0.6086956521739131
 40
0.6086956521739131
 40
0.6086956521739131
 40
0.6521739130434783
 40
0.6521739130434783
 40
0.6521739130434783
 40
0.6521739130434783
 40
0.6956521739130435
 40
0.6956521739130435
 40
0.6956521739130435
 40
0.6956521739130435
 40
0.7391304347826086
 40
0.7391304347826086
 40
0.7391304347826086
 40
0.7391304347826086
 40
0.782608695652174
 40
0.782608695652174
 40
0.782608695652174
 40
0.782608695652174
 40
0.8260869565217391
 40
0.8260869565217391
 40
0.8260869565217391
 40
0.8260869565217391
 40
0.8695652173913043
 40
0.8695652173913043
 40
0.8695652173913043
 40
0.8695652173913043
 40
0.9130434782608695
 40
0.9130434782608695
 40
0.9130434782608695
 40
0.9130434782608695
 40
1.0
 40
1.0
 40
1.0
 40
1.0
 10
22.4838
 20
10.3362
 30
0.0
 10
22.4838
 20
10.3362
 30
0.0
 10
22.7444
 20
10.3583
 30
0.0
 10
22.7444
 20
10.3583
 30
0.0
 10
22.7444
 20
10.3583
 30
0.0
 10
22.7637
 20
10.2313
 30
0.0
 10
22.8084
 20
10.1363
 30
0.0
 10
22.8785
 20
10.0723
 30
0.0
 10
22.8785
 20
10.0723
 30
0.0
 10
22.949
 20
10.0083
 30
0.0
 10
23.0337
 20
9.9763
 30
0.0
 10
23.1329
 20
9.9763
 30
0.0
 10
23.1329
 20
9.9763
 30
0.0
 10
23.2524
 20
9.9763
 30
0.0
 10
23.3535
 20
10.0215
 30
0.0
 10
23.4358
 20
10.1113
 30
0.0
 10
23.4358
 20
10.1113
 30
0.0
 10
23.5186
 20
10.2016
 30
0.0
 10
23.56
 20
10.3211
 30
0.0
 10
23.56
 20
10.4697
 30
0.0
 10
23.56
 20
10.4697
 30
0.0
 10
23.56
 20
10.6113
 30
0.0
 10
23.5205
 20
10.7228
 30
0.0
 10
23.441
 20
10.8046
 30
0.0
 10
23.441
 20
10.8046
 30
0.0
 10
23.3615
 20
10.8865
 30
0.0
 10
23.2576
 20
10.9274
 30
0.0
 10
23.1287
 20
10.9274
 30
0.0
 10
23.1287
 20
10.9274
 30
0.0
 10
23.0487
 20
10.9274
 30
0.0
 10
22.9768
 20
10.9091
 30
0.0
 10
22.9123
 20
10.8729
 30
0.0
 10
22.9123
 20
10.8729
 30
0.0
 10
22.8479
 20
10.8366
 30
0.0
 10
22.7976
 20
10.7896
 30
0.0
 10
22.7609
 20
10.7317
 30
0.0
 10
22.7609
 20
10.7317
 30
0.0
 10
22.7609
 20
10.7317
 30
0.0
 10
22.528
 20
10.7618
 30
0.0
 10
22.528
 20
10.7618
 30
0.0
 10
22.528
 20
10.7618
 30
0.0
 10
22.528
 20
10.7618
 30
0.0
 10
22.7237
 20
11.7995
 30
0.0
 10
22.7237
 20
11.7995
 30
0.0
 10
22.7237
 20
11.7995
 30
0.0
 10
22.7237
 20
11.7995
 30
0.0
 10
23.7284
 20
11.7995
 30
0.0
 10
23.7284
 20
11.7995
 30
0.0
 10
23.7284
 20
11.7995
 30
0.0
 10
23.7284
 20
11.7995
 30
0.0
 10
23.7284
 20
11.5624
 30
0.0
 10
23.7284
 20
11.5624
 30
0.0
 10
23.7284
 20
11.5624
 30
0.0
 10
23.7284
 20
11.5624
 30
0.0
 10
22.9222
 20
11.5624
 30
0.0
 10
22.9222
 20
11.5624
 30
0.0
 10
22.9222
 20
11.5624
 30
0.0
 10
22.9222
 20
11.5624
 30
0.0
 10
22.8131
 20
11.0196
 30
0.0
 10
22.8131
 20
11.0196
 30
0.0
 10
22.8131
 20
11.0196
 30
0.0
 10
22.9344
 20
11.1043
 30
0.0
 10
23.0619
 20
11.1466
 30
0.0
 10
23.195
 20
11.1466
 30
0.0
 10
23.195
 20
11.1466
 30
0.0
 10
23.3714
 20
11.1466
 30
0.0
 10
23.52
 20
11.0855
 30
0.0
 10
23.6414
 20
10.9632
 30
0.0
 10
23.6414
 20
10.9632
 30
0.0
 10
23.7627
 20
10.8409
 30
0.0
 10
23.8234
 20
10.6838
 30
0.0
 10
23.8234
 20
10.4919
 30
0.0
 10
23.8234
 20
10.4919
 30
0.0
 10
23.8234
 20
10.3089
 30
0.0
 10
23.7698
 20
10.1508
 30
0.0
 10
23.6635
 20
10.0177
 30
0.0
 10
23.6635
 20
10.0177
 30
0.0
 10
23.5337
 20
9.8545
 30
0.0
 10
23.3568
 20
9.7727
 30
0.0
 10
23.1329
 20
9.7727
 30
0.0
 10
23.1329
 20
9.7727
 30
0.0
 10
22.949
 20
9.7727
 30
0.0
 10
22.799
 20
9.8239
 30
0.0
 10
22.6828
 20
9.9269
 30
0.0
 10
22.6828
 20
9.9269
 30
0.0
 10
22.5666
 20
10.03
 30
0.0
 10
22.5003
 20
10.1664
 30
0.0
 10
22.4838
 20
10.3362
 30
0.0
  0
SPLINE
  5
10F
330
1F
100
AcDbEntity
  8
AXIS
 62
   250
100
AcDbSpline
210
0.0
220
0.0
230
1.0
 70
    11
 71
     3
 72
    92
 73
    88
 74
     0
 42
0.0000000001
 43
0.0000000001
 40
0.0
 40
0.0
 40
0.0
 40
0.0
 40
0.0434782608695652
 40
0.0434782608695652
 40
0.0434782608695652
 40
0.0434782608695652
 40
0.0869565217391304
 40
0.0869565217391304
 40
0.0869565217391304
 40
0.0869565217391304
 40
0.1304347826086956
 40
0.1304347826086956
 40
0.1304347826086956
 40
0.1304347826086956
 40
0.1739130434782609
 40
0.1739130434782609
 40
0.1739130434782609
 40
0.1739130434782609
 40
0.2173913043478261
 40
0.2173913043478261
 40
0.2173913043478261
 40
0.2173913043478261
 40
0.2608695652173913
 40
0.2608695652173913
 40
0.2608695652173913
 40
0.2608695652173913
 40
0.3043478260869565
 40
0.3043478260869565
 40
0.3043478260869565
 40
0.3043478260869565
 40
0.3478260869565217
 40
0.3478260869565217
 40
0.3478260869565217
 40
0.3478260869565217
 40
0.391304347826087
 40
0.391304347826087
 40
0.391304347826087
 40
0.391304347826087
 40
0.4347826086956522
 40
0.4347826086956522
 40
0.4347826086956522
 40
0.4347826086956522
 40
0.4782608695652174
 40
0.4782608695652174
 40
0.4782608695652174
 40
0.4782608695652174
 40
0.5217391304347826
 40
0.5217391304347826
 40
0.5217391304347826
 40
0.5217391304347826
 40
0.5652173913043478
 40
0.5652173913043478
 40
0.5652173913043478
 40
0.5652173913043478
 40
0.6086956521739131
 40
0.6086956521739131
 40
0.6086956521739131
 40
0.6086956521739131
 40
0.6521739130434783
 40
0.6521739130434783
 40
0.6521739130434783
 40
0.6521739130434783
 40
0.6956521739130435
 40
0.6956521739130435
 40
0.6956521739130435
 40
0.6956521739130435
 40
0.7391304347826086
 40
0.7391304347826086
 40
0.7391304347826086
 40
0.7391304347826086
 40
0.782608695652174
 40
0.782608695652174
 40
0.782608695652174
 40
0.782608695652174
 40
0.8260869565217391
 40
0.8260869565217391
 40
0.8260869565217391
 40
0.8260869565217391
 40
0.8695652173913043
 40
0.8695652173913043
 40
0.8695652173913043
 40
0.8695652173913043
 40
0.9130434782608695
 40
0.9130434782608695
 40
0.9130434782608695
 40
0.9130434782608695
 40
1.0
 40
1.0
 40
1.0
 40
1.0
 10
25.3573
 20
10.0455
 30
0.0
 10
25.3573
 20
10.0455
 30
0.0
 10
25.3573
 20
9.807
 30
0.0
 10
25.3573
 20
9.807
 30
0.0
 10
25.3573
 20
9.807
 30
0.0
 10
25.3573
 20
9.807
 30
0.0
 10
24.0219
 20
9.807
 30
0.0
 10
24.0219
 20
9.807
 30
0.0
 10
24.0219
 20
9.807
 30
0.0
 10
24.02
 20
9.8667
 30
0.0
 10
24.0294
 20
9.9241
 30
0.0
 10
24.0506
 20
9.9792
 30
0.0
 10
24.0506
 20
9.9792
 30
0.0
 10
24.0845
 20
10.0704
 30
0.0
 10
24.139
 20
10.1598
 30
0.0
 10
24.2138
 20
10.2482
 30
0.0
 10
24.2138
 20
10.2482
 30
0.0
 10
24.2891
 20
10.3362
 30
0.0
 10
24.3973
 20
10.4382
 30
0.0
 10
24.5384
 20
10.5539
 30
0.0
 10
24.5384
 20
10.5539
 30
0.0
 10
24.758
 20
10.7341
 30
0.0
 10
24.9067
 20
10.8766
 30
0.0
 10
24.9838
 20
10.982
 30
0.0
 10
24.9838
 20
10.982
 30
0.0
 10
25.0609
 20
11.0869
 30
0.0
 10
25.0995
 20
11.1866
 30
0.0
 10
25.0995
 20
11.2802
 30
0.0
 10
25.0995
 20
11.2802
 30
0.0
 10
25.0995
 20
11.3785
 30
0.0
 10
25.0642
 20
11.4613
 30
0.0
 10
24.9942
 20
11.529
 30
0.0
 10
24.9942
 20
11.529
 30
0.0
 10
24.9236
 20
11.5963
 30
0.0
 10
24.8319
 20
11.6301
 30
0.0
 10
24.719
 20
11.6301
 30
0.0
 10
24.719
 20
11.6301
 30
0.0
 10
24.5995
 20
11.6301
 30
0.0
 10
24.504
 20
11.5944
 30
0.0
 10
24.4325
 20
11.5224
 30
0.0
 10
24.4325
 20
11.5224
 30
0.0
 10
24.3606
 20
11.4509
 30
0.0
 10
24.3244
 20
11.3517
 30
0.0
 10
24.3234
 20
11.2252
 30
0.0
 10
24.3234
 20
11.2252
 30
0.0
 10
24.3234
 20
11.2252
 30
0.0
 10
24.0685
 20
11.251
 30
0.0
 10
24.0685
 20
11.251
 30
0.0
 10
24.0685
 20
11.251
 30
0.0
 10
24.0859
 20
11.4415
 30
0.0
 10
24.1517
 20
11.5864
 30
0.0
 10
24.2656
 20
11.6861
 30
0.0
 10
24.2656
 20
11.6861
 30
0.0
 10
24.3794
 20
11.7858
 30
0.0
 10
24.5327
 20
11.8357
 30
0.0
 10
24.7246
 20
11.8357
 30
0.0
 10
24.7246
 20
11.8357
 30
0.0
 10
24.9184
 20
11.8357
 30
0.0
 10
25.0718
 20
11.7816
 30
0.0
 10
25.1847
 20
11.6744
 30
0.0
 10
25.1847
 20
11.6744
 30
0.0
 10
25.298
 20
11.5666
 30
0.0
 10
25.3545
 20
11.4335
 30
0.0
 10
25.3545
 20
11.2745
 30
0.0
 10
25.3545
 20
11.2745
 30
0.0
 10
25.3545
 20
11.1936
 30
0.0
 10
25.338
 20
11.1141
 30
0.0
 10
25.3046
 20
11.0361
 30
0.0
 10
25.3046
 20
11.0361
 30
0.0
 10
25.2717
 20
10.958
 30
0.0
 10
25.2166
 20
10.8757
 30
0.0
 10
25.14
 20
10.7896
 30
0.0
 10
25.14
 20
10.7896
 30
0.0
 10
25.0633
 20
10.703
 30
0.0
 10
24.9358
 20
10.5845
 30
0.0
 10
24.7576
 20
10.434
 30
0.0
 10
24.7576
 20
10.434
 30
0.0
 10
24.6089
 20
10.3089
 30
0.0
 10
24.5134
 20
10.2242
 30
0.0
 10
24.4711
 20
10.1795
 30
0.0
 10
24.4711
 20
10.1795
 30
0.0
 10
24.4288
 20
10.1353
 30
0.0
 10
24.394
 20
10.0906
 30
0.0
 10
24.3662
 20
10.0455
 30
0.0
 10
24.3662
 20
10.0455
 30
0.0
 10
24.3662
 20
10.0455
 30
0.0
 10
25.3573
 20
10.0455
 30
0.0
 10
25.3573
 20
10.0455
 30
0.0
  0
SPLINE
  5
110
330
1F
100
AcDbEntity
  8
AXIS
 62
   250
100
AcDbSpline
210
0.0
220
0.0
230
1.0
 70
    24
 71
     3
 72
     8
 73
     4
 74
     0
 42
0.0000000001
 43
0.0000000001
 40
0.0
 40
0.0
 40
0.0
 40
0.0
 40
1.0
 40
1.0
 40
1.0
 40
1.0
 10
20.3431
 20
9.7082
 30
0.0
 10
20.3431
 20
9.7082
 30
0.0
 10
20.3525
 20
5.1101
 30
0.0
 10
20.3525
 20
5.1101
 30
0.0
  0
SPLINE
  5
111
330
1F
100
AcDbEntity
  8
AXIS
 62
   250
100
AcDbSpline
210
0.0
220
0.0
230
1.0
 70
    24
 71
     3
 72
     8
 73
     4
 74
     0
 42
0.0000000001
 43
0.0000000001
 40
0.0
 40
0.0
 40
0.0
 40
0.0
 40
1.0
 40
1.0
 40
1.0
 40
1.0
 10
27.3786
 20
9.9186
 30
0.0
 10
27.3786
 20
9.9186
 30
0.0
 10
27.3971
 20
7.65
 30
0.0
 10
27.3971
 20
7.65
 30
0.0
  0
SPLINE
  5
112
330
1F
100
AcDbEntity
  8
AXIS
 62
   250
100
AcDbSpline
210
0.0
220
0.0
230
1.0
 70
    24
 71
     3
 72
     8
 73
     4
 74
     0
 42
0.0000000001
 43
0.0000000001
 40
0.0
 40
0.0
 40
0.0
 40
0.0
 40
1.0
 40
1.0
 40
1.0
 40
1.0
 10
15.3708
 20
9.3588
 30
0.0
 10
15.3708
 20
9.3588
 30
0.0
 10
31.6749
 20
9.3761
 30
0.0
 10
31.6749
 20
9.3761
 30
0.0
  0
SPLINE
  5
113
330
1F
100
AcDbEntity
  8
AXIS
 62
   250
100
AcDbSpline
210
0.0
220
0.0
230
1.0
 70
    11
 71
     3
 72
    20
 73
    16
 74
     0
 42
0.0000000001
 43
0.0000000001
 40
0.0
 40
0.0
 40
0.0
 40
0.0
 40
0.2
 40
0.2
 40
0.2
 40
0.2
 40
0.4
 40
0.4
 40
0.4
 40
0.4
 40
0.6
 40
0.6
 40
0.6
 40
0.6
 40
1.0
 40
1.0
 40
1.0
 40
1.0
 10
27.4629
 20
9.3884
 30
0.0
 10
27.4629
 20
9.3884
 30
0.0
 10
30.4637
 20
8.9503
 30
0.0
 10
30.4637
 20
8.9503
 30
0.0
 10
30.4637
 20
8.9503
 30
0.0
 10
30.4637
 20
8.9503
 30
0.0
 10
30.4637
 20
9.9175
 30
0.0
 10
30.4637
 20
9.9175
 30
0.0
 10
30.4637
 20
9.9175
 30
0.0
 10
30.4637
 20
9.9175
 30
0.0
 10
27.4629
 20
9.3898
 30
0.0
 10
27.4629
 20
9.3898
 30
0.0
 10
27.4629
 20
9.3898
 30
0.0
 10
27.4629
 20
9.3898
 30
0.0
 10
27.4629
 20
9.3884
 30
0.0
 10
27.4629
 20
9.3884
 30
0.0
  0
SPLINE
  5
114
330
1F
100
AcDbEntity
  8
AXIS
 62
   250
100
AcDbSpline
210
0.0
220
0.0
230
1.0
 70
    11
 71
     3
 72
    20
 73
    16
 74
     0
 42
0.0000000001
 43
0.0000000001
 40
0.0
 40
0.0
 40
0.0
 40
0.0
 40
0.2
 40
0.2
 40
0.2
 40
0.2
 40
0.4
 40
0.4
 40
0.4
 40
0.4
 40
0.6
 40
0.6
 40
0.6
 40
0.6
 40
1.0
 40
1.0
 40
1.0
 40
1.0
 10
20.3391
 20
9.3595
 30
0.0
 10
20.3391
 20
9.3595
 30
0.0
 10
17.3392
 20
9.7975
 30
0.0
 10
17.3392
 20
9.7975
 30
0.0
 10
17.3392
 20
9.7975
 30
0.0
 10
17.3392
 20
9.7975
 30
0.0
 10
17.3392
 20
8.8306
 30
0.0
 10
17.3392
 20
8.8306
 30
0.0
 10
17.3392
 20
8.8306
 30
0.0
 10
17.3392
 20
8.8306
 30
0.0
 10
20.3391
 20
9.3581
 30
0.0
 10
20.3391
 20
9.3581
 30
0.0
 10
20.3391
 20
9.3581
 30
0.0
 10
20.3391
 20
9.3581
 30
0.0
 10
20.3391
 20
9.3595
 30
0.0
 10
20.3391
 20
9.3595
 30
0.0
  0
SPLINE
  5
115
330
1F
100
AcDbEntity
  8
AXIS
 62
   250
100
AcDbSpline
210
0.0
220
0.0
230
1.0
 70
    11
 71
     3
 72
    84
 73
    80
 74
     0
 42
0.0000000001
 43
0.0000000001
 40
0.0
 40
0.0
 40
0.0
 40
0.0
 40
0.0476190476190476
 40
0.0476190476190476
 40
0.0476190476190476
 40
0.0476190476190476
 40
0.0952380952380952
 40
0.0952380952380952
 40
0.0952380952380952
 40
0.0952380952380952
 40
0.1428571428571428
 40
0.1428571428571428
 40
0.1428571428571428
 40
0.1428571428571428
 40
0.1904761904761905
 40
0.1904761904761905
 40
0.1904761904761905
 40
0.1904761904761905
 40
0.2380952380952381
 40
0.2380952380952381
 40
0.2380952380952381
 40
0.2380952380952381
 40
0.2857142857142857
 40
0.2857142857142857
 40
0.2857142857142857
 40
0.2857142857142857
 40
0.3333333333333333
 40
0.3333333333333333
 40
0.3333333333333333
 40
0.3333333333333333
 40
0.3809523809523809
 40
0.3809523809523809
 40
0.3809523809523809
 40
0.3809523809523809
 40
0.4285714285714285
 40
0.4285714285714285
 40
0.4285714285714285
 40
0.4285714285714285
 40
0.4761904761904762
 40
0.4761904761904762
 40
0.4761904761904762
 40
0.4761904761904762
 40
0.5238095238095238
 40
0.5238095238095238
 40
0.5238095238095238
 40
0.5238095238095238
 40
0.5714285714285714
 40
0.5714285714285714
 40
0.5714285714285714
 40
0.5714285714285714
 40
0.6190476190476191
 40
0.6190476190476191
 40
0.6190476190476191
 40
0.6190476190476191
 40
0.6666666666666666
 40
0.6666666666666666
 40
0.6666666666666666
 40
0.6666666666666666
 40
0.7142857142857143
 40
0.7142857142857143
 40
0.7142857142857143
 40
0.7142857142857143
 40
0.7619047619047619
 40
0.7619047619047619
 40
0.7619047619047619
 40
0.7619047619047619
 40
0.8095238095238095
 40
0.8095238095238095
 40
0.8095238095238095
 40
0.8095238095238095
 40
0.8571428571428571
 40
0.8571428571428571
 40
0.8571428571428571
 40
0.8571428571428571
 40
0.9047619047619048
 40
0.9047619047619048
 40
0.9047619047619048
 40
0.9047619047619048
 40
1.0
 40
1.0
 40
1.0
 40
1.0
 10
38.6945
 20
-1.1833
 30
0.0
 10
38.6945
 20
-1.1833
 30
0.0
 10
38.4354
 20
-0.9519
 30
0.0
 10
38.4354
 20
-0.9519
 30
0.0
 10
38.4354
 20
-0.9519
 30
0.0
 10
38.4354
 20
-0.9519
 30
0.0
 10
38.5511
 20
-0.8155
 30
0.0
 10
38.5511
 20
-0.8155
 30
0.0
 10
38.5511
 20
-0.8155
 30
0.0
 10
38.5511
 20
-0.8155
 30
0.0
 10
38.8239
 20
-1.0577
 30
0.0
 10
38.8239
 20
-1.0577
 30
0.0
 10
38.8239
 20
-1.0577
 30
0.0
 10
38.9415
 20
-0.9787
 30
0.0
 10
39.0445
 20
-0.9256
 30
0.0
 10
39.1324
 20
-0.8978
 30
0.0
 10
39.1324
 20
-0.8978
 30
0.0
 10
39.2482
 20
-0.8611
 30
0.0
 10
39.378
 20
-0.8428
 30
0.0
 10
39.521
 20
-0.8428
 30
0.0
 10
39.521
 20
-0.8428
 30
0.0
 10
39.7279
 20
-0.8428
 30
0.0
 10
39.9123
 20
-0.8846
 30
0.0
 10
40.0736
 20
-0.9684
 30
0.0
 10
40.0736
 20
-0.9684
 30
0.0
 10
40.2355
 20
-1.0521
 30
0.0
 10
40.3577
 20
-1.1692
 30
0.0
 10
40.4405
 20
-1.3202
 30
0.0
 10
40.4405
 20
-1.3202
 30
0.0
 10
40.5228
 20
-1.4717
 30
0.0
 10
40.5642
 20
-1.632
 30
0.0
 10
40.5642
 20
-1.8018
 30
0.0
 10
40.5642
 20
-1.8018
 30
0.0
 10
40.5642
 20
-1.9288
 30
0.0
 10
40.5464
 20
-2.0436
 30
0.0
 10
40.5106
 20
-2.1466
 30
0.0
 10
40.5106
 20
-2.1466
 30
0.0
 10
40.4829
 20
-2.2256
 30
0.0
 10
40.4302
 20
-2.3178
 30
0.0
 10
40.3521
 20
-2.4237
 30
0.0
 10
40.3521
 20
-2.4237
 30
0.0
 10
40.3521
 20
-2.4237
 30
0.0
 10
40.6113
 20
-2.6551
 30
0.0
 10
40.6113
 20
-2.6551
 30
0.0
 10
40.6113
 20
-2.6551
 30
0.0
 10
40.6113
 20
-2.6551
 30
0.0
 10
40.4956
 20
-2.7915
 30
0.0
 10
40.4956
 20
-2.7915
 30
0.0
 10
40.4956
 20
-2.7915
 30
0.0
 10
40.4956
 20
-2.7915
 30
0.0
 10
40.2242
 20
-2.5488
 30
0.0
 10
40.2242
 20
-2.5488
 30
0.0
 10
40.2242
 20
-2.5488
 30
0.0
 10
40.0873
 20
-2.6391
 30
0.0
 10
39.9702
 20
-2.6993
 30
0.0
 10
39.8733
 20
-2.7294
 30
0.0
 10
39.8733
 20
-2.7294
 30
0.0
 10
39.7764
 20
-2.7595
 30
0.0
 10
39.6597
 20
-2.775
 30
0.0
 10
39.5238
 20
-2.775
 30
0.0
 10
39.5238
 20
-2.775
 30
0.0
 10
39.3164
 20
-2.775
 30
0.0
 10
39.1315
 20
-2.7336
 30
0.0
 10
38.9692
 20
-2.6509
 30
0.0
 10
38.9692
 20
-2.6509
 30
0.0
 10
38.8069
 20
-2.5681
 30
0.0
 10
38.6842
 20
-2.4524
 30
0.0
 10
38.6005
 20
-2.3028
 30
0.0
 10
38.6005
 20
-2.3028
 30
0.0
 10
38.5172
 20
-2.1537
 30
0.0
 10
38.4753
 20
-1.9876
 30
0.0
 10
38.4753
 20
-1.8047
 30
0.0
 10
38.4753
 20
-1.8047
 30
0.0
 10
38.4753
 20
-1.6814
 30
0.0
 10
38.4913
 20
-1.5737
 30
0.0
 10
38.5243
 20
-1.4815
 30
0.0
 10
38.5243
 20
-1.4815
 30
0.0
 10
38.5567
 20
-1.3893
 30
0.0
 10
38.6136
 20
-1.2896
 30
0.0
 10
38.6945
 20
-1.1833
 30
0.0
  0
SPLINE
  5
116
330
1F
100
AcDbEntity
  8
AXIS
 62
   250
100
AcDbSpline
210
0.0
220
0.0
230
1.0
 70
    11
 71
     3
 72
    32
 73
    28
 74
     0
 42
0.0000000001
 43
0.0000000001
 40
0.0
 40
0.0
 40
0.0
 40
0.0
 40
0.125
 40
0.125
 40
0.125
 40
0.125
 40
0.25
 40
0.25
 40
0.25
 40
0.25
 40
0.375
 40
0.375
 40
0.375
 40
0.375
 40
0.5
 40
0.5
 40
0.5
 40
0.5
 40
0.625
 40
0.625
 40
0.625
 40
0.625
 40
0.75
 40
0.75
 40
0.75
 40
0.75
 40
1.0
 40
1.0
 40
1.0
 40
1.0
 10
38.8803
 20
-1.3484
 30
0.0
 10
38.8126
 20
-1.435
 30
0.0
 10
38.766
 20
-1.5107
 30
0.0
 10
38.7411
 20
-1.5751
 30
0.0
 10
38.7411
 20
-1.5751
 30
0.0
 10
38.7166
 20
-1.64
 30
0.0
 10
38.7039
 20
-1.7162
 30
0.0
 10
38.7039
 20
-1.8033
 30
0.0
 10
38.7039
 20
-1.8033
 30
0.0
 10
38.7039
 20
-2.0046
 30
0.0
 10
38.7721
 20
-2.1706
 30
0.0
 10
38.9085
 20
-2.3023
 30
0.0
 10
38.9085
 20
-2.3023
 30
0.0
 10
39.045
 20
-2.4336
 30
0.0
 10
39.2486
 20
-2.4994
 30
0.0
 10
39.52
 20
-2.4994
 30
0.0
 10
39.52
 20
-2.4994
 30
0.0
 10
39.6263
 20
-2.4994
 30
0.0
 10
39.7209
 20
-2.4891
 30
0.0
 10
39.8037
 20
-2.4688
 30
0.0
 10
39.8037
 20
-2.4688
 30
0.0
 10
39.8653
 20
-2.4542
 30
0.0
 10
39.941
 20
-2.4237
 30
0.0
 10
40.0308
 20
-2.3766
 30
0.0
 10
40.0308
 20
-2.3766
 30
0.0
 10
40.0308
 20
-2.3766
 30
0.0
 10
38.8803
 20
-1.3484
 30
0.0
 10
38.8803
 20
-1.3484
 30
0.0
  0
SPLINE
  5
117
330
1F
100
AcDbEntity
  8
AXIS
 62
   250
100
AcDbSpline
210
0.0
220
0.0
230
1.0
 70
    11
 71
     3
 72
    28
 73
    24
 74
     0
 42
0.0000000001
 43
0.0000000001
 40
0.0
 40
0.0
 40
0.0
 40
0.0
 40
0.1428571428571428
 40
0.1428571428571428
 40
0.1428571428571428
 40
0.1428571428571428
 40
0.2857142857142857
 40
0.2857142857142857
 40
0.2857142857142857
 40
0.2857142857142857
 40
0.4285714285714285
 40
0.4285714285714285
 40
0.4285714285714285
 40
0.4285714285714285
 40
0.5714285714285714
 40
0.5714285714285714
 40
0.5714285714285714
 40
0.5714285714285714
 40
0.7142857142857143
 40
0.7142857142857143
 40
0.7142857142857143
 40
0.7142857142857143
 40
1.0
 40
1.0
 40
1.0
 40
1.0
 10
39.0224
 20
-1.2355
 30
0.0
 10
39.0224
 20
-1.2355
 30
0.0
 10
40.1687
 20
-2.2595
 30
0.0
 10
40.1687
 20
-2.2595
 30
0.0
 10
40.1687
 20
-2.2595
 30
0.0
 10
40.2265
 20
-2.189
 30
0.0
 10
40.267
 20
-2.1236
 30
0.0
 10
40.29
 20
-2.0638
 30
0.0
 10
40.29
 20
-2.0638
 30
0.0
 10
40.3206
 20
-1.9858
 30
0.0
 10
40.3356
 20
-1.9011
 30
0.0
 10
40.3356
 20
-1.8103
 30
0.0
 10
40.3356
 20
-1.8103
 30
0.0
 10
40.3356
 20
-1.6099
 30
0.0
 10
40.2651
 20
-1.4448
 30
0.0
 10
40.1235
 20
-1.3141
 30
0.0
 10
40.1235
 20
-1.3141
 30
0.0
 10
39.9819
 20
-1.1838
 30
0.0
 10
39.7834
 20
-1.1184
 30
0.0
 10
39.528
 20
-1.1184
 30
0.0
 10
39.528
 20
-1.1184
 30
0.0
 10
39.3371
 20
-1.1184
 30
0.0
 10
39.1682
 20
-1.1574
 30
0.0
 10
39.0224
 20
-1.2355
 30
0.0
  0
SPLINE
  5
118
330
1F
100
AcDbEntity
  8
AXIS
 62
   250
100
AcDbSpline
210
0.0
220
0.0
230
1.0
 70
    11
 71
     3
 72
    40
 73
    36
 74
     0
 42
0.0000000001
 43
0.0000000001
 40
0.0
 40
0.0
 40
0.0
 40
0.0
 40
0.1
 40
0.1
 40
0.1
 40
0.1
 40
0.2
 40
0.2
 40
0.2
 40
0.2
 40
0.3
 40
0.3
 40
0.3
 40
0.3
 40
0.4
 40
0.4
 40
0.4
 40
0.4
 40
0.5
 40
0.5
 40
0.5
 40
0.5
 40
0.6
 40
0.6
 40
0.6
 40
0.6
 40
0.7
 40
0.7
 40
0.7
 40
0.7
 40
0.8
 40
0.8
 40
0.8
 40
0.8
 40
1.0
 40
1.0
 40
1.0
 40
1.0
 10
40.5299
 20
0.3407
 30
0.0
 10
40.5299
 20
0.3407
 30
0.0
 10
40.5299
 20
0.0928
 30
0.0
 10
40.5299
 20
0.0928
 30
0.0
 10
40.5299
 20
0.0928
 30
0.0
 10
40.5299
 20
0.0928
 30
0.0
 10
38.9495
 20
0.0928
 30
0.0
 10
38.9495
 20
0.0928
 30
0.0
 10
38.9495
 20
0.0928
 30
0.0
 10
39.0064
 20
0.033
 30
0.0
 10
39.0633
 20
-0.045
 30
0.0
 10
39.1202
 20
-0.1419
 30
0.0
 10
39.1202
 20
-0.1419
 30
0.0
 10
39.1771
 20
-0.2393
 30
0.0
 10
39.2199
 20
-0.3263
 30
0.0
 10
39.2482
 20
-0.4035
 30
0.0
 10
39.2482
 20
-0.4035
 30
0.0
 10
39.2482
 20
-0.4035
 30
0.0
 10
39.0087
 20
-0.4035
 30
0.0
 10
39.0087
 20
-0.4035
 30
0.0
 10
39.0087
 20
-0.4035
 30
0.0
 10
38.9434
 20
-0.2647
 30
0.0
 10
38.8643
 20
-0.1433
 30
0.0
 10
38.7717
 20
-0.0394
 30
0.0
 10
38.7717
 20
-0.0394
 30
0.0
 10
38.6785
 20
0.0641
 30
0.0
 10
38.5887
 20
0.1379
 30
0.0
 10
38.5012
 20
0.1812
 30
0.0
 10
38.5012
 20
0.1812
 30
0.0
 10
38.5012
 20
0.1812
 30
0.0
 10
38.5012
 20
0.3407
 30
0.0
 10
38.5012
 20
0.3407
 30
0.0
 10
38.5012
 20
0.3407
 30
0.0
 10
38.5012
 20
0.3407
 30
0.0
 10
40.5299
 20
0.3407
 30
0.0
 10
40.5299
 20
0.3407
 30
0.0
  0
SPLINE
  5
119
330
1F
100
AcDbEntity
  8
AXIS
 62
   250
100
AcDbSpline
210
0.0
220
0.0
230
1.0
 70
    11
 71
     3
 72
    52
 73
    48
 74
     0
 42
0.0000000001
 43
0.0000000001
 40
0.0
 40
0.0
 40
0.0
 40
0.0
 40
0.0769230769230769
 40
0.0769230769230769
 40
0.0769230769230769
 40
0.0769230769230769
 40
0.1538461538461539
 40
0.1538461538461539
 40
0.1538461538461539
 40
0.1538461538461539
 40
0.2307692307692308
 40
0.2307692307692308
 40
0.2307692307692308
 40
0.2307692307692308
 40
0.3076923076923077
 40
0.3076923076923077
 40
0.3076923076923077
 40
0.3076923076923077
 40
0.3846153846153846
 40
0.3846153846153846
 40
0.3846153846153846
 40
0.3846153846153846
 40
0.4615384615384616
 40
0.4615384615384616
 40
0.4615384615384616
 40
0.4615384615384616
 40
0.5384615384615384
 40
0.5384615384615384
 40
0.5384615384615384
 40
0.5384615384615384
 40
0.6153846153846154
 40
0.6153846153846154
 40
0.6153846153846154
 40
0.6153846153846154
 40
0.6923076923076923
 40
0.6923076923076923
 40
0.6923076923076923
 40
0.6923076923076923
 40
0.7692307692307693
 40
0.7692307692307693
 40
0.7692307692307693
 40
0.7692307692307693
 40
0.8461538461538461
 40
0.8461538461538461
 40
0.8461538461538461
 40
0.8461538461538461
 40
1.0
 40
1.0
 40
1.0
 40
1.0
 10
39.5337
 20
0.9761
 30
0.0
 10
39.2947
 20
0.9761
 30
0.0
 10
39.1023
 20
1.0006
 30
0.0
 10
38.957
 20
1.05
 30
0.0
 10
38.957
 20
1.05
 30
0.0
 10
38.8112
 20
1.0989
 30
0.0
 10
38.6988
 20
1.1723
 30
0.0
 10
38.6197
 20
1.2692
 30
0.0
 10
38.6197
 20
1.2692
 30
0.0
 10
38.5407
 20
1.3661
 30
0.0
 10
38.5012
 20
1.4879
 30
0.0
 10
38.5012
 20
1.6346
 30
0.0
 10
38.5012
 20
1.6346
 30
0.0
 10
38.5012
 20
1.7433
 30
0.0
 10
38.5233
 20
1.8383
 30
0.0
 10
38.5671
 20
1.9201
 30
0.0
 10
38.5671
 20
1.9201
 30
0.0
 10
38.6103
 20
2.002
 30
0.0
 10
38.6734
 20
2.0693
 30
0.0
 10
38.7557
 20
2.1229
 30
0.0
 10
38.7557
 20
2.1229
 30
0.0
 10
38.838
 20
2.176
 30
0.0
 10
38.9382
 20
2.2179
 30
0.0
 10
39.0562
 20
2.248
 30
0.0
 10
39.0562
 20
2.248
 30
0.0
 10
39.1743
 20
2.2786
 30
0.0
 10
39.3333
 20
2.2936
 30
0.0
 10
39.5337
 20
2.2936
 30
0.0
 10
39.5337
 20
2.2936
 30
0.0
 10
39.7707
 20
2.2936
 30
0.0
 10
39.9617
 20
2.2692
 30
0.0
 10
40.1075
 20
2.2207
 30
0.0
 10
40.1075
 20
2.2207
 30
0.0
 10
40.2533
 20
2.1718
 30
0.0
 10
40.3657
 20
2.0989
 30
0.0
 10
40.4452
 20
2.002
 30
0.0
 10
40.4452
 20
2.002
 30
0.0
 10
40.5247
 20
1.9051
 30
0.0
 10
40.5642
 20
1.7828
 30
0.0
 10
40.5642
 20
1.6346
 30
0.0
 10
40.5642
 20
1.6346
 30
0.0
 10
40.5642
 20
1.4399
 30
0.0
 10
40.4946
 20
1.287
 30
0.0
 10
40.3549
 20
1.176
 30
0.0
 10
40.3549
 20
1.176
 30
0.0
 10
40.187
 20
1.0429
 30
0.0
 10
39.9128
 20
0.9761
 30
0.0
 10
39.5337
 20
0.9761
 30
0.0
  0
SPLINE
  5
11A
330
1F
100
AcDbEntity
  8
AXIS
 62
   250
100
AcDbSpline
210
0.0
220
0.0
230
1.0
 70
    11
 71
     3
 72
    36
 73
    32
 74
     0
 42
0.0000000001
 43
0.0000000001
 40
0.0
 40
0.0
 40
0.0
 40
0.0
 40
0.1111111111111111
 40
0.1111111111111111
 40
0.1111111111111111
 40
0.1111111111111111
 40
0.2222222222222222
 40
0.2222222222222222
 40
0.2222222222222222
 40
0.2222222222222222
 40
0.3333333333333333
 40
0.3333333333333333
 40
0.3333333333333333
 40
0.3333333333333333
 40
0.4444444444444444
 40
0.4444444444444444
 40
0.4444444444444444
 40
0.4444444444444444
 40
0.5555555555555556
 40
0.5555555555555556
 40
0.5555555555555556
 40
0.5555555555555556
 40
0.6666666666666666
 40
0.6666666666666666
 40
0.6666666666666666
 40
0.6666666666666666
 40
0.7777777777777778
 40
0.7777777777777778
 40
0.7777777777777778
 40
0.7777777777777778
 40
1.0
 40
1.0
 40
1.0
 40
1.0
 10
39.5337
 20
1.2311
 30
0.0
 10
39.8653
 20
1.2311
 30
0.0
 10
40.0859
 20
1.2701
 30
0.0
 10
40.1959
 20
1.3477
 30
0.0
 10
40.1959
 20
1.3477
 30
0.0
 10
40.3055
 20
1.4253
 30
0.0
 10
40.3606
 20
1.5208
 30
0.0
 10
40.3606
 20
1.6346
 30
0.0
 10
40.3606
 20
1.6346
 30
0.0
 10
40.3606
 20
1.7489
 30
0.0
 10
40.3051
 20
1.8444
 30
0.0
 10
40.195
 20
1.922
 30
0.0
 10
40.195
 20
1.922
 30
0.0
 10
40.0849
 20
1.9996
 30
0.0
 10
39.8643
 20
2.0387
 30
0.0
 10
39.5337
 20
2.0387
 30
0.0
 10
39.5337
 20
2.0387
 30
0.0
 10
39.2011
 20
2.0387
 30
0.0
 10
38.98
 20
1.9996
 30
0.0
 10
38.8709
 20
1.922
 30
0.0
 10
38.8709
 20
1.922
 30
0.0
 10
38.7613
 20
1.8444
 30
0.0
 10
38.7068
 20
1.748
 30
0.0
 10
38.7068
 20
1.6323
 30
0.0
 10
38.7068
 20
1.6323
 30
0.0
 10
38.7068
 20
1.518
 30
0.0
 10
38.7552
 20
1.4272
 30
0.0
 10
38.8516
 20
1.359
 30
0.0
 10
38.8516
 20
1.359
 30
0.0
 10
38.9744
 20
1.2739
 30
0.0
 10
39.2021
 20
1.2311
 30
0.0
 10
39.5337
 20
1.2311
 30
0.0
  0
SPLINE
  5
11B
330
1F
100
AcDbEntity
  8
AXIS
 62
   250
100
AcDbSpline
210
0.0
220
0.0
230
1.0
 70
    11
 71
     3
 72
    52
 73
    48
 74
     0
 42
0.0000000001
 43
0.0000000001
 40
0.0
 40
0.0
 40
0.0
 40
0.0
 40
0.0769230769230769
 40
0.0769230769230769
 40
0.0769230769230769
 40
0.0769230769230769
 40
0.1538461538461539
 40
0.1538461538461539
 40
0.1538461538461539
 40
0.1538461538461539
 40
0.2307692307692308
 40
0.2307692307692308
 40
0.2307692307692308
 40
0.2307692307692308
 40
0.3076923076923077
 40
0.3076923076923077
 40
0.3076923076923077
 40
0.3076923076923077
 40
0.3846153846153846
 40
0.3846153846153846
 40
0.3846153846153846
 40
0.3846153846153846
 40
0.4615384615384616
 40
0.4615384615384616
 40
0.4615384615384616
 40
0.4615384615384616
 40
0.5384615384615384
 40
0.5384615384615384
 40
0.5384615384615384
 40
0.5384615384615384
 40
0.6153846153846154
 40
0.6153846153846154
 40
0.6153846153846154
 40
0.6153846153846154
 40
0.6923076923076923
 40
0.6923076923076923
 40
0.6923076923076923
 40
0.6923076923076923
 40
0.7692307692307693
 40
0.7692307692307693
 40
0.7692307692307693
 40
0.7692307692307693
 40
0.8461538461538461
 40
0.8461538461538461
 40
0.8461538461538461
 40
0.8461538461538461
 40
1.0
 40
1.0
 40
1.0
 40
1.0
 10
39.5337
 20
2.5457
 30
0.0
 10
39.2947
 20
2.5457
 30
0.0
 10
39.1023
 20
2.5702
 30
0.0
 10
38.957
 20
2.6196
 30
0.0
 10
38.957
 20
2.6196
 30
0.0
 10
38.8112
 20
2.6685
 30
0.0
 10
38.6988
 20
2.7419
 30
0.0
 10
38.6197
 20
2.8388
 30
0.0
 10
38.6197
 20
2.8388
 30
0.0
 10
38.5407
 20
2.9357
 30
0.0
 10
38.5012
 20
3.0575
 30
0.0
 10
38.5012
 20
3.2042
 30
0.0
 10
38.5012
 20
3.2042
 30
0.0
 10
38.5012
 20
3.3129
 30
0.0
 10
38.5233
 20
3.4079
 30
0.0
 10
38.5671
 20
3.4897
 30
0.0
 10
38.5671
 20
3.4897
 30
0.0
 10
38.6103
 20
3.5716
 30
0.0
 10
38.6734
 20
3.6389
 30
0.0
 10
38.7557
 20
3.6925
 30
0.0
 10
38.7557
 20
3.6925
 30
0.0
 10
38.838
 20
3.7456
 30
0.0
 10
38.9382
 20
3.7875
 30
0.0
 10
39.0562
 20
3.8176
 30
0.0
 10
39.0562
 20
3.8176
 30
0.0
 10
39.1743
 20
3.8482
 30
0.0
 10
39.3333
 20
3.8632
 30
0.0
 10
39.5337
 20
3.8632
 30
0.0
 10
39.5337
 20
3.8632
 30
0.0
 10
39.7707
 20
3.8632
 30
0.0
 10
39.9617
 20
3.8388
 30
0.0
 10
40.1075
 20
3.7903
 30
0.0
 10
40.1075
 20
3.7903
 30
0.0
 10
40.2533
 20
3.7414
 30
0.0
 10
40.3657
 20
3.6685
 30
0.0
 10
40.4452
 20
3.5716
 30
0.0
 10
40.4452
 20
3.5716
 30
0.0
 10
40.5247
 20
3.4747
 30
0.0
 10
40.5642
 20
3.3524
 30
0.0
 10
40.5642
 20
3.2042
 30
0.0
 10
40.5642
 20
3.2042
 30
0.0
 10
40.5642
 20
3.0095
 30
0.0
 10
40.4946
 20
2.8566
 30
0.0
 10
40.3549
 20
2.7456
 30
0.0
 10
40.3549
 20
2.7456
 30
0.0
 10
40.187
 20
2.6125
 30
0.0
 10
39.9128
 20
2.5457
 30
0.0
 10
39.5337
 20
2.5457
 30
0.0
  0
SPLINE
  5
11C
330
1F
100
AcDbEntity
  8
AXIS
 62
   250
100
AcDbSpline
210
0.0
220
0.0
230
1.0
 70
    11
 71
     3
 72
    36
 73
    32
 74
     0
 42
0.0000000001
 43
0.0000000001
 40
0.0
 40
0.0
 40
0.0
 40
0.0
 40
0.1111111111111111
 40
0.1111111111111111
 40
0.1111111111111111
 40
0.1111111111111111
 40
0.2222222222222222
 40
0.2222222222222222
 40
0.2222222222222222
 40
0.2222222222222222
 40
0.3333333333333333
 40
0.3333333333333333
 40
0.3333333333333333
 40
0.3333333333333333
 40
0.4444444444444444
 40
0.4444444444444444
 40
0.4444444444444444
 40
0.4444444444444444
 40
0.5555555555555556
 40
0.5555555555555556
 40
0.5555555555555556
 40
0.5555555555555556
 40
0.6666666666666666
 40
0.6666666666666666
 40
0.6666666666666666
 40
0.6666666666666666
 40
0.7777777777777778
 40
0.7777777777777778
 40
0.7777777777777778
 40
0.7777777777777778
 40
1.0
 40
1.0
 40
1.0
 40
1.0
 10
39.5337
 20
2.8007
 30
0.0
 10
39.8653
 20
2.8007
 30
0.0
 10
40.0859
 20
2.8397
 30
0.0
 10
40.1959
 20
2.9173
 30
0.0
 10
40.1959
 20
2.9173
 30
0.0
 10
40.3055
 20
2.9949
 30
0.0
 10
40.3606
 20
3.0904
 30
0.0
 10
40.3606
 20
3.2042
 30
0.0
 10
40.3606
 20
3.2042
 30
0.0
 10
40.3606
 20
3.3185
 30
0.0
 10
40.3051
 20
3.414
 30
0.0
 10
40.195
 20
3.4916
 30
0.0
 10
40.195
 20
3.4916
 30
0.0
 10
40.0849
 20
3.5692
 30
0.0
 10
39.8643
 20
3.6083
 30
0.0
 10
39.5337
 20
3.6083
 30
0.0
 10
39.5337
 20
3.6083
 30
0.0
 10
39.2011
 20
3.6083
 30
0.0
 10
38.98
 20
3.5692
 30
0.0
 10
38.8709
 20
3.4916
 30
0.0
 10
38.8709
 20
3.4916
 30
0.0
 10
38.7613
 20
3.414
 30
0.0
 10
38.7068
 20
3.3176
 30
0.0
 10
38.7068
 20
3.2019
 30
0.0
 10
38.7068
 20
3.2019
 30
0.0
 10
38.7068
 20
3.0876
 30
0.0
 10
38.7552
 20
2.9968
 30
0.0
 10
38.8516
 20
2.9286
 30
0.0
 10
38.8516
 20
2.9286
 30
0.0
 10
38.9744
 20
2.8435
 30
0.0
 10
39.2021
 20
2.8007
 30
0.0
 10
39.5337
 20
2.8007
 30
0.0
  0
SPLINE
  5
11D
330
1F
100
AcDbEntity
  8
AXIS
 62
   250
100
AcDbSpline
210
0.0
220
0.0
230
1.0
 70
    24
 71
     3
 72
     8
 73
     4
 74
     0
 42
0.0000000001
 43
0.0000000001
 40
0.0
 40
0.0
 40
0.0
 40
0.0
 40
1.0
 40
1.0
 40
1.0
 40
1.0
 10
29.1725
 20
-6.9816
 30
0.0
 10
29.1725
 20
-6.9816
 30
0.0
 10
41.1795
 20
-6.9575
 30
0.0
 10
41.1795
 20
-6.9575
 30
0.0
  0
SPLINE
  5
11E
330
1F
100
AcDbEntity
  8
AXIS
 62
   250
100
AcDbSpline
210
0.0
220
0.0
230
1.0
 70
    24
 71
     3
 72
     8
 73
     4
 74
     0
 42
0.0000000001
 43
0.0000000001
 40
0.0
 40
0.0
 40
0.0
 40
0.0
 40
1.0
 40
1.0
 40
1.0
 40
1.0
 10
29.4589
 20
7.0063
 30
0.0
 10
29.4589
 20
7.0063
 30
0.0
 10
34.0171
 20
7.0165
 30
0.0
 10
34.0171
 20
7.0165
 30
0.0
  0
SPLINE
  5
11F
330
1F
100
AcDbEntity
  8
AXIS
 62
   250
100
AcDbSpline
210
0.0
220
0.0
230
1.0
 70
    24
 71
     3
 72
     8
 73
     4
 74
     0
 42
0.0000000001
 43
0.0000000001
 40
0.0
 40
0.0
 40
0.0
 40
0.0
 40
1.0
 40
1.0
 40
1.0
 40
1.0
 10
40.9001
 20
-6.3704
 30
0.0
 10
40.9001
 20
-6.3704
 30
0.0
 10
40.8828
 20
6.0922
 30
0.0
 10
40.8828
 20
6.0922
 30
0.0
  0
SPLINE
  5
120
330
1F
100
AcDbEntity
  8
AXIS
 62
   250
100
AcDbSpline
210
0.0
220
0.0
230
1.0
 70
    11
 71
     3
 72
    20
 73
    16
 74
     0
 42
0.0000000001
 43
0.0000000001
 40
0.0
 40
0.0
 40
0.0
 40
0.0
 40
0.2
 40
0.2
 40
0.2
 40
0.2
 40
0.4
 40
0.4
 40
0.4
 40
0.4
 40
0.6
 40
0.6
 40
0.6
 40
0.6
 40
1.0
 40
1.0
 40
1.0
 40
1.0
 10
40.9177
 20
-6.8174
 30
0.0
 10
40.9177
 20
-6.8174
 30
0.0
 10
41.3558
 20
-3.8175
 30
0.0
 10
41.3558
 20
-3.8175
 30
0.0
 10
41.3558
 20
-3.8175
 30
0.0
 10
41.3558
 20
-3.8175
 30
0.0
 10
40.3889
 20
-3.8175
 30
0.0
 10
40.3889
 20
-3.8175
 30
0.0
 10
40.3889
 20
-3.8175
 30
0.0
 10
40.3889
 20
-3.8175
 30
0.0
 10
40.9164
 20
-6.8174
 30
0.0
 10
40.9164
 20
-6.8174
 30
0.0
 10
40.9164
 20
-6.8174
 30
0.0
 10
40.9164
 20
-6.8174
 30
0.0
 10
40.9177
 20
-6.8174
 30
0.0
 10
40.9177
 20
-6.8174
 30
0.0
  0
SPLINE
  5
121
330
1F
100
AcDbEntity
  8
AXIS
 62
   250
100
AcDbSpline
210
0.0
220
0.0
230
1.0
 70
    11
 71
     3
 72
    20
 73
    16
 74
     0
 42
0.0000000001
 43
0.0000000001
 40
0.0
 40
0.0
 40
0.0
 40
0.0
 40
0.2
 40
0.2
 40
0.2
 40
0.2
 40
0.4
 40
0.4
 40
0.4
 40
0.4
 40
0.6
 40
0.6
 40
0.6
 40
0.6
 40
1.0
 40
1.0
 40
1.0
 40
1.0
 10
40.8872
 20
6.9148
 30
0.0
 10
40.8872
 20
6.9148
 30
0.0
 10
40.4491
 20
3.9146
 30
0.0
 10
40.4491
 20
3.9146
 30
0.0
 10
40.4491
 20
3.9146
 30
0.0
 10
40.4491
 20
3.9146
 30
0.0
 10
41.416
 20
3.9146
 30
0.0
 10
41.416
 20
3.9146
 30
0.0
 10
41.416
 20
3.9146
 30
0.0
 10
41.416
 20
3.9146
 30
0.0
 10
40.8885
 20
6.9148
 30
0.0
 10
40.8885
 20
6.9148
 30
0.0
 10
40.8885
 20
6.9148
 30
0.0
 10
40.8885
 20
6.9148
 30
0.0
 10
40.8872
 20
6.9148
 30
0.0
 10
40.8872
 20
6.9148
 30
0.0
  0
SPLINE
  5
122
330
1F
100
AcDbEntity
  8
AXIS
 62
   250
100
AcDbSpline
210
0.0
220
0.0
230
1.0
 70
     8
 71
     3
 72
   116
 73
   112
 74
     0
 42
0.0000000001
 43
0.0000000001
 40
0.0
 40
0.0
 40
0.0
 40
0.0
 40
0.0344827586206897
 40
0.0344827586206897
 40
0.0344827586206897
 40
0.0344827586206897
 40
0.0689655172413793
 40
0.0689655172413793
 40
0.0689655172413793
 40
0.0689655172413793
 40
0.103448275862069
 40
0.103448275862069
 40
0.103448275862069
 40
0.103448275862069
 40
0.1379310344827586
 40
0.1379310344827586
 40
0.1379310344827586
 40
0.1379310344827586
 40
0.1724137931034483
 40
0.1724137931034483
 40
0.1724137931034483
 40
0.1724137931034483
 40
0.2068965517241379
 40
0.2068965517241379
 40
0.2068965517241379
 40
0.2068965517241379
 40
0.2413793103448276
 40
0.2413793103448276
 40
0.2413793103448276
 40
0.2413793103448276
 40
0.2758620689655172
 40
0.2758620689655172
 40
0.2758620689655172
 40
0.2758620689655172
 40
0.3103448275862069
 40
0.3103448275862069
 40
0.3103448275862069
 40
0.3103448275862069
 40
0.3448275862068966
 40
0.3448275862068966
 40
0.3448275862068966
 40
0.3448275862068966
 40
0.3793103448275862
 40
0.3793103448275862
 40
0.3793103448275862
 40
0.3793103448275862
 40
0.4137931034482759
 40
0.4137931034482759
 40
0.4137931034482759
 40
0.4137931034482759
 40
0.4482758620689655
 40
0.4482758620689655
 40
0.4482758620689655
 40
0.4482758620689655
 40
0.4827586206896552
 40
0.4827586206896552
 40
0.4827586206896552
 40
0.4827586206896552
 40
0.5172413793103449
 40
0.5172413793103449
 40
0.5172413793103449
 40
0.5172413793103449
 40
0.5517241379310345
 40
0.5517241379310345
 40
0.5517241379310345
 40
0.5517241379310345
 40
0.5862068965517241
 40
0.5862068965517241
 40
0.5862068965517241
 40
0.5862068965517241
 40
0.6206896551724138
 40
0.6206896551724138
 40
0.6206896551724138
 40
0.6206896551724138
 40
0.6551724137931034
 40
0.6551724137931034
 40
0.6551724137931034
 40
0.6551724137931034
 40
0.6896551724137931
 40
0.6896551724137931
 40
0.6896551724137931
 40
0.6896551724137931
 40
0.7241379310344828
 40
0.7241379310344828
 40
0.7241379310344828
 40
0.7241379310344828
 40
0.7586206896551724
 40
0.7586206896551724
 40
0.7586206896551724
 40
0.7586206896551724
 40
0.7931034482758621
 40
0.7931034482758621
 40
0.7931034482758621
 40
0.7931034482758621
 40
0.8275862068965517
 40
0.8275862068965517
 40
0.8275862068965517
 40
0.8275862068965517
 40
0.8620689655172413
 40
0.8620689655172413
 40
0.8620689655172413
 40
0.8620689655172413
 40
0.896551724137931
 40
0.896551724137931
 40
0.896551724137931
 40
0.896551724137931
 40
0.9310344827586207
 40
0.9310344827586207
 40
0.9310344827586207
 40
0.9310344827586207
 40
1.0
 40
1.0
 40
1.0
 40
1.0
 10
20.0445
 20
-8.2577
 30
0.0
 10
20.0445
 20
-8.2577
 30
0.0
 10
19.9601
 20
-10.1752
 30
0.0
 10
19.9601
 20
-10.1752
 30
0.0
 10
19.9601
 20
-10.1752
 30
0.0
 10
19.9601
 20
-10.1752
 30
0.0
 10
19.7529
 20
-11.3428
 30
0.0
 10
19.7529
 20
-11.3428
 30
0.0
 10
19.7529
 20
-11.3428
 30
0.0
 10
19.7529
 20
-11.3428
 30
0.0
 10
19.5453
 20
-12.7268
 30
0.0
 10
19.5453
 20
-12.7268
 30
0.0
 10
19.5453
 20
-12.7268
 30
0.0
 10
19.5453
 20
-12.7268
 30
0.0
 10
19.0955
 20
-14.1454
 30
0.0
 10
19.0955
 20
-14.1454
 30
0.0
 10
19.0955
 20
-14.1454
 30
0.0
 10
19.0955
 20
-14.1454
 30
0.0
 10
18.6457
 20
-15.4256
 30
0.0
 10
18.6457
 20
-15.4256
 30
0.0
 10
18.6457
 20
-15.4256
 30
0.0
 10
18.6457
 20
-15.4256
 30
0.0
 10
18.0229
 20
-16.7404
 30
0.0
 10
18.0229
 20
-16.7404
 30
0.0
 10
18.0229
 20
-16.7404
 30
0.0
 10
18.0229
 20
-16.7404
 30
0.0
 10
17.2617
 20
-18.0552
 30
0.0
 10
17.2617
 20
-18.0552
 30
0.0
 10
17.2617
 20
-18.0552
 30
0.0
 10
17.2617
 20
-18.0552
 30
0.0
 10
16.4659
 20
-19.3354
 30
0.0
 10
16.4659
 20
-19.3354
 30
0.0
 10
16.4659
 20
-19.3354
 30
0.0
 10
16.4659
 20
-19.3354
 30
0.0
 10
15.6355
 20
-20.4426
 30
0.0
 10
15.6355
 20
-20.4426
 30
0.0
 10
15.6355
 20
-20.4426
 30
0.0
 10
15.6355
 20
-20.4426
 30
0.0
 10
14.8051
 20
-21.273
 30
0.0
 10
14.8051
 20
-21.273
 30
0.0
 10
14.8051
 20
-21.273
 30
0.0
 10
14.8051
 20
-21.273
 30
0.0
 10
13.7325
 20
-22.311
 30
0.0
 10
13.7325
 20
-22.311
 30
0.0
 10
13.7325
 20
-22.311
 30
0.0
 10
13.7325
 20
-22.311
 30
0.0
 10
12.6599
 20
-23.2798
 30
0.0
 10
12.6599
 20
-23.2798
 30
0.0
 10
12.6599
 20
-23.2798
 30
0.0
 10
12.6599
 20
-23.2798
 30
0.0
 10
11.0683
 20
-24.3178
 30
0.0
 10
11.0683
 20
-24.3178
 30
0.0
 10
11.0683
 20
-24.3178
 30
0.0
 10
11.0683
 20
-24.3178
 30
0.0
 10
11.0337
 20
-24.733
 30
0.0
 10
11.0337
 20
-24.733
 30
0.0
 10
11.0337
 20
-24.733
 30
0.0
 10
11.0337
 20
-24.733
 30
0.0
 10
11.0683
 20
-25.079
 30
0.0
 10
11.0683
 20
-25.079
 30
0.0
 10
11.0683
 20
-25.079
 30
0.0
 10
11.0683
 20
-25.079
 30
0.0
 10
11.3105
 20
-25.3904
 30
0.0
 10
11.3105
 20
-25.3904
 30
0.0
 10
11.3105
 20
-25.3904
 30
0.0
 10
11.3105
 20
-25.3904
 30
0.0
 10
11.5181
 20
-25.3904
 30
0.0
 10
11.5181
 20
-25.3904
 30
0.0
 10
11.5181
 20
-25.3904
 30
0.0
 10
11.5181
 20
-25.3904
 30
0.0
 10
12.6945
 20
-24.6638
 30
0.0
 10
12.6945
 20
-24.6638
 30
0.0
 10
12.6945
 20
-24.6638
 30
0.0
 10
12.6945
 20
-24.6638
 30
0.0
 10
14.0093
 20
-23.695
 30
0.0
 10
14.0093
 20
-23.695
 30
0.0
 10
14.0093
 20
-23.695
 30
0.0
 10
14.0093
 20
-23.695
 30
0.0
 10
15.3241
 20
-22.4148
 30
0.0
 10
15.3241
 20
-22.4148
 30
0.0
 10
15.3241
 20
-22.4148
 30
0.0
 10
15.3241
 20
-22.4148
 30
0.0
 10
16.3967
 20
-21.1692
 30
0.0
 10
16.3967
 20
-21.1692
 30
0.0
 10
16.3967
 20
-21.1692
 30
0.0
 10
16.3967
 20
-21.1692
 30
0.0
 10
17.5731
 20
-19.6468
 30
0.0
 10
17.5731
 20
-19.6468
 30
0.0
 10
17.5731
 20
-19.6468
 30
0.0
 10
17.5731
 20
-19.6468
 30
0.0
 10
18.6803
 20
-17.9514
 30
0.0
 10
18.6803
 20
-17.9514
 30
0.0
 10
18.6803
 20
-17.9514
 30
0.0
 10
18.6803
 20
-17.9514
 30
0.0
 10
19.5453
 20
-16.2214
 30
0.0
 10
19.5453
 20
-16.2214
 30
0.0
 10
19.5453
 20
-16.2214
 30
0.0
 10
19.5453
 20
-16.2214
 30
0.0
 10
20.5487
 20
-13.315
 30
0.0
 10
20.5487
 20
-13.315
 30
0.0
 10
20.5487
 20
-13.315
 30
0.0
 10
20.5487
 20
-13.315
 30
0.0
 10
20.9293
 20
-11.1352
 30
0.0
 10
20.9293
 20
-11.1352
 30
0.0
 10
20.9293
 20
-11.1352
 30
0.0
 10
20.9293
 20
-11.1352
 30
0.0
 10
21.0677
 20
-9.9934
 30
0.0
 10
21.0677
 20
-9.9934
 30
0.0
 10
21.0677
 20
-9.9934
 30
0.0
 10
21.0677
 20
-9.9934
 30
0.0
 10
21.1248
 20
-8.2506
 30
0.0
 10
21.1248
 20
-8.2506
 30
0.0
  0
SPLINE
  5
123
330
1F
100
AcDbEntity
  8
AXIS
 62
   250
100
AcDbSpline
210
0.0
220
0.0
230
1.0
 70
     8
 71
     3
 72
    20
 73
    16
 74
     0
 42
0.0000000001
 43
0.0000000001
 40
0.0
 40
0.0
 40
0.0
 40
0.0
 40
0.2
 40
0.2
 40
0.2
 40
0.2
 40
0.4
 40
0.4
 40
0.4
 40
0.4
 40
0.6
 40
0.6
 40
0.6
 40
0.6
 40
1.0
 40
1.0
 40
1.0
 40
1.0
 10
20.3309
 20
-4.2745
 30
0.0
 10
20.3309
 20
-4.2745
 30
0.0
 10
19.2503
 20
-4.2858
 30
0.0
 10
19.2503
 20
-4.2858
 30
0.0
 10
19.2503
 20
-4.2858
 30
0.0
 10
19.2503
 20
-4.2858
 30
0.0
 10
19.2615
 20
-8.2224
 30
0.0
 10
19.2615
 20
-8.2224
 30
0.0
 10
19.2615
 20
-8.2224
 30
0.0
 10
19.2615
 20
-8.2224
 30
0.0
 10
21.9856
 20
-8.2562
 30
0.0
 10
21.9856
 20
-8.2562
 30
0.0
 10
21.9856
 20
-8.2562
 30
0.0
 10
21.9856
 20
-8.2562
 30
0.0
 10
21.9744
 20
-4.8498
 30
0.0
 10
21.9744
 20
-4.8498
 30
0.0
  0
SPLINE
  5
124
330
1F
100
AcDbEntity
  8
AXIS
 62
   250
100
AcDbSpline
210
0.0
220
0.0
230
1.0
 70
     8
 71
     3
 72
    12
 73
     8
 74
     0
 42
0.0000000001
 43
0.0000000001
 40
0.0
 40
0.0
 40
0.0
 40
0.0
 40
0.3333333333333333
 40
0.3333333333333333
 40
0.3333333333333333
 40
0.3333333333333333
 40
1.0
 40
1.0
 40
1.0
 40
1.0
 10
20.3456
 20
0.4558
 30
0.0
 10
20.3456
 20
0.4558
 30
0.0
 10
19.4447
 20
-0.0629
 30
0.0
 10
19.4447
 20
-0.0629
 30
0.0
 10
19.4447
 20
-0.0629
 30
0.0
 10
19.4447
 20
-0.0629
 30
0.0
 10
19.4447
 20
-4.258
 30
0.0
 10
19.4447
 20
-4.258
 30
0.0
  0
SPLINE
  5
125
330
1F
100
AcDbEntity
  8
AXIS
 62
   250
100
AcDbSpline
210
0.0
220
0.0
230
1.0
 70
     8
 71
     3
 72
    60
 73
    56
 74
     0
 42
0.0000000001
 43
0.0000000001
 40
0.0
 40
0.0
 40
0.0
 40
0.0
 40
0.0666666666666667
 40
0.0666666666666667
 40
0.0666666666666667
 40
0.0666666666666667
 40
0.1333333333333333
 40
0.1333333333333333
 40
0.1333333333333333
 40
0.1333333333333333
 40
0.2
 40
0.2
 40
0.2
 40
0.2
 40
0.2666666666666667
 40
0.2666666666666667
 40
0.2666666666666667
 40
0.2666666666666667
 40
0.3333333333333333
 40
0.3333333333333333
 40
0.3333333333333333
 40
0.3333333333333333
 40
0.4
 40
0.4
 40
0.4
 40
0.4
 40
0.4666666666666667
 40
0.4666666666666667
 40
0.4666666666666667
 40
0.4666666666666667
 40
0.5333333333333333
 40
0.5333333333333333
 40
0.5333333333333333
 40
0.5333333333333333
 40
0.6
 40
0.6
 40
0.6
 40
0.6
 40
0.6666666666666666
 40
0.6666666666666666
 40
0.6666666666666666
 40
0.6666666666666666
 40
0.7333333333333333
 40
0.7333333333333333
 40
0.7333333333333333
 40
0.7333333333333333
 40
0.8
 40
0.8
 40
0.8
 40
0.8
 40
0.8666666666666667
 40
0.8666666666666667
 40
0.8666666666666667
 40
0.8666666666666667
 40
1.0
 40
1.0
 40
1.0
 40
1.0
 10
27.4338
 20
-4.8159
 30
0.0
 10
27.4338
 20
-4.8159
 30
0.0
 10
21.9969
 20
-4.8385
 30
0.0
 10
21.9969
 20
-4.8385
 30
0.0
 10
21.9969
 20
-4.8385
 30
0.0
 10
21.9969
 20
-4.8385
 30
0.0
 10
21.6704
 20
-4.737
 30
0.0
 10
21.6704
 20
-4.737
 30
0.0
 10
21.6704
 20
-4.737
 30
0.0
 10
21.6704
 20
-4.737
 30
0.0
 10
21.2765
 20
-4.6693
 30
0.0
 10
21.2765
 20
-4.6693
 30
0.0
 10
21.2765
 20
-4.6693
 30
0.0
 10
21.2765
 20
-4.6693
 30
0.0
 10
20.8487
 20
-4.6355
 30
0.0
 10
20.8487
 20
-4.6355
 30
0.0
 10
20.8487
 20
-4.6355
 30
0.0
 10
20.8487
 20
-4.6355
 30
0.0
 10
20.5223
 20
-4.6242
 30
0.0
 10
20.5223
 20
-4.6242
 30
0.0
 10
20.5223
 20
-4.6242
 30
0.0
 10
20.5223
 20
-4.6242
 30
0.0
 10
20.3309
 20
-4.4776
 30
0.0
 10
20.3309
 20
-4.4776
 30
0.0
 10
20.3309
 20
-4.4776
 30
0.0
 10
20.3309
 20
-4.4776
 30
0.0
 10
20.3422
 20
4.4125
 30
0.0
 10
20.3422
 20
4.4125
 30
0.0
 10
20.3422
 20
4.4125
 30
0.0
 10
20.3422
 20
4.4125
 30
0.0
 10
20.342
 20
4.4983
 30
0.0
 10
20.342
 20
4.4983
 30
0.0
 10
20.342
 20
4.4983
 30
0.0
 10
20.342
 20
4.4983
 30
0.0
 10
20.3597
 20
4.5661
 30
0.0
 10
20.3597
 20
4.5661
 30
0.0
 10
20.3597
 20
4.5661
 30
0.0
 10
20.3597
 20
4.5661
 30
0.0
 10
20.3891
 20
4.6281
 30
0.0
 10
20.3891
 20
4.6281
 30
0.0
 10
20.3891
 20
4.6281
 30
0.0
 10
20.3891
 20
4.6281
 30
0.0
 10
20.4568
 20
4.687
 30
0.0
 10
20.4568
 20
4.687
 30
0.0
 10
20.4568
 20
4.687
 30
0.0
 10
20.4568
 20
4.687
 30
0.0
 10
20.5392
 20
4.7224
 30
0.0
 10
20.5392
 20
4.7224
 30
0.0
 10
20.5392
 20
4.7224
 30
0.0
 10
20.5392
 20
4.7224
 30
0.0
 10
20.5892
 20
4.7283
 30
0.0
 10
20.5892
 20
4.7283
 30
0.0
 10
20.5892
 20
4.7283
 30
0.0
 10
20.5892
 20
4.7283
 30
0.0
 10
27.4431
 20
4.7457
 30
0.0
 10
27.4431
 20
4.7457
 30
0.0
  0
SPLINE
  5
126
330
1F
100
AcDbEntity
  8
AXIS
 62
   250
100
AcDbSpline
210
0.0
220
0.0
230
1.0
 70
     8
 71
     3
 72
    56
 73
    52
 74
     0
 42
0.0000000001
 43
0.0000000001
 40
0.0
 40
0.0
 40
0.0
 40
0.0
 40
0.0714285714285714
 40
0.0714285714285714
 40
0.0714285714285714
 40
0.0714285714285714
 40
0.1428571428571428
 40
0.1428571428571428
 40
0.1428571428571428
 40
0.1428571428571428
 40
0.2142857142857143
 40
0.2142857142857143
 40
0.2142857142857143
 40
0.2142857142857143
 40
0.2857142857142857
 40
0.2857142857142857
 40
0.2857142857142857
 40
0.2857142857142857
 40
0.3571428571428572
 40
0.3571428571428572
 40
0.3571428571428572
 40
0.3571428571428572
 40
0.4285714285714285
 40
0.4285714285714285
 40
0.4285714285714285
 40
0.4285714285714285
 40
0.5
 40
0.5
 40
0.5
 40
0.5
 40
0.5714285714285714
 40
0.5714285714285714
 40
0.5714285714285714
 40
0.5714285714285714
 40
0.6428571428571429
 40
0.6428571428571429
 40
0.6428571428571429
 40
0.6428571428571429
 40
0.7142857142857143
 40
0.7142857142857143
 40
0.7142857142857143
 40
0.7142857142857143
 40
0.7857142857142857
 40
0.7857142857142857
 40
0.7857142857142857
 40
0.7857142857142857
 40
0.8571428571428571
 40
0.8571428571428571
 40
0.8571428571428571
 40
0.8571428571428571
 40
1.0
 40
1.0
 40
1.0
 40
1.0
 10
27.4416
 20
0.5645
 30
0.0
 10
27.4416
 20
0.5645
 30
0.0
 10
23.6551
 20
0.5699
 30
0.0
 10
23.6551
 20
0.5699
 30
0.0
 10
23.6551
 20
0.5699
 30
0.0
 10
23.6551
 20
0.5699
 30
0.0
 10
23.5385
 20
0.563
 30
0.0
 10
23.5385
 20
0.563
 30
0.0
 10
23.5385
 20
0.563
 30
0.0
 10
23.5385
 20
0.563
 30
0.0
 10
23.453
 20
0.5135
 30
0.0
 10
23.453
 20
0.5135
 30
0.0
 10
23.453
 20
0.5135
 30
0.0
 10
23.453
 20
0.5135
 30
0.0
 10
23.3855
 20
0.464
 30
0.0
 10
23.3855
 20
0.464
 30
0.0
 10
23.3855
 20
0.464
 30
0.0
 10
23.3855
 20
0.464
 30
0.0
 10
23.354
 20
0.392
 30
0.0
 10
23.354
 20
0.392
 30
0.0
 10
23.354
 20
0.392
 30
0.0
 10
23.354
 20
0.392
 30
0.0
 10
23.3405
 20
0.275
 30
0.0
 10
23.3405
 20
0.275
 30
0.0
 10
23.3405
 20
0.275
 30
0.0
 10
23.3405
 20
0.275
 30
0.0
 10
23.345
 20
-0.436
 30
0.0
 10
23.345
 20
-0.436
 30
0.0
 10
23.345
 20
-0.436
 30
0.0
 10
23.345
 20
-0.436
 30
0.0
 10
23.363
 20
-0.499
 30
0.0
 10
23.363
 20
-0.499
 30
0.0
 10
23.363
 20
-0.499
 30
0.0
 10
23.363
 20
-0.499
 30
0.0
 10
23.4125
 20
-0.58
 30
0.0
 10
23.4125
 20
-0.58
 30
0.0
 10
23.4125
 20
-0.58
 30
0.0
 10
23.4125
 20
-0.58
 30
0.0
 10
23.4755
 20
-0.6295
 30
0.0
 10
23.4755
 20
-0.6295
 30
0.0
 10
23.4755
 20
-0.6295
 30
0.0
 10
23.4755
 20
-0.6295
 30
0.0
 10
23.561
 20
-0.6655
 30
0.0
 10
23.561
 20
-0.6655
 30
0.0
 10
23.561
 20
-0.6655
 30
0.0
 10
23.561
 20
-0.6655
 30
0.0
 10
23.6555
 20
-0.6655
 30
0.0
 10
23.6555
 20
-0.6655
 30
0.0
 10
23.6555
 20
-0.6655
 30
0.0
 10
23.6555
 20
-0.6655
 30
0.0
 10
27.4361
 20
-0.6641
 30
0.0
 10
27.4361
 20
-0.6641
 30
0.0
  0
SPLINE
  5
127
330
1F
100
AcDbEntity
  8
AXIS
 62
   250
100
AcDbSpline
210
0.0
220
0.0
230
1.0
 70
    11
 71
     3
 72
    84
 73
    80
 74
     0
 42
0.0000000001
 43
0.0000000001
 40
0.0
 40
0.0
 40
0.0
 40
0.0
 40
0.0476190476190476
 40
0.0476190476190476
 40
0.0476190476190476
 40
0.0476190476190476
 40
0.0952380952380952
 40
0.0952380952380952
 40
0.0952380952380952
 40
0.0952380952380952
 40
0.1428571428571428
 40
0.1428571428571428
 40
0.1428571428571428
 40
0.1428571428571428
 40
0.1904761904761905
 40
0.1904761904761905
 40
0.1904761904761905
 40
0.1904761904761905
 40
0.2380952380952381
 40
0.2380952380952381
 40
0.2380952380952381
 40
0.2380952380952381
 40
0.2857142857142857
 40
0.2857142857142857
 40
0.2857142857142857
 40
0.2857142857142857
 40
0.3333333333333333
 40
0.3333333333333333
 40
0.3333333333333333
 40
0.3333333333333333
 40
0.3809523809523809
 40
0.3809523809523809
 40
0.3809523809523809
 40
0.3809523809523809
 40
0.4285714285714285
 40
0.4285714285714285
 40
0.4285714285714285
 40
0.4285714285714285
 40
0.4761904761904762
 40
0.4761904761904762
 40
0.4761904761904762
 40
0.4761904761904762
 40
0.5238095238095238
 40
0.5238095238095238
 40
0.5238095238095238
 40
0.5238095238095238
 40
0.5714285714285714
 40
0.5714285714285714
 40
0.5714285714285714
 40
0.5714285714285714
 40
0.6190476190476191
 40
0.6190476190476191
 40
0.6190476190476191
 40
0.6190476190476191
 40
0.6666666666666666
 40
0.6666666666666666
 40
0.6666666666666666
 40
0.6666666666666666
 40
0.7142857142857143
 40
0.7142857142857143
 40
0.7142857142857143
 40
0.7142857142857143
 40
0.7619047619047619
 40
0.7619047619047619
 40
0.7619047619047619
 40
0.7619047619047619
 40
0.8095238095238095
 40
0.8095238095238095
 40
0.8095238095238095
 40
0.8095238095238095
 40
0.8571428571428571
 40
0.8571428571428571
 40
0.8571428571428571
 40
0.8571428571428571
 40
0.9047619047619048
 40
0.9047619047619048
 40
0.9047619047619048
 40
0.9047619047619048
 40
1.0
 40
1.0
 40
1.0
 40
1.0
 10
34.6037
 20
4.8284
 30
0.0
 10
34.6037
 20
4.8284
 30
0.0
 10
34.3446
 20
5.0598
 30
0.0
 10
34.3446
 20
5.0598
 30
0.0
 10
34.3446
 20
5.0598
 30
0.0
 10
34.3446
 20
5.0598
 30
0.0
 10
34.4603
 20
5.1962
 30
0.0
 10
34.4603
 20
5.1962
 30
0.0
 10
34.4603
 20
5.1962
 30
0.0
 10
34.4603
 20
5.1962
 30
0.0
 10
34.7331
 20
4.954
 30
0.0
 10
34.7331
 20
4.954
 30
0.0
 10
34.7331
 20
4.954
 30
0.0
 10
34.8507
 20
5.033
 30
0.0
 10
34.9537
 20
5.0861
 30
0.0
 10
35.0416
 20
5.1139
 30
0.0
 10
35.0416
 20
5.1139
 30
0.0
 10
35.1574
 20
5.1506
 30
0.0
 10
35.2872
 20
5.1689
 30
0.0
 10
35.4302
 20
5.1689
 30
0.0
 10
35.4302
 20
5.1689
 30
0.0
 10
35.6371
 20
5.1689
 30
0.0
 10
35.8215
 20
5.1271
 30
0.0
 10
35.9828
 20
5.0433
 30
0.0
 10
35.9828
 20
5.0433
 30
0.0
 10
36.1447
 20
4.9596
 30
0.0
 10
36.2669
 20
4.8425
 30
0.0
 10
36.3497
 20
4.6915
 30
0.0
 10
36.3497
 20
4.6915
 30
0.0
 10
36.432
 20
4.54
 30
0.0
 10
36.4734
 20
4.3797
 30
0.0
 10
36.4734
 20
4.2099
 30
0.0
 10
36.4734
 20
4.2099
 30
0.0
 10
36.4734
 20
4.0829
 30
0.0
 10
36.4556
 20
3.9681
 30
0.0
 10
36.4198
 20
3.8651
 30
0.0
 10
36.4198
 20
3.8651
 30
0.0
 10
36.3921
 20
3.7861
 30
0.0
 10
36.3394
 20
3.6939
 30
0.0
 10
36.2613
 20
3.588
 30
0.0
 10
36.2613
 20
3.588
 30
0.0
 10
36.2613
 20
3.588
 30
0.0
 10
36.5205
 20
3.3566
 30
0.0
 10
36.5205
 20
3.3566
 30
0.0
 10
36.5205
 20
3.3566
 30
0.0
 10
36.5205
 20
3.3566
 30
0.0
 10
36.4048
 20
3.2202
 30
0.0
 10
36.4048
 20
3.2202
 30
0.0
 10
36.4048
 20
3.2202
 30
0.0
 10
36.4048
 20
3.2202
 30
0.0
 10
36.1334
 20
3.4629
 30
0.0
 10
36.1334
 20
3.4629
 30
0.0
 10
36.1334
 20
3.4629
 30
0.0
 10
35.9965
 20
3.3726
 30
0.0
 10
35.8794
 20
3.3124
 30
0.0
 10
35.7825
 20
3.2823
 30
0.0
 10
35.7825
 20
3.2823
 30
0.0
 10
35.6856
 20
3.2522
 30
0.0
 10
35.5689
 20
3.2367
 30
0.0
 10
35.433
 20
3.2367
 30
0.0
 10
35.433
 20
3.2367
 30
0.0
 10
35.2256
 20
3.2367
 30
0.0
 10
35.0407
 20
3.2781
 30
0.0
 10
34.8784
 20
3.3608
 30
0.0
 10
34.8784
 20
3.3608
 30
0.0
 10
34.7161
 20
3.4436
 30
0.0
 10
34.5934
 20
3.5593
 30
0.0
 10
34.5097
 20
3.7089
 30
0.0
 10
34.5097
 20
3.7089
 30
0.0
 10
34.4264
 20
3.858
 30
0.0
 10
34.3845
 20
4.0241
 30
0.0
 10
34.3845
 20
4.207
 30
0.0
 10
34.3845
 20
4.207
 30
0.0
 10
34.3845
 20
4.3303
 30
0.0
 10
34.4005
 20
4.438
 30
0.0
 10
34.4335
 20
4.5302
 30
0.0
 10
34.4335
 20
4.5302
 30
0.0
 10
34.4659
 20
4.6224
 30
0.0
 10
34.5228
 20
4.7221
 30
0.0
 10
34.6037
 20
4.8284
 30
0.0
  0
SPLINE
  5
128
330
1F
100
AcDbEntity
  8
AXIS
 62
   250
100
AcDbSpline
210
0.0
220
0.0
230
1.0
 70
    11
 71
     3
 72
    32
 73
    28
 74
     0
 42
0.0000000001
 43
0.0000000001
 40
0.0
 40
0.0
 40
0.0
 40
0.0
 40
0.125
 40
0.125
 40
0.125
 40
0.125
 40
0.25
 40
0.25
 40
0.25
 40
0.25
 40
0.375
 40
0.375
 40
0.375
 40
0.375
 40
0.5
 40
0.5
 40
0.5
 40
0.5
 40
0.625
 40
0.625
 40
0.625
 40
0.625
 40
0.75
 40
0.75
 40
0.75
 40
0.75
 40
1.0
 40
1.0
 40
1.0
 40
1.0
 10
34.7895
 20
4.6633
 30
0.0
 10
34.7218
 20
4.5767
 30
0.0
 10
34.6752
 20
4.501
 30
0.0
 10
34.6503
 20
4.4366
 30
0.0
 10
34.6503
 20
4.4366
 30
0.0
 10
34.6258
 20
4.3717
 30
0.0
 10
34.6131
 20
4.2955
 30
0.0
 10
34.6131
 20
4.2084
 30
0.0
 10
34.6131
 20
4.2084
 30
0.0
 10
34.6131
 20
4.0071
 30
0.0
 10
34.6813
 20
3.8411
 30
0.0
 10
34.8177
 20
3.7094
 30
0.0
 10
34.8177
 20
3.7094
 30
0.0
 10
34.9542
 20
3.5781
 30
0.0
 10
35.1578
 20
3.5123
 30
0.0
 10
35.4292
 20
3.5123
 30
0.0
 10
35.4292
 20
3.5123
 30
0.0
 10
35.5355
 20
3.5123
 30
0.0
 10
35.6301
 20
3.5226
 30
0.0
 10
35.7129
 20
3.5429
 30
0.0
 10
35.7129
 20
3.5429
 30
0.0
 10
35.7745
 20
3.5575
 30
0.0
 10
35.8502
 20
3.588
 30
0.0
 10
35.94
 20
3.6351
 30
0.0
 10
35.94
 20
3.6351
 30
0.0
 10
35.94
 20
3.6351
 30
0.0
 10
34.7895
 20
4.6633
 30
0.0
 10
34.7895
 20
4.6633
 30
0.0
  0
SPLINE
  5
129
330
1F
100
AcDbEntity
  8
AXIS
 62
   250
100
AcDbSpline
210
0.0
220
0.0
230
1.0
 70
    11
 71
     3
 72
    28
 73
    24
 74
     0
 42
0.0000000001
 43
0.0000000001
 40
0.0
 40
0.0
 40
0.0
 40
0.0
 40
0.1428571428571428
 40
0.1428571428571428
 40
0.1428571428571428
 40
0.1428571428571428
 40
0.2857142857142857
 40
0.2857142857142857
 40
0.2857142857142857
 40
0.2857142857142857
 40
0.4285714285714285
 40
0.4285714285714285
 40
0.4285714285714285
 40
0.4285714285714285
 40
0.5714285714285714
 40
0.5714285714285714
 40
0.5714285714285714
 40
0.5714285714285714
 40
0.7142857142857143
 40
0.7142857142857143
 40
0.7142857142857143
 40
0.7142857142857143
 40
1.0
 40
1.0
 40
1.0
 40
1.0
 10
34.9316
 20
4.7762
 30
0.0
 10
34.9316
 20
4.7762
 30
0.0
 10
36.0779
 20
3.7522
 30
0.0
 10
36.0779
 20
3.7522
 30
0.0
 10
36.0779
 20
3.7522
 30
0.0
 10
36.1357
 20
3.8227
 30
0.0
 10
36.1762
 20
3.8881
 30
0.0
 10
36.1992
 20
3.9479
 30
0.0
 10
36.1992
 20
3.9479
 30
0.0
 10
36.2298
 20
4.0259
 30
0.0
 10
36.2448
 20
4.1106
 30
0.0
 10
36.2448
 20
4.2014
 30
0.0
 10
36.2448
 20
4.2014
 30
0.0
 10
36.2448
 20
4.4018
 30
0.0
 10
36.1743
 20
4.5669
 30
0.0
 10
36.0327
 20
4.6976
 30
0.0
 10
36.0327
 20
4.6976
 30
0.0
 10
35.8911
 20
4.8279
 30
0.0
 10
35.6926
 20
4.8933
 30
0.0
 10
35.4372
 20
4.8933
 30
0.0
 10
35.4372
 20
4.8933
 30
0.0
 10
35.2463
 20
4.8933
 30
0.0
 10
35.0774
 20
4.8543
 30
0.0
 10
34.9316
 20
4.7762
 30
0.0
  0
SPLINE
  5
12A
330
1F
100
AcDbEntity
  8
AXIS
 62
   250
100
AcDbSpline
210
0.0
220
0.0
230
1.0
 70
    11
 71
     3
 72
   124
 73
   120
 74
     0
 42
0.0000000001
 43
0.0000000001
 40
0.0
 40
0.0
 40
0.0
 40
0.0
 40
0.032258064516129
 40
0.032258064516129
 40
0.032258064516129
 40
0.032258064516129
 40
0.0645161290322581
 40
0.0645161290322581
 40
0.0645161290322581
 40
0.0645161290322581
 40
0.0967741935483871
 40
0.0967741935483871
 40
0.0967741935483871
 40
0.0967741935483871
 40
0.1290322580645161
 40
0.1290322580645161
 40
0.1290322580645161
 40
0.1290322580645161
 40
0.1612903225806452
 40
0.1612903225806452
 40
0.1612903225806452
 40
0.1612903225806452
 40
0.1935483870967742
 40
0.1935483870967742
 40
0.1935483870967742
 40
0.1935483870967742
 40
0.2258064516129032
 40
0.2258064516129032
 40
0.2258064516129032
 40
0.2258064516129032
 40
0.2580645161290323
 40
0.2580645161290323
 40
0.2580645161290323
 40
0.2580645161290323
 40
0.2903225806451613
 40
0.2903225806451613
 40
0.2903225806451613
 40
0.2903225806451613
 40
0.3225806451612903
 40
0.3225806451612903
 40
0.3225806451612903
 40
0.3225806451612903
 40
0.3548387096774194
 40
0.3548387096774194
 40
0.3548387096774194
 40
0.3548387096774194
 40
0.3870967741935484
 40
0.3870967741935484
 40
0.3870967741935484
 40
0.3870967741935484
 40
0.4193548387096774
 40
0.4193548387096774
 40
0.4193548387096774
 40
0.4193548387096774
 40
0.4516129032258064
 40
0.4516129032258064
 40
0.4516129032258064
 40
0.4516129032258064
 40
0.4838709677419355
 40
0.4838709677419355
 40
0.4838709677419355
 40
0.4838709677419355
 40
0.5161290322580645
 40
0.5161290322580645
 40
0.5161290322580645
 40
0.5161290322580645
 40
0.5483870967741935
 40
0.5483870967741935
 40
0.5483870967741935
 40
0.5483870967741935
 40
0.5806451612903226
 40
0.5806451612903226
 40
0.5806451612903226
 40
0.5806451612903226
 40
0.6129032258064516
 40
0.6129032258064516
 40
0.6129032258064516
 40
0.6129032258064516
 40
0.6451612903225806
 40
0.6451612903225806
 40
0.6451612903225806
 40
0.6451612903225806
 40
0.6774193548387096
 40
0.6774193548387096
 40
0.6774193548387096
 40
0.6774193548387096
 40
0.7096774193548387
 40
0.7096774193548387
 40
0.7096774193548387
 40
0.7096774193548387
 40
0.7419354838709677
 40
0.7419354838709677
 40
0.7419354838709677
 40
0.7419354838709677
 40
0.7741935483870968
 40
0.7741935483870968
 40
0.7741935483870968
 40
0.7741935483870968
 40
0.8064516129032258
 40
0.8064516129032258
 40
0.8064516129032258
 40
0.8064516129032258
 40
0.8387096774193549
 40
0.8387096774193549
 40
0.8387096774193549
 40
0.8387096774193549
 40
0.8709677419354839
 40
0.8709677419354839
 40
0.8709677419354839
 40
0.8709677419354839
 40
0.9032258064516129
 40
0.9032258064516129
 40
0.9032258064516129
 40
0.9032258064516129
 40
0.9354838709677419
 40
0.9354838709677419
 40
0.9354838709677419
 40
0.9354838709677419
 40
1.0
 40
1.0
 40
1.0
 40
1.0
 10
35.9057
 20
5.4196
 30
0.0
 10
35.9057
 20
5.4196
 30
0.0
 10
35.8728
 20
5.6675
 30
0.0
 10
35.8728
 20
5.6675
 30
0.0
 10
35.8728
 20
5.6675
 30
0.0
 10
36.0134
 20
5.6962
 30
0.0
 10
36.1145
 20
5.7447
 30
0.0
 10
36.1766
 20
5.8129
 30
0.0
 10
36.1766
 20
5.8129
 30
0.0
 10
36.2387
 20
5.8815
 30
0.0
 10
36.2698
 20
5.9648
 30
0.0
 10
36.2698
 20
6.0631
 30
0.0
 10
36.2698
 20
6.0631
 30
0.0
 10
36.2698
 20
6.1797
 30
0.0
 10
36.2293
 20
6.2785
 30
0.0
 10
36.1484
 20
6.359
 30
0.0
 10
36.1484
 20
6.359
 30
0.0
 10
36.0675
 20
6.4389
 30
0.0
 10
35.9673
 20
6.4794
 30
0.0
 10
35.8478
 20
6.4794
 30
0.0
 10
35.8478
 20
6.4794
 30
0.0
 10
35.734
 20
6.4794
 30
0.0
 10
35.6399
 20
6.4422
 30
0.0
 10
35.5661
 20
6.3679
 30
0.0
 10
35.5661
 20
6.3679
 30
0.0
 10
35.4923
 20
6.2931
 30
0.0
 10
35.4551
 20
6.1986
 30
0.0
 10
35.4551
 20
6.0838
 30
0.0
 10
35.4551
 20
6.0838
 30
0.0
 10
35.4551
 20
6.0368
 30
0.0
 10
35.4645
 20
5.9784
 30
0.0
 10
35.4828
 20
5.9088
 30
0.0
 10
35.4828
 20
5.9088
 30
0.0
 10
35.4828
 20
5.9088
 30
0.0
 10
35.2651
 20
5.9366
 30
0.0
 10
35.2651
 20
5.9366
 30
0.0
 10
35.2651
 20
5.9366
 30
0.0
 10
35.2669
 20
5.953
 30
0.0
 10
35.2679
 20
5.9662
 30
0.0
 10
35.2679
 20
5.9765
 30
0.0
 10
35.2679
 20
5.9765
 30
0.0
 10
35.2679
 20
6.0819
 30
0.0
 10
35.2401
 20
6.1769
 30
0.0
 10
35.1851
 20
6.2616
 30
0.0
 10
35.1851
 20
6.2616
 30
0.0
 10
35.1301
 20
6.3463
 30
0.0
 10
35.0449
 20
6.3886
 30
0.0
 10
34.9302
 20
6.3886
 30
0.0
 10
34.9302
 20
6.3886
 30
0.0
 10
34.8394
 20
6.3886
 30
0.0
 10
34.7637
 20
6.3575
 30
0.0
 10
34.7044
 20
6.2959
 30
0.0
 10
34.7044
 20
6.2959
 30
0.0
 10
34.6447
 20
6.2343
 30
0.0
 10
34.6145
 20
6.1548
 30
0.0
 10
34.6145
 20
6.0574
 30
0.0
 10
34.6145
 20
6.0574
 30
0.0
 10
34.6145
 20
5.961
 30
0.0
 10
34.6451
 20
5.8806
 30
0.0
 10
34.7053
 20
5.8166
 30
0.0
 10
34.7053
 20
5.8166
 30
0.0
 10
34.766
 20
5.7522
 30
0.0
 10
34.8573
 20
5.7108
 30
0.0
 10
34.9786
 20
5.6924
 30
0.0
 10
34.9786
 20
5.6924
 30
0.0
 10
34.9786
 20
5.6924
 30
0.0
 10
34.9344
 20
5.4446
 30
0.0
 10
34.9344
 20
5.4446
 30
0.0
 10
34.9344
 20
5.4446
 30
0.0
 10
34.7679
 20
5.4747
 30
0.0
 10
34.639
 20
5.5438
 30
0.0
 10
34.5478
 20
5.6511
 30
0.0
 10
34.5478
 20
5.6511
 30
0.0
 10
34.4565
 20
5.7588
 30
0.0
 10
34.4104
 20
5.8924
 30
0.0
 10
34.4104
 20
6.0523
 30
0.0
 10
34.4104
 20
6.0523
 30
0.0
 10
34.4104
 20
6.1623
 30
0.0
 10
34.4344
 20
6.2639
 30
0.0
 10
34.4814
 20
6.3566
 30
0.0
 10
34.4814
 20
6.3566
 30
0.0
 10
34.5289
 20
6.4493
 30
0.0
 10
34.5934
 20
6.5203
 30
0.0
 10
34.6752
 20
6.5697
 30
0.0
 10
34.6752
 20
6.5697
 30
0.0
 10
34.7571
 20
6.6186
 30
0.0
 10
34.8436
 20
6.6435
 30
0.0
 10
34.9358
 20
6.6435
 30
0.0
 10
34.9358
 20
6.6435
 30
0.0
 10
35.0228
 20
6.6435
 30
0.0
 10
35.1023
 20
6.62
 30
0.0
 10
35.1743
 20
6.573
 30
0.0
 10
35.1743
 20
6.573
 30
0.0
 10
35.2458
 20
6.5259
 30
0.0
 10
35.3027
 20
6.4568
 30
0.0
 10
35.345
 20
6.3651
 30
0.0
 10
35.345
 20
6.3651
 30
0.0
 10
35.3723
 20
6.4845
 30
0.0
 10
35.4297
 20
6.5772
 30
0.0
 10
35.5167
 20
6.6435
 30
0.0
 10
35.5167
 20
6.6435
 30
0.0
 10
35.6033
 20
6.7094
 30
0.0
 10
35.7119
 20
6.7423
 30
0.0
 10
35.8422
 20
6.7423
 30
0.0
 10
35.8422
 20
6.7423
 30
0.0
 10
36.0186
 20
6.7423
 30
0.0
 10
36.1682
 20
6.6783
 30
0.0
 10
36.2909
 20
6.5495
 30
0.0
 10
36.2909
 20
6.5495
 30
0.0
 10
36.4137
 20
6.421
 30
0.0
 10
36.4748
 20
6.2583
 30
0.0
 10
36.4748
 20
6.0617
 30
0.0
 10
36.4748
 20
6.0617
 30
0.0
 10
36.4748
 20
5.8844
 30
0.0
 10
36.4222
 20
5.7371
 30
0.0
 10
36.3163
 20
5.62
 30
0.0
 10
36.3163
 20
5.62
 30
0.0
 10
36.211
 20
5.5029
 30
0.0
 10
36.0741
 20
5.4361
 30
0.0
 10
35.9057
 20
5.4196
 30
0.0
  0
SPLINE
  5
12B
330
1F
100
AcDbEntity
  8
AXIS
 62
   250
100
AcDbSpline
210
0.0
220
0.0
230
1.0
 70
    11
 71
     3
 72
    52
 73
    48
 74
     0
 42
0.0000000001
 43
0.0000000001
 40
0.0
 40
0.0
 40
0.0
 40
0.0
 40
0.0769230769230769
 40
0.0769230769230769
 40
0.0769230769230769
 40
0.0769230769230769
 40
0.1538461538461539
 40
0.1538461538461539
 40
0.1538461538461539
 40
0.1538461538461539
 40
0.2307692307692308
 40
0.2307692307692308
 40
0.2307692307692308
 40
0.2307692307692308
 40
0.3076923076923077
 40
0.3076923076923077
 40
0.3076923076923077
 40
0.3076923076923077
 40
0.3846153846153846
 40
0.3846153846153846
 40
0.3846153846153846
 40
0.3846153846153846
 40
0.4615384615384616
 40
0.4615384615384616
 40
0.4615384615384616
 40
0.4615384615384616
 40
0.5384615384615384
 40
0.5384615384615384
 40
0.5384615384615384
 40
0.5384615384615384
 40
0.6153846153846154
 40
0.6153846153846154
 40
0.6153846153846154
 40
0.6153846153846154
 40
0.6923076923076923
 40
0.6923076923076923
 40
0.6923076923076923
 40
0.6923076923076923
 40
0.7692307692307693
 40
0.7692307692307693
 40
0.7692307692307693
 40
0.7692307692307693
 40
0.8461538461538461
 40
0.8461538461538461
 40
0.8461538461538461
 40
0.8461538461538461
 40
1.0
 40
1.0
 40
1.0
 40
1.0
 10
35.4429
 20
6.9878
 30
0.0
 10
35.2039
 20
6.9878
 30
0.0
 10
35.0115
 20
7.0123
 30
0.0
 10
34.8662
 20
7.0617
 30
0.0
 10
34.8662
 20
7.0617
 30
0.0
 10
34.7204
 20
7.1106
 30
0.0
 10
34.608
 20
7.184
 30
0.0
 10
34.5289
 20
7.2809
 30
0.0
 10
34.5289
 20
7.2809
 30
0.0
 10
34.4499
 20
7.3778
 30
0.0
 10
34.4104
 20
7.4996
 30
0.0
 10
34.4104
 20
7.6463
 30
0.0
 10
34.4104
 20
7.6463
 30
0.0
 10
34.4104
 20
7.755
 30
0.0
 10
34.4325
 20
7.85
 30
0.0
 10
34.4763
 20
7.9318
 30
0.0
 10
34.4763
 20
7.9318
 30
0.0
 10
34.5195
 20
8.0137
 30
0.0
 10
34.5826
 20
8.081
 30
0.0
 10
34.6649
 20
8.1346
 30
0.0
 10
34.6649
 20
8.1346
 30
0.0
 10
34.7472
 20
8.1877
 30
0.0
 10
34.8474
 20
8.2296
 30
0.0
 10
34.9654
 20
8.2597
 30
0.0
 10
34.9654
 20
8.2597
 30
0.0
 10
35.0835
 20
8.2903
 30
0.0
 10
35.2425
 20
8.3053
 30
0.0
 10
35.4429
 20
8.3053
 30
0.0
 10
35.4429
 20
8.3053
 30
0.0
 10
35.6799
 20
8.3053
 30
0.0
 10
35.8709
 20
8.2809
 30
0.0
 10
36.0167
 20
8.2324
 30
0.0
 10
36.0167
 20
8.2324
 30
0.0
 10
36.1625
 20
8.1835
 30
0.0
 10
36.2749
 20
8.1106
 30
0.0
 10
36.3544
 20
8.0137
 30
0.0
 10
36.3544
 20
8.0137
 30
0.0
 10
36.4339
 20
7.9168
 30
0.0
 10
36.4734
 20
7.7945
 30
0.0
 10
36.4734
 20
7.6463
 30
0.0
 10
36.4734
 20
7.6463
 30
0.0
 10
36.4734
 20
7.4516
 30
0.0
 10
36.4038
 20
7.2987
 30
0.0
 10
36.2641
 20
7.1877
 30
0.0
 10
36.2641
 20
7.1877
 30
0.0
 10
36.0962
 20
7.0546
 30
0.0
 10
35.822
 20
6.9878
 30
0.0
 10
35.4429
 20
6.9878
 30
0.0
  0
SPLINE
  5
12C
330
1F
100
AcDbEntity
  8
AXIS
 62
   250
100
AcDbSpline
210
0.0
220
0.0
230
1.0
 70
    11
 71
     3
 72
    36
 73
    32
 74
     0
 42
0.0000000001
 43
0.0000000001
 40
0.0
 40
0.0
 40
0.0
 40
0.0
 40
0.1111111111111111
 40
0.1111111111111111
 40
0.1111111111111111
 40
0.1111111111111111
 40
0.2222222222222222
 40
0.2222222222222222
 40
0.2222222222222222
 40
0.2222222222222222
 40
0.3333333333333333
 40
0.3333333333333333
 40
0.3333333333333333
 40
0.3333333333333333
 40
0.4444444444444444
 40
0.4444444444444444
 40
0.4444444444444444
 40
0.4444444444444444
 40
0.5555555555555556
 40
0.5555555555555556
 40
0.5555555555555556
 40
0.5555555555555556
 40
0.6666666666666666
 40
0.6666666666666666
 40
0.6666666666666666
 40
0.6666666666666666
 40
0.7777777777777778
 40
0.7777777777777778
 40
0.7777777777777778
 40
0.7777777777777778
 40
1.0
 40
1.0
 40
1.0
 40
1.0
 10
35.4429
 20
7.2428
 30
0.0
 10
35.7745
 20
7.2428
 30
0.0
 10
35.9951
 20
7.2818
 30
0.0
 10
36.1051
 20
7.3594
 30
0.0
 10
36.1051
 20
7.3594
 30
0.0
 10
36.2147
 20
7.437
 30
0.0
 10
36.2698
 20
7.5325
 30
0.0
 10
36.2698
 20
7.6463
 30
0.0
 10
36.2698
 20
7.6463
 30
0.0
 10
36.2698
 20
7.7606
 30
0.0
 10
36.2143
 20
7.8561
 30
0.0
 10
36.1042
 20
7.9337
 30
0.0
 10
36.1042
 20
7.9337
 30
0.0
 10
35.9941
 20
8.0113
 30
0.0
 10
35.7735
 20
8.0504
 30
0.0
 10
35.4429
 20
8.0504
 30
0.0
 10
35.4429
 20
8.0504
 30
0.0
 10
35.1103
 20
8.0504
 30
0.0
 10
34.8892
 20
8.0113
 30
0.0
 10
34.7801
 20
7.9337
 30
0.0
 10
34.7801
 20
7.9337
 30
0.0
 10
34.6705
 20
7.8561
 30
0.0
 10
34.616
 20
7.7597
 30
0.0
 10
34.616
 20
7.644
 30
0.0
 10
34.616
 20
7.644
 30
0.0
 10
34.616
 20
7.5297
 30
0.0
 10
34.6644
 20
7.4389
 30
0.0
 10
34.7608
 20
7.3707
 30
0.0
 10
34.7608
 20
7.3707
 30
0.0
 10
34.8836
 20
7.2856
 30
0.0
 10
35.1113
 20
7.2428
 30
0.0
 10
35.4429
 20
7.2428
 30
0.0
  0
SPLINE
  5
12D
330
1F
100
AcDbEntity
  8
AXIS
 62
   250
100
AcDbSpline
210
0.0
220
0.0
230
1.0
 70
    24
 71
     3
 72
     8
 73
     4
 74
     0
 42
0.0000000001
 43
0.0000000001
 40
0.0
 40
0.0
 40
0.0
 40
0.0
 40
1.0
 40
1.0
 40
1.0
 40
1.0
 10
37.2912
 20
-6.5208
 30
0.0
 10
37.2912
 20
-6.5208
 30
0.0
 10
37.2795
 20
8.8922
 30
0.0
 10
37.2795
 20
8.8922
 30
0.0
  0
SPLINE
  5
12E
330
1F
100
AcDbEntity
  8
AXIS
 62
   250
100
AcDbSpline
210
0.0
220
0.0
230
1.0
 70
    11
 71
     3
 72
    20
 73
    16
 74
     0
 42
0.0000000001
 43
0.0000000001
 40
0.0
 40
0.0
 40
0.0
 40
0.0
 40
0.2
 40
0.2
 40
0.2
 40
0.2
 40
0.4
 40
0.4
 40
0.4
 40
0.4
 40
0.6
 40
0.6
 40
0.6
 40
0.6
 40
1.0
 40
1.0
 40
1.0
 40
1.0
 10
37.2963
 20
2.1499
 30
0.0
 10
37.2963
 20
2.1499
 30
0.0
 10
37.7344
 20
5.1499
 30
0.0
 10
37.7344
 20
5.1499
 30
0.0
 10
37.7344
 20
5.1499
 30
0.0
 10
37.7344
 20
5.1499
 30
0.0
 10
36.7675
 20
5.1499
 30
0.0
 10
36.7675
 20
5.1499
 30
0.0
 10
36.7675
 20
5.1499
 30
0.0
 10
36.7675
 20
5.1499
 30
0.0
 10
37.295
 20
2.1499
 30
0.0
 10
37.295
 20
2.1499
 30
0.0
 10
37.295
 20
2.1499
 30
0.0
 10
37.295
 20
2.1499
 30
0.0
 10
37.2963
 20
2.1499
 30
0.0
 10
37.2963
 20
2.1499
 30
0.0
  0
SPLINE
  5
12F
330
1F
100
AcDbEntity
  8
AXIS
 62
   250
100
AcDbSpline
210
0.0
220
0.0
230
1.0
 70
    11
 71
     3
 72
    20
 73
    16
 74
     0
 42
0.0000000001
 43
0.0000000001
 40
0.0
 40
0.0
 40
0.0
 40
0.0
 40
0.2
 40
0.2
 40
0.2
 40
0.2
 40
0.4
 40
0.4
 40
0.4
 40
0.4
 40
0.6
 40
0.6
 40
0.6
 40
0.6
 40
1.0
 40
1.0
 40
1.0
 40
1.0
 10
37.3094
 20
-2.2638
 30
0.0
 10
37.3094
 20
-2.2638
 30
0.0
 10
36.8713
 20
-5.264
 30
0.0
 10
36.8713
 20
-5.264
 30
0.0
 10
36.8713
 20
-5.264
 30
0.0
 10
36.8713
 20
-5.264
 30
0.0
 10
37.8382
 20
-5.264
 30
0.0
 10
37.8382
 20
-5.264
 30
0.0
 10
37.8382
 20
-5.264
 30
0.0
 10
37.8382
 20
-5.264
 30
0.0
 10
37.3107
 20
-2.2638
 30
0.0
 10
37.3107
 20
-2.2638
 30
0.0
 10
37.3107
 20
-2.2638
 30
0.0
 10
37.3107
 20
-2.2638
 30
0.0
 10
37.3094
 20
-2.2638
 30
0.0
 10
37.3094
 20
-2.2638
 30
0.0
  0
SPLINE
  5
130
330
1F
100
AcDbEntity
  8
AXIS
 62
   250
100
AcDbSpline
210
0.0
220
0.0
230
1.0
 70
    24
 71
     3
 72
     8
 73
     4
 74
     0
 42
0.0000000001
 43
0.0000000001
 40
0.0
 40
0.0
 40
0.0
 40
0.0
 40
1.0
 40
1.0
 40
1.0
 40
1.0
 10
32.0234
 20
2.078
 30
0.0
 10
32.0234
 20
2.078
 30
0.0
 10
37.5538
 20
2.0839
 30
0.0
 10
37.5538
 20
2.0839
 30
0.0
  0
SPLINE
  5
131
330
1F
100
AcDbEntity
  8
AXIS
 62
   250
100
AcDbSpline
210
0.0
220
0.0
230
1.0
 70
    24
 71
     3
 72
     8
 73
     4
 74
     0
 42
0.0000000001
 43
0.0000000001
 40
0.0
 40
0.0
 40
0.0
 40
0.0
 40
1.0
 40
1.0
 40
1.0
 40
1.0
 10
32.0434
 20
-2.0568
 30
0.0
 10
32.0434
 20
-2.0568
 30
0.0
 10
37.5538
 20
-2.0466
 30
0.0
 10
37.5538
 20
-2.0466
 30
0.0
  0
SPLINE
  5
132
330
1F
100
AcDbEntity
  8
AXIS
 62
   250
100
AcDbSpline
210
0.0
220
0.0
230
1.0
 70
     8
 71
     3
 72
    16
 73
    12
 74
     0
 42
0.0000000001
 43
0.0000000001
 40
0.0
 40
0.0
 40
0.0
 40
0.0
 40
0.25
 40
0.25
 40
0.25
 40
0.25
 40
0.5
 40
0.5
 40
0.5
 40
0.5
 40
1.0
 40
1.0
 40
1.0
 40
1.0
 10
-35.2372
 20
-5.3083
 30
0.0
 10
-35.2372
 20
-5.3083
 30
0.0
 10
-35.2372
 20
-7.4248
 30
0.0
 10
-35.2372
 20
-7.4248
 30
0.0
 10
-35.2372
 20
-7.4248
 30
0.0
 10
-35.2372
 20
-7.4248
 30
0.0
 10
-32.4913
 20
-7.436
 30
0.0
 10
-32.4913
 20
-7.436
 30
0.0
 10
-32.4913
 20
-7.436
 30
0.0
 10
-32.4913
 20
-7.436
 30
0.0
 10
-32.5136
 20
-5.3417
 30
0.0
 10
-32.5136
 20
-5.3417
 30
0.0
  0
SPLINE
  5
133
330
1F
100
AcDbEntity
  8
AXIS
 62
   250
100
AcDbSpline
210
0.0
220
0.0
230
1.0
 70
     8
 71
     3
 72
    72
 73
    68
 74
     0
 42
0.0000000001
 43
0.0000000001
 40
0.0
 40
0.0
 40
0.0
 40
0.0
 40
0.0555555555555556
 40
0.0555555555555556
 40
0.0555555555555556
 40
0.0555555555555556
 40
0.1111111111111111
 40
0.1111111111111111
 40
0.1111111111111111
 40
0.1111111111111111
 40
0.1666666666666667
 40
0.1666666666666667
 40
0.1666666666666667
 40
0.1666666666666667
 40
0.2222222222222222
 40
0.2222222222222222
 40
0.2222222222222222
 40
0.2222222222222222
 40
0.2777777777777778
 40
0.2777777777777778
 40
0.2777777777777778
 40
0.2777777777777778
 40
0.3333333333333333
 40
0.3333333333333333
 40
0.3333333333333333
 40
0.3333333333333333
 40
0.3888888888888889
 40
0.3888888888888889
 40
0.3888888888888889
 40
0.3888888888888889
 40
0.4444444444444444
 40
0.4444444444444444
 40
0.4444444444444444
 40
0.4444444444444444
 40
0.5
 40
0.5
 40
0.5
 40
0.5
 40
0.5555555555555556
 40
0.5555555555555556
 40
0.5555555555555556
 40
0.5555555555555556
 40
0.6111111111111112
 40
0.6111111111111112
 40
0.6111111111111112
 40
0.6111111111111112
 40
0.6666666666666666
 40
0.6666666666666666
 40
0.6666666666666666
 40
0.6666666666666666
 40
0.7222222222222222
 40
0.7222222222222222
 40
0.7222222222222222
 40
0.7222222222222222
 40
0.7777777777777778
 40
0.7777777777777778
 40
0.7777777777777778
 40
0.7777777777777778
 40
0.8333333333333334
 40
0.8333333333333334
 40
0.8333333333333334
 40
0.8333333333333334
 40
0.8888888888888888
 40
0.8888888888888888
 40
0.8888888888888888
 40
0.8888888888888888
 40
1.0
 40
1.0
 40
1.0
 40
1.0
 10
-34.3793
 20
-7.405
 30
0.0
 10
-34.3793
 20
-7.405
 30
0.0
 10
-34.4291
 20
-8.4342
 30
0.0
 10
-34.4291
 20
-8.4342
 30
0.0
 10
-34.4291
 20
-8.4342
 30
0.0
 10
-34.4291
 20
-8.4342
 30
0.0
 10
-34.4789
 20
-10.2436
 30
0.0
 10
-34.4789
 20
-10.2436
 30
0.0
 10
-34.4789
 20
-10.2436
 30
0.0
 10
-34.4789
 20
-10.2436
 30
0.0
 10
-34.5619
 20
-14.1114
 30
0.0
 10
-34.5619
 20
-14.1114
 30
0.0
 10
-34.5619
 20
-14.1114
 30
0.0
 10
-34.5619
 20
-14.1114
 30
0.0
 10
-34.6385
 20
-16.3528
 30
0.0
 10
-34.6385
 20
-16.3528
 30
0.0
 10
-34.6385
 20
-16.3528
 30
0.0
 10
-34.6385
 20
-16.3528
 30
0.0
 10
-34.6651
 20
-21.859
 30
0.0
 10
-34.6651
 20
-21.859
 30
0.0
 10
-34.6651
 20
-21.859
 30
0.0
 10
-34.6651
 20
-21.859
 30
0.0
 10
-34.7183
 20
-24.0668
 30
0.0
 10
-34.7183
 20
-24.0668
 30
0.0
 10
-34.7183
 20
-24.0668
 30
0.0
 10
-34.7183
 20
-24.0668
 30
0.0
 10
-34.7183
 20
-24.9446
 30
0.0
 10
-34.7183
 20
-24.9446
 30
0.0
 10
-34.7183
 20
-24.9446
 30
0.0
 10
-34.7183
 20
-24.9446
 30
0.0
 10
-34.4789
 20
-25.051
 30
0.0
 10
-34.4789
 20
-25.051
 30
0.0
 10
-34.4789
 20
-25.051
 30
0.0
 10
-34.4789
 20
-25.051
 30
0.0
 10
-34.1065
 20
-25.184
 30
0.0
 10
-34.1065
 20
-25.184
 30
0.0
 10
-34.1065
 20
-25.184
 30
0.0
 10
-34.1065
 20
-25.184
 30
0.0
 10
-33.8405
 20
-25.184
 30
0.0
 10
-33.8405
 20
-25.184
 30
0.0
 10
-33.8405
 20
-25.184
 30
0.0
 10
-33.8405
 20
-25.184
 30
0.0
 10
-33.6277
 20
-25.184
 30
0.0
 10
-33.6277
 20
-25.184
 30
0.0
 10
-33.6277
 20
-25.184
 30
0.0
 10
-33.6277
 20
-25.184
 30
0.0
 10
-33.6011
 20
-21.859
 30
0.0
 10
-33.6011
 20
-21.859
 30
0.0
 10
-33.6011
 20
-21.859
 30
0.0
 10
-33.6011
 20
-21.859
 30
0.0
 10
-33.5213
 20
-16.7252
 30
0.0
 10
-33.5213
 20
-16.7252
 30
0.0
 10
-33.5213
 20
-16.7252
 30
0.0
 10
-33.5213
 20
-16.7252
 30
0.0
 10
-33.4681
 20
-14.0652
 30
0.0
 10
-33.4681
 20
-14.0652
 30
0.0
 10
-33.4681
 20
-14.0652
 30
0.0
 10
-33.4681
 20
-14.0652
 30
0.0
 10
-33.3883
 20
-11.1126
 30
0.0
 10
-33.3883
 20
-11.1126
 30
0.0
 10
-33.3883
 20
-11.1126
 30
0.0
 10
-33.3883
 20
-11.1126
 30
0.0
 10
-33.3085
 20
-8.1068
 30
0.0
 10
-33.3085
 20
-8.1068
 30
0.0
 10
-33.3085
 20
-8.1068
 30
0.0
 10
-33.3085
 20
-8.1068
 30
0.0
 10
-33.2819
 20
-7.362
 30
0.0
 10
-33.2819
 20
-7.362
 30
0.0
  0
SPLINE
  5
134
330
1F
100
AcDbEntity
  8
AXIS
 62
   250
100
AcDbSpline
210
0.0
220
0.0
230
1.0
 70
    11
 71
     3
 72
    20
 73
    16
 74
     0
 42
0.0000000001
 43
0.0000000001
 40
0.0
 40
0.0
 40
0.0
 40
0.0
 40
0.2
 40
0.2
 40
0.2
 40
0.2
 40
0.4
 40
0.4
 40
0.4
 40
0.4
 40
0.6
 40
0.6
 40
0.6
 40
0.6
 40
1.0
 40
1.0
 40
1.0
 40
1.0
 10
-33.8716
 20
6.9955
 30
0.0
 10
-30.4418
 20
6.9955
 30
0.0
 10
-27.6616
 20
4.2152
 30
0.0
 10
-27.6616
 20
0.7855
 30
0.0
 10
-27.6616
 20
0.7855
 30
0.0
 10
-27.6616
 20
-2.6441
 30
0.0
 10
-30.4418
 20
-5.4244
 30
0.0
 10
-33.8716
 20
-5.4244
 30
0.0
 10
-33.8716
 20
-5.4244
 30
0.0
 10
-37.3014
 20
-5.4244
 30
0.0
 10
-40.0816
 20
-2.6441
 30
0.0
 10
-40.0816
 20
0.7855
 30
0.0
 10
-40.0816
 20
0.7855
 30
0.0
 10
-40.0816
 20
4.2152
 30
0.0
 10
-37.3014
 20
6.9955
 30
0.0
 10
-33.8716
 20
6.9955
 30
0.0
  0
SPLINE
  5
135
330
1F
100
AcDbEntity
  8
AXIS
 62
   250
100
AcDbSpline
210
0.0
220
0.0
230
1.0
 70
    11
 71
     3
 72
    20
 73
    16
 74
     0
 42
0.0000000001
 43
0.0000000001
 40
0.0
 40
0.0
 40
0.0
 40
0.0
 40
0.2
 40
0.2
 40
0.2
 40
0.2
 40
0.4
 40
0.4
 40
0.4
 40
0.4
 40
0.6
 40
0.6
 40
0.6
 40
0.6
 40
1.0
 40
1.0
 40
1.0
 40
1.0
 10
-33.8716
 20
6.2855
 30
0.0
 10
-30.834
 20
6.2855
 30
0.0
 10
-28.3716
 20
3.8231
 30
0.0
 10
-28.3716
 20
0.7855
 30
0.0
 10
-28.3716
 20
0.7855
 30
0.0
 10
-28.3716
 20
-2.252
 30
0.0
 10
-30.834
 20
-4.7144
 30
0.0
 10
-33.8716
 20
-4.7144
 30
0.0
 10
-33.8716
 20
-4.7144
 30
0.0
 10
-36.9092
 20
-4.7144
 30
0.0
 10
-39.3716
 20
-2.252
 30
0.0
 10
-39.3716
 20
0.7855
 30
0.0
 10
-39.3716
 20
0.7855
 30
0.0
 10
-39.3716
 20
3.8231
 30
0.0
 10
-36.9092
 20
6.2855
 30
0.0
 10
-33.8716
 20
6.2855
 30
0.0
  0
SPLINE
  5
136
330
1F
100
AcDbEntity
  8
AXIS
 62
   250
100
AcDbSpline
210
0.0
220
0.0
230
1.0
 70
    11
 71
     3
 72
    20
 73
    16
 74
     0
 42
0.0000000001
 43
0.0000000001
 40
0.0
 40
0.0
 40
0.0
 40
0.0
 40
0.2
 40
0.2
 40
0.2
 40
0.2
 40
0.4
 40
0.4
 40
0.4
 40
0.4
 40
0.6
 40
0.6
 40
0.6
 40
0.6
 40
1.0
 40
1.0
 40
1.0
 40
1.0
 10
-33.8716
 20
2.2855
 30
0.0
 10
-33.0432
 20
2.2855
 30
0.0
 10
-32.3716
 20
1.6139
 30
0.0
 10
-32.3716
 20
0.7855
 30
0.0
 10
-32.3716
 20
0.7855
 30
0.0
 10
-32.3716
 20
-0.0429
 30
0.0
 10
-33.0432
 20
-0.7145
 30
0.0
 10
-33.8716
 20
-0.7145
 30
0.0
 10
-33.8716
 20
-0.7145
 30
0.0
 10
-34.7
 20
-0.7145
 30
0.0
 10
-35.3716
 20
-0.0429
 30
0.0
 10
-35.3716
 20
0.7855
 30
0.0
 10
-35.3716
 20
0.7855
 30
0.0
 10
-35.3716
 20
1.6139
 30
0.0
 10
-34.7
 20
2.2855
 30
0.0
 10
-33.8716
 20
2.2855
 30
0.0
  0
SPLINE
  5
137
330
1F
100
AcDbEntity
  8
AXIS
  6
NEW_LINE87
 62
   250
100
AcDbSpline
210
0.0
220
0.0
230
1.0
 70
     8
 71
     3
 72
    32
 73
    28
 74
     0
 42
0.0000000001
 43
0.0000000001
 40
0.0
 40
0.0
 40
0.0
 40
0.0
 40
0.125
 40
0.125
 40
0.125
 40
0.125
 40
0.25
 40
0.25
 40
0.25
 40
0.25
 40
0.375
 40
0.375
 40
0.375
 40
0.375
 40
0.5
 40
0.5
 40
0.5
 40
0.5
 40
0.625
 40
0.625
 40
0.625
 40
0.625
 40
0.75
 40
0.75
 40
0.75
 40
0.75
 40
1.0
 40
1.0
 40
1.0
 40
1.0
 10
-33.856
 20
8.2156
 30
0.0
 10
-33.856
 20
8.2156
 30
0.0
 10
-33.856
 20
-9.0865
 30
0.0
 10
-33.856
 20
-9.0865
 30
0.0
 10
-33.856
 20
-9.0865
 30
0.0
 10
-33.856
 20
-9.0865
 30
0.0
 10
-33.9645
 20
-11.7594
 30
0.0
 10
-33.9645
 20
-11.7594
 30
0.0
 10
-33.9645
 20
-11.7594
 30
0.0
 10
-33.9645
 20
-11.7594
 30
0.0
 10
-34.0465
 20
-13.6454
 30
0.0
 10
-34.0465
 20
-13.6454
 30
0.0
 10
-34.0465
 20
-13.6454
 30
0.0
 10
-34.0465
 20
-13.6454
 30
0.0
 10
-34.1285
 20
-16.2694
 30
0.0
 10
-34.1285
 20
-16.2694
 30
0.0
 10
-34.1285
 20
-16.2694
 30
0.0
 10
-34.1285
 20
-16.2694
 30
0.0
 10
-34.1695
 20
-19.5084
 30
0.0
 10
-34.1695
 20
-19.5084
 30
0.0
 10
-34.1695
 20
-19.5084
 30
0.0
 10
-34.1695
 20
-19.5084
 30
0.0
 10
-34.2105
 20
-22.2554
 30
0.0
 10
-34.2105
 20
-22.2554
 30
0.0
 10
-34.2105
 20
-22.2554
 30
0.0
 10
-34.2105
 20
-22.2554
 30
0.0
 10
-34.2515
 20
-25.8224
 30
0.0
 10
-34.2515
 20
-25.8224
 30
0.0
  0
SPLINE
  5
139
330
1F
100
AcDbEntity
  8
AXIS
  6
NEW_LINE88
 62
   250
100
AcDbSpline
210
0.0
220
0.0
230
1.0
 70
    24
 71
     3
 72
     8
 73
     4
 74
     0
 42
0.0000000001
 43
0.0000000001
 40
0.0
 40
0.0
 40
0.0
 40
0.0
 40
1.0
 40
1.0
 40
1.0
 40
1.0
 10
-41.2625
 20
0.7866
 30
0.0
 10
-41.2625
 20
0.7866
 30
0.0
 10
-26.9535
 20
0.7866
 30
0.0
 10
-26.9535
 20
0.7866
 30
0.0
  0
SPLINE
  5
13B
330
1F
100
AcDbEntity
  8
AXIS
  6
NEW_LINE89
 62
   250
100
AcDbSpline
210
0.0
220
0.0
230
1.0
 70
    24
 71
     3
 72
     8
 73
     4
 74
     0
 42
0.0000000001
 43
0.0000000001
 40
0.0
 40
0.0
 40
0.0
 40
0.0
 40
1.0
 40
1.0
 40
1.0
 40
1.0
 10
18.6826
 20
-0.014
 30
0.0
 10
18.6826
 20
-0.014
 30
0.0
 10
33.1388
 20
-0.014
 30
0.0
 10
33.1388
 20
-0.014
 30
0.0
  0
SPLINE
  5
13D
330
1F
100
AcDbEntity
  8
AXIS
 62
   250
100
AcDbSpline
210
0.0
220
0.0
230
1.0
 70
    11
 71
     3
 72
    20
 73
    16
 74
     0
 42
0.0000000001
 43
0.0000000001
 40
0.0
 40
0.0
 40
0.0
 40
0.0
 40
0.2
 40
0.2
 40
0.2
 40
0.2
 40
0.4
 40
0.4
 40
0.4
 40
0.4
 40
0.6
 40
0.6
 40
0.6
 40
0.6
 40
1.0
 40
1.0
 40
1.0
 40
1.0
 10
26.5196
 20
-8.3352
 30
0.0
 10
26.5196
 20
-8.3352
 30
0.0
 10
25.8756
 20
-11.2862
 30
0.0
 10
25.8756
 20
-11.2862
 30
0.0
 10
25.8756
 20
-11.2862
 30
0.0
 10
25.8756
 20
-11.2862
 30
0.0
 10
26.8365
 20
-11.3534
 30
0.0
 10
26.8365
 20
-11.3534
 30
0.0
 10
26.8365
 20
-11.3534
 30
0.0
 10
26.8365
 20
-11.3534
 30
0.0
 10
26.5209
 20
-8.3353
 30
0.0
 10
26.5209
 20
-8.3353
 30
0.0
 10
26.5209
 20
-8.3353
 30
0.0
 10
26.5209
 20
-8.3353
 30
0.0
 10
26.5196
 20
-8.3352
 30
0.0
 10
26.5196
 20
-8.3352
 30
0.0
  0
SPLINE
  5
13E
330
1F
100
AcDbEntity
  8
AXIS
 62
   250
100
AcDbSpline
210
0.0
220
0.0
230
1.0
 70
    11
 71
     3
 72
   116
 73
   112
 74
     0
 42
0.0000000001
 43
0.0000000001
 40
0.0
 40
0.0
 40
0.0
 40
0.0
 40
0.0344827586206897
 40
0.0344827586206897
 40
0.0344827586206897
 40
0.0344827586206897
 40
0.0689655172413793
 40
0.0689655172413793
 40
0.0689655172413793
 40
0.0689655172413793
 40
0.103448275862069
 40
0.103448275862069
 40
0.103448275862069
 40
0.103448275862069
 40
0.1379310344827586
 40
0.1379310344827586
 40
0.1379310344827586
 40
0.1379310344827586
 40
0.1724137931034483
 40
0.1724137931034483
 40
0.1724137931034483
 40
0.1724137931034483
 40
0.2068965517241379
 40
0.2068965517241379
 40
0.2068965517241379
 40
0.2068965517241379
 40
0.2413793103448276
 40
0.2413793103448276
 40
0.2413793103448276
 40
0.2413793103448276
 40
0.2758620689655172
 40
0.2758620689655172
 40
0.2758620689655172
 40
0.2758620689655172
 40
0.3103448275862069
 40
0.3103448275862069
 40
0.3103448275862069
 40
0.3103448275862069
 40
0.3448275862068966
 40
0.3448275862068966
 40
0.3448275862068966
 40
0.3448275862068966
 40
0.3793103448275862
 40
0.3793103448275862
 40
0.3793103448275862
 40
0.3793103448275862
 40
0.4137931034482759
 40
0.4137931034482759
 40
0.4137931034482759
 40
0.4137931034482759
 40
0.4482758620689655
 40
0.4482758620689655
 40
0.4482758620689655
 40
0.4482758620689655
 40
0.4827586206896552
 40
0.4827586206896552
 40
0.4827586206896552
 40
0.4827586206896552
 40
0.5172413793103449
 40
0.5172413793103449
 40
0.5172413793103449
 40
0.5172413793103449
 40
0.5517241379310345
 40
0.5517241379310345
 40
0.5517241379310345
 40
0.5517241379310345
 40
0.5862068965517241
 40
0.5862068965517241
 40
0.5862068965517241
 40
0.5862068965517241
 40
0.6206896551724138
 40
0.6206896551724138
 40
0.6206896551724138
 40
0.6206896551724138
 40
0.6551724137931034
 40
0.6551724137931034
 40
0.6551724137931034
 40
0.6551724137931034
 40
0.6896551724137931
 40
0.6896551724137931
 40
0.6896551724137931
 40
0.6896551724137931
 40
0.7241379310344828
 40
0.7241379310344828
 40
0.7241379310344828
 40
0.7241379310344828
 40
0.7586206896551724
 40
0.7586206896551724
 40
0.7586206896551724
 40
0.7586206896551724
 40
0.7931034482758621
 40
0.7931034482758621
 40
0.7931034482758621
 40
0.7931034482758621
 40
0.8275862068965517
 40
0.8275862068965517
 40
0.8275862068965517
 40
0.8275862068965517
 40
0.8620689655172413
 40
0.8620689655172413
 40
0.8620689655172413
 40
0.8620689655172413
 40
0.896551724137931
 40
0.896551724137931
 40
0.896551724137931
 40
0.896551724137931
 40
0.9310344827586207
 40
0.9310344827586207
 40
0.9310344827586207
 40
0.9310344827586207
 40
1.0
 40
1.0
 40
1.0
 40
1.0
 10
-0.1903
 20
-28.8941
 30
0.0
 10
-0.1903
 20
-28.8941
 30
0.0
 10
0.3895
 20
-27.5503
 30
0.0
 10
0.3895
 20
-27.5503
 30
0.0
 10
0.3895
 20
-27.5503
 30
0.0
 10
0.3895
 20
-27.5503
 30
0.0
 10
0.5929
 20
-27.638
 30
0.0
 10
0.5929
 20
-27.638
 30
0.0
 10
0.5929
 20
-27.638
 30
0.0
 10
0.5929
 20
-27.638
 30
0.0
 10
0.5116
 20
-27.8265
 30
0.0
 10
0.5116
 20
-27.8265
 30
0.0
 10
0.5116
 20
-27.8265
 30
0.0
 10
0.5823
 20
-27.779
 30
0.0
 10
0.6615
 20
-27.7501
 30
0.0
 10
0.7486
 20
-27.7405
 30
0.0
 10
0.7486
 20
-27.7405
 30
0.0
 10
0.8359
 20
-27.7306
 30
0.0
 10
0.9246
 20
-27.7447
 30
0.0
 10
1.0139
 20
-27.7833
 30
0.0
 10
1.0139
 20
-27.7833
 30
0.0
 10
1.1133
 20
-27.8262
 30
0.0
 10
1.186
 20
-27.8821
 30
0.0
 10
1.2316
 20
-27.951
 30
0.0
 10
1.2316
 20
-27.951
 30
0.0
 10
1.2777
 20
-28.0201
 30
0.0
 10
1.2978
 20
-28.0969
 30
0.0
 10
1.2917
 20
-28.1824
 30
0.0
 10
1.2917
 20
-28.1824
 30
0.0
 10
1.466
 20
-28.0716
 30
0.0
 10
1.6381
 20
-28.0527
 30
0.0
 10
1.8084
 20
-28.126
 30
0.0
 10
1.8084
 20
-28.126
 30
0.0
 10
1.9419
 20
-28.1837
 30
0.0
 10
2.0283
 20
-28.265
 30
0.0
 10
2.068
 20
-28.3698
 30
0.0
 10
2.068
 20
-28.3698
 30
0.0
 10
2.1078
 20
-28.4746
 30
0.0
 10
2.0947
 20
-28.6037
 30
0.0
 10
2.0285
 20
-28.7571
 30
0.0
 10
2.0285
 20
-28.7571
 30
0.0
 10
2.0285
 20
-28.7571
 30
0.0
 10
1.6305
 20
-29.6798
 30
0.0
 10
1.6305
 20
-29.6798
 30
0.0
 10
1.6305
 20
-29.6798
 30
0.0
 10
1.6305
 20
-29.6798
 30
0.0
 10
1.4041
 20
-29.5821
 30
0.0
 10
1.4041
 20
-29.5821
 30
0.0
 10
1.4041
 20
-29.5821
 30
0.0
 10
1.4041
 20
-29.5821
 30
0.0
 10
1.7694
 20
-28.7354
 30
0.0
 10
1.7694
 20
-28.7354
 30
0.0
 10
1.7694
 20
-28.7354
 30
0.0
 10
1.8087
 20
-28.6442
 30
0.0
 10
1.8297
 20
-28.5754
 30
0.0
 10
1.8324
 20
-28.5289
 30
0.0
 10
1.8324
 20
-28.5289
 30
0.0
 10
1.8343
 20
-28.4826
 30
0.0
 10
1.8216
 20
-28.4387
 30
0.0
 10
1.7937
 20
-28.3975
 30
0.0
 10
1.7937
 20
-28.3975
 30
0.0
 10
1.7654
 20
-28.3566
 30
0.0
 10
1.7249
 20
-28.3243
 30
0.0
 10
1.6726
 20
-28.3018
 30
0.0
 10
1.6726
 20
-28.3018
 30
0.0
 10
1.5781
 20
-28.2609
 30
0.0
 10
1.4863
 20
-28.2587
 30
0.0
 10
1.3964
 20
-28.2948
 30
0.0
 10
1.3964
 20
-28.2948
 30
0.0
 10
1.3071
 20
-28.3305
 30
0.0
 10
1.2322
 20
-28.4176
 30
0.0
 10
1.1725
 20
-28.5558
 30
0.0
 10
1.1725
 20
-28.5558
 30
0.0
 10
1.1725
 20
-28.5558
 30
0.0
 10
0.8356
 20
-29.3368
 30
0.0
 10
0.8356
 20
-29.3368
 30
0.0
 10
0.8356
 20
-29.3368
 30
0.0
 10
0.8356
 20
-29.3368
 30
0.0
 10
0.6079
 20
-29.2386
 30
0.0
 10
0.6079
 20
-29.2386
 30
0.0
 10
0.6079
 20
-29.2386
 30
0.0
 10
0.6079
 20
-29.2386
 30
0.0
 10
0.9846
 20
-28.3655
 30
0.0
 10
0.9846
 20
-28.3655
 30
0.0
 10
0.9846
 20
-28.3655
 30
0.0
 10
1.0284
 20
-28.2641
 30
0.0
 10
1.0427
 20
-28.1801
 30
0.0
 10
1.0273
 20
-28.1134
 30
0.0
 10
1.0273
 20
-28.1134
 30
0.0
 10
1.0119
 20
-28.0468
 30
0.0
 10
0.9625
 20
-27.9953
 30
0.0
 10
0.8777
 20
-27.9587
 30
0.0
 10
0.8777
 20
-27.9587
 30
0.0
 10
0.8138
 20
-27.9312
 30
0.0
 10
0.7475
 20
-27.9225
 30
0.0
 10
0.6782
 20
-27.9332
 30
0.0
 10
0.6782
 20
-27.9332
 30
0.0
 10
0.6093
 20
-27.9433
 30
0.0
 10
0.5483
 20
-27.9755
 30
0.0
 10
0.4962
 20
-28.0297
 30
0.0
 10
0.4962
 20
-28.0297
 30
0.0
 10
0.4434
 20
-28.0844
 30
0.0
 10
0.3908
 20
-28.1729
 30
0.0
 10
0.3381
 20
-28.2952
 30
0.0
 10
0.3381
 20
-28.2952
 30
0.0
 10
0.3381
 20
-28.2952
 30
0.0
 10
0.0372
 20
-28.9924
 30
0.0
 10
0.0372
 20
-28.9924
 30
0.0
 10
0.0372
 20
-28.9924
 30
0.0
 10
0.0372
 20
-28.9924
 30
0.0
 10
-0.1903
 20
-28.8941
 30
0.0
 10
-0.1903
 20
-28.8941
 30
0.0
  0
SPLINE
  5
13F
330
1F
100
AcDbEntity
  8
AXIS
 62
   250
100
AcDbSpline
210
0.0
220
0.0
230
1.0
 70
    11
 71
     3
 72
   112
 73
   108
 74
     0
 42
0.0000000001
 43
0.0000000001
 40
0.0
 40
0.0
 40
0.0
 40
0.0
 40
0.0357142857142857
 40
0.0357142857142857
 40
0.0357142857142857
 40
0.0357142857142857
 40
0.0714285714285714
 40
0.0714285714285714
 40
0.0714285714285714
 40
0.0714285714285714
 40
0.1071428571428571
 40
0.1071428571428571
 40
0.1071428571428571
 40
0.1071428571428571
 40
0.1428571428571428
 40
0.1428571428571428
 40
0.1428571428571428
 40
0.1428571428571428
 40
0.1785714285714286
 40
0.1785714285714286
 40
0.1785714285714286
 40
0.1785714285714286
 40
0.2142857142857143
 40
0.2142857142857143
 40
0.2142857142857143
 40
0.2142857142857143
 40
0.25
 40
0.25
 40
0.25
 40
0.25
 40
0.2857142857142857
 40
0.2857142857142857
 40
0.2857142857142857
 40
0.2857142857142857
 40
0.3214285714285715
 40
0.3214285714285715
 40
0.3214285714285715
 40
0.3214285714285715
 40
0.3571428571428572
 40
0.3571428571428572
 40
0.3571428571428572
 40
0.3571428571428572
 40
0.3928571428571428
 40
0.3928571428571428
 40
0.3928571428571428
 40
0.3928571428571428
 40
0.4285714285714285
 40
0.4285714285714285
 40
0.4285714285714285
 40
0.4285714285714285
 40
0.4642857142857143
 40
0.4642857142857143
 40
0.4642857142857143
 40
0.4642857142857143
 40
0.5
 40
0.5
 40
0.5
 40
0.5
 40
0.5357142857142857
 40
0.5357142857142857
 40
0.5357142857142857
 40
0.5357142857142857
 40
0.5714285714285714
 40
0.5714285714285714
 40
0.5714285714285714
 40
0.5714285714285714
 40
0.6071428571428571
 40
0.6071428571428571
 40
0.6071428571428571
 40
0.6071428571428571
 40
0.6428571428571429
 40
0.6428571428571429
 40
0.6428571428571429
 40
0.6428571428571429
 40
0.6785714285714286
 40
0.6785714285714286
 40
0.6785714285714286
 40
0.6785714285714286
 40
0.7142857142857143
 40
0.7142857142857143
 40
0.7142857142857143
 40
0.7142857142857143
 40
0.75
 40
0.75
 40
0.75
 40
0.75
 40
0.7857142857142857
 40
0.7857142857142857
 40
0.7857142857142857
 40
0.7857142857142857
 40
0.8214285714285714
 40
0.8214285714285714
 40
0.8214285714285714
 40
0.8214285714285714
 40
0.8571428571428571
 40
0.8571428571428571
 40
0.8571428571428571
 40
0.8571428571428571
 40
0.8928571428571429
 40
0.8928571428571429
 40
0.8928571428571429
 40
0.8928571428571429
 40
0.9285714285714286
 40
0.9285714285714286
 40
0.9285714285714286
 40
0.9285714285714286
 40
1.0
 40
1.0
 40
1.0
 40
1.0
 10
2.9485
 20
-29.8295
 30
0.0
 10
2.838
 20
-29.8785
 30
0.0
 10
2.7377
 20
-29.9065
 30
0.0
 10
2.6473
 20
-29.9137
 30
0.0
 10
2.6473
 20
-29.9137
 30
0.0
 10
2.5565
 20
-29.9204
 30
0.0
 10
2.4644
 20
-29.9102
 30
0.0
 10
2.3711
 20
-29.8828
 30
0.0
 10
2.3711
 20
-29.8828
 30
0.0
 10
2.2166
 20
-29.8375
 30
0.0
 10
2.1093
 20
-29.7654
 30
0.0
 10
2.0483
 20
-29.6656
 30
0.0
 10
2.0483
 20
-29.6656
 30
0.0
 10
1.9878
 20
-29.566
 30
0.0
 10
1.9746
 20
-29.4572
 30
0.0
 10
2.0088
 20
-29.3403
 30
0.0
 10
2.0088
 20
-29.3403
 30
0.0
 10
2.0291
 20
-29.2712
 30
0.0
 10
2.0629
 20
-29.213
 30
0.0
 10
2.1111
 20
-29.1654
 30
0.0
 10
2.1111
 20
-29.1654
 30
0.0
 10
2.1589
 20
-29.1175
 30
0.0
 10
2.2134
 20
-29.084
 30
0.0
 10
2.274
 20
-29.0645
 30
0.0
 10
2.274
 20
-29.0645
 30
0.0
 10
2.3352
 20
-29.0452
 30
0.0
 10
2.3996
 20
-29.0356
 30
0.0
 10
2.4685
 20
-29.0367
 30
0.0
 10
2.4685
 20
-29.0367
 30
0.0
 10
2.5185
 20
-29.0381
 30
0.0
 10
2.5926
 20
-29.0467
 30
0.0
 10
2.6903
 20
-29.063
 30
0.0
 10
2.6903
 20
-29.063
 30
0.0
 10
2.8893
 20
-29.0963
 30
0.0
 10
3.0391
 20
-29.1108
 30
0.0
 10
3.1392
 20
-29.1053
 30
0.0
 10
3.1392
 20
-29.1053
 30
0.0
 10
3.1496
 20
-29.0731
 30
0.0
 10
3.1561
 20
-29.0525
 30
0.0
 10
3.1586
 20
-29.0439
 30
0.0
 10
3.1586
 20
-29.0439
 30
0.0
 10
3.1871
 20
-28.9469
 30
0.0
 10
3.1846
 20
-28.8716
 30
0.0
 10
3.1511
 20
-28.819
 30
0.0
 10
3.1511
 20
-28.819
 30
0.0
 10
3.1064
 20
-28.7472
 30
0.0
 10
3.0235
 20
-28.6939
 30
0.0
 10
2.9037
 20
-28.6588
 30
0.0
 10
2.9037
 20
-28.6588
 30
0.0
 10
2.7918
 20
-28.6261
 30
0.0
 10
2.7035
 20
-28.6213
 30
0.0
 10
2.6382
 20
-28.6448
 30
0.0
 10
2.6382
 20
-28.6448
 30
0.0
 10
2.5734
 20
-28.6684
 30
0.0
 10
2.5139
 20
-28.7264
 30
0.0
 10
2.4589
 20
-28.8186
 30
0.0
 10
2.4589
 20
-28.8186
 30
0.0
 10
2.4589
 20
-28.8186
 30
0.0
 10
2.2358
 20
-28.7185
 30
0.0
 10
2.2358
 20
-28.7185
 30
0.0
 10
2.2358
 20
-28.7185
 30
0.0
 10
2.2861
 20
-28.6253
 30
0.0
 10
2.3445
 20
-28.5547
 30
0.0
 10
2.4107
 20
-28.5079
 30
0.0
 10
2.4107
 20
-28.5079
 30
0.0
 10
2.477
 20
-28.4608
 30
0.0
 10
2.5613
 20
-28.434
 30
0.0
 10
2.6626
 20
-28.4279
 30
0.0
 10
2.6626
 20
-28.4279
 30
0.0
 10
2.764
 20
-28.4217
 30
0.0
 10
2.8749
 20
-28.4361
 30
0.0
 10
2.996
 20
-28.4717
 30
0.0
 10
2.996
 20
-28.4717
 30
0.0
 10
3.1161
 20
-28.5068
 30
0.0
 10
3.2089
 20
-28.5497
 30
0.0
 10
3.2756
 20
-28.5997
 30
0.0
 10
3.2756
 20
-28.5997
 30
0.0
 10
3.3423
 20
-28.6501
 30
0.0
 10
3.387
 20
-28.7015
 30
0.0
 10
3.41
 20
-28.7548
 30
0.0
 10
3.41
 20
-28.7548
 30
0.0
 10
3.4327
 20
-28.808
 30
0.0
 10
3.4413
 20
-28.8689
 30
0.0
 10
3.4366
 20
-28.9386
 30
0.0
 10
3.4366
 20
-28.9386
 30
0.0
 10
3.4324
 20
-28.9815
 30
0.0
 10
3.415
 20
-29.0558
 30
0.0
 10
3.384
 20
-29.1615
 30
0.0
 10
3.384
 20
-29.1615
 30
0.0
 10
3.384
 20
-29.1615
 30
0.0
 10
3.2909
 20
-29.4789
 30
0.0
 10
3.2909
 20
-29.4789
 30
0.0
 10
3.2909
 20
-29.4789
 30
0.0
 10
3.226
 20
-29.7005
 30
0.0
 10
3.1899
 20
-29.842
 30
0.0
 10
3.1832
 20
-29.9032
 30
0.0
 10
3.1832
 20
-29.9032
 30
0.0
 10
3.176
 20
-29.9648
 30
0.0
 10
3.1797
 20
-30.0272
 30
0.0
 10
3.1938
 20
-30.0897
 30
0.0
 10
3.1938
 20
-30.0897
 30
0.0
 10
3.1938
 20
-30.0897
 30
0.0
 10
2.945
 20
-30.0167
 30
0.0
 10
2.945
 20
-30.0167
 30
0.0
 10
2.945
 20
-30.0167
 30
0.0
 10
2.9351
 20
-29.9604
 30
0.0
 10
2.9359
 20
-29.8978
 30
0.0
 10
2.9485
 20
-29.8295
 30
0.0
  0
SPLINE
  5
140
330
1F
100
AcDbEntity
  8
AXIS
 62
   250
100
AcDbSpline
210
0.0
220
0.0
230
1.0
 70
    11
 71
     3
 72
    44
 73
    40
 74
     0
 42
0.0000000001
 43
0.0000000001
 40
0.0
 40
0.0
 40
0.0
 40
0.0
 40
0.0909090909090909
 40
0.0909090909090909
 40
0.0909090909090909
 40
0.0909090909090909
 40
0.1818181818181818
 40
0.1818181818181818
 40
0.1818181818181818
 40
0.1818181818181818
 40
0.2727272727272727
 40
0.2727272727272727
 40
0.2727272727272727
 40
0.2727272727272727
 40
0.3636363636363636
 40
0.3636363636363636
 40
0.3636363636363636
 40
0.3636363636363636
 40
0.4545454545454545
 40
0.4545454545454545
 40
0.4545454545454545
 40
0.4545454545454545
 40
0.5454545454545454
 40
0.5454545454545454
 40
0.5454545454545454
 40
0.5454545454545454
 40
0.6363636363636364
 40
0.6363636363636364
 40
0.6363636363636364
 40
0.6363636363636364
 40
0.7272727272727273
 40
0.7272727272727273
 40
0.7272727272727273
 40
0.7272727272727273
 40
0.8181818181818182
 40
0.8181818181818182
 40
0.8181818181818182
 40
0.8181818181818182
 40
1.0
 40
1.0
 40
1.0
 40
1.0
 10
3.0845
 20
-29.2919
 30
0.0
 10
2.9873
 20
-29.302
 30
0.0
 10
2.8491
 20
-29.2939
 30
0.0
 10
2.6693
 20
-29.2682
 30
0.0
 10
2.6693
 20
-29.2682
 30
0.0
 10
2.5673
 20
-29.2534
 30
0.0
 10
2.4931
 20
-29.2489
 30
0.0
 10
2.4478
 20
-29.2546
 30
0.0
 10
2.4478
 20
-29.2546
 30
0.0
 10
2.402
 20
-29.2604
 30
0.0
 10
2.3628
 20
-29.2768
 30
0.0
 10
2.331
 20
-29.3048
 30
0.0
 10
2.331
 20
-29.3048
 30
0.0
 10
2.2991
 20
-29.3322
 30
0.0
 10
2.2767
 20
-29.3664
 30
0.0
 10
2.2646
 20
-29.4079
 30
0.0
 10
2.2646
 20
-29.4079
 30
0.0
 10
2.2459
 20
-29.4716
 30
0.0
 10
2.2548
 20
-29.5315
 30
0.0
 10
2.2903
 20
-29.588
 30
0.0
 10
2.2903
 20
-29.588
 30
0.0
 10
2.3258
 20
-29.6441
 30
0.0
 10
2.39
 20
-29.6859
 30
0.0
 10
2.4824
 20
-29.713
 30
0.0
 10
2.4824
 20
-29.713
 30
0.0
 10
2.5742
 20
-29.7399
 30
0.0
 10
2.6618
 20
-29.744
 30
0.0
 10
2.7449
 20
-29.7247
 30
0.0
 10
2.7449
 20
-29.7247
 30
0.0
 10
2.828
 20
-29.7053
 30
0.0
 10
2.8969
 20
-29.6659
 30
0.0
 10
2.9507
 20
-29.6061
 30
0.0
 10
2.9507
 20
-29.6061
 30
0.0
 10
2.9921
 20
-29.5598
 30
0.0
 10
3.0281
 20
-29.4842
 30
0.0
 10
3.0588
 20
-29.3793
 30
0.0
 10
3.0588
 20
-29.3793
 30
0.0
 10
3.0588
 20
-29.3793
 30
0.0
 10
3.0845
 20
-29.2919
 30
0.0
 10
3.0845
 20
-29.2919
 30
0.0
  0
SPLINE
  5
141
330
1F
100
AcDbEntity
  8
AXIS
 62
   250
100
AcDbSpline
210
0.0
220
0.0
230
1.0
 70
    11
 71
     3
 72
    64
 73
    60
 74
     0
 42
0.0000000001
 43
0.0000000001
 40
0.0
 40
0.0
 40
0.0
 40
0.0
 40
0.0625
 40
0.0625
 40
0.0625
 40
0.0625
 40
0.125
 40
0.125
 40
0.125
 40
0.125
 40
0.1875
 40
0.1875
 40
0.1875
 40
0.1875
 40
0.25
 40
0.25
 40
0.25
 40
0.25
 40
0.3125
 40
0.3125
 40
0.3125
 40
0.3125
 40
0.375
 40
0.375
 40
0.375
 40
0.375
 40
0.4375
 40
0.4375
 40
0.4375
 40
0.4375
 40
0.5
 40
0.5
 40
0.5
 40
0.5
 40
0.5625
 40
0.5625
 40
0.5625
 40
0.5625
 40
0.625
 40
0.625
 40
0.625
 40
0.625
 40
0.6875
 40
0.6875
 40
0.6875
 40
0.6875
 40
0.75
 40
0.75
 40
0.75
 40
0.75
 40
0.8125
 40
0.8125
 40
0.8125
 40
0.8125
 40
0.875
 40
0.875
 40
0.875
 40
0.875
 40
1.0
 40
1.0
 40
1.0
 40
1.0
 10
3.3406
 20
-30.1413
 30
0.0
 10
3.3406
 20
-30.1413
 30
0.0
 10
3.9919
 20
-29.4774
 30
0.0
 10
3.9919
 20
-29.4774
 30
0.0
 10
3.9919
 20
-29.4774
 30
0.0
 10
3.9919
 20
-29.4774
 30
0.0
 10
3.6175
 20
-28.7036
 30
0.0
 10
3.6175
 20
-28.7036
 30
0.0
 10
3.6175
 20
-28.7036
 30
0.0
 10
3.6175
 20
-28.7036
 30
0.0
 10
3.9234
 20
-28.7539
 30
0.0
 10
3.9234
 20
-28.7539
 30
0.0
 10
3.9234
 20
-28.7539
 30
0.0
 10
3.9234
 20
-28.7539
 30
0.0
 10
4.0897
 20
-29.1288
 30
0.0
 10
4.0897
 20
-29.1288
 30
0.0
 10
4.0897
 20
-29.1288
 30
0.0
 10
4.1203
 20
-29.2001
 30
0.0
 10
4.1454
 20
-29.2595
 30
0.0
 10
4.1633
 20
-29.3072
 30
0.0
 10
4.1633
 20
-29.3072
 30
0.0
 10
4.2131
 20
-29.254
 30
0.0
 10
4.2585
 20
-29.207
 30
0.0
 10
4.3
 20
-29.1662
 30
0.0
 10
4.3
 20
-29.1662
 30
0.0
 10
4.3
 20
-29.1662
 30
0.0
 10
4.5994
 20
-28.865
 30
0.0
 10
4.5994
 20
-28.865
 30
0.0
 10
4.5994
 20
-28.865
 30
0.0
 10
4.5994
 20
-28.865
 30
0.0
 10
4.8918
 20
-28.9131
 30
0.0
 10
4.8918
 20
-28.9131
 30
0.0
 10
4.8918
 20
-28.9131
 30
0.0
 10
4.8918
 20
-28.9131
 30
0.0
 10
4.2809
 20
-29.5112
 30
0.0
 10
4.2809
 20
-29.5112
 30
0.0
 10
4.2809
 20
-29.5112
 30
0.0
 10
4.2809
 20
-29.5112
 30
0.0
 10
4.6924
 20
-30.3635
 30
0.0
 10
4.6924
 20
-30.3635
 30
0.0
 10
4.6924
 20
-30.3635
 30
0.0
 10
4.6924
 20
-30.3635
 30
0.0
 10
4.3921
 20
-30.3142
 30
0.0
 10
4.3921
 20
-30.3142
 30
0.0
 10
4.3921
 20
-30.3142
 30
0.0
 10
4.3921
 20
-30.3142
 30
0.0
 10
4.1692
 20
-29.8165
 30
0.0
 10
4.1692
 20
-29.8165
 30
0.0
 10
4.1692
 20
-29.8165
 30
0.0
 10
4.1692
 20
-29.8165
 30
0.0
 10
4.1103
 20
-29.6823
 30
0.0
 10
4.1103
 20
-29.6823
 30
0.0
 10
4.1103
 20
-29.6823
 30
0.0
 10
4.1103
 20
-29.6823
 30
0.0
 10
3.6372
 20
-30.1901
 30
0.0
 10
3.6372
 20
-30.1901
 30
0.0
 10
3.6372
 20
-30.1901
 30
0.0
 10
3.6372
 20
-30.1901
 30
0.0
 10
3.3406
 20
-30.1413
 30
0.0
 10
3.3406
 20
-30.1413
 30
0.0
  0
SPLINE
  5
142
330
1F
100
AcDbEntity
  8
AXIS
 62
   250
100
AcDbSpline
210
0.0
220
0.0
230
1.0
 70
    11
 71
     3
 72
   124
 73
   120
 74
     0
 42
0.0000000001
 43
0.0000000001
 40
0.0
 40
0.0
 40
0.0
 40
0.0
 40
0.032258064516129
 40
0.032258064516129
 40
0.032258064516129
 40
0.032258064516129
 40
0.0645161290322581
 40
0.0645161290322581
 40
0.0645161290322581
 40
0.0645161290322581
 40
0.0967741935483871
 40
0.0967741935483871
 40
0.0967741935483871
 40
0.0967741935483871
 40
0.1290322580645161
 40
0.1290322580645161
 40
0.1290322580645161
 40
0.1290322580645161
 40
0.1612903225806452
 40
0.1612903225806452
 40
0.1612903225806452
 40
0.1612903225806452
 40
0.1935483870967742
 40
0.1935483870967742
 40
0.1935483870967742
 40
0.1935483870967742
 40
0.2258064516129032
 40
0.2258064516129032
 40
0.2258064516129032
 40
0.2258064516129032
 40
0.2580645161290323
 40
0.2580645161290323
 40
0.2580645161290323
 40
0.2580645161290323
 40
0.2903225806451613
 40
0.2903225806451613
 40
0.2903225806451613
 40
0.2903225806451613
 40
0.3225806451612903
 40
0.3225806451612903
 40
0.3225806451612903
 40
0.3225806451612903
 40
0.3548387096774194
 40
0.3548387096774194
 40
0.3548387096774194
 40
0.3548387096774194
 40
0.3870967741935484
 40
0.3870967741935484
 40
0.3870967741935484
 40
0.3870967741935484
 40
0.4193548387096774
 40
0.4193548387096774
 40
0.4193548387096774
 40
0.4193548387096774
 40
0.4516129032258064
 40
0.4516129032258064
 40
0.4516129032258064
 40
0.4516129032258064
 40
0.4838709677419355
 40
0.4838709677419355
 40
0.4838709677419355
 40
0.4838709677419355
 40
0.5161290322580645
 40
0.5161290322580645
 40
0.5161290322580645
 40
0.5161290322580645
 40
0.5483870967741935
 40
0.5483870967741935
 40
0.5483870967741935
 40
0.5483870967741935
 40
0.5806451612903226
 40
0.5806451612903226
 40
0.5806451612903226
 40
0.5806451612903226
 40
0.6129032258064516
 40
0.6129032258064516
 40
0.6129032258064516
 40
0.6129032258064516
 40
0.6451612903225806
 40
0.6451612903225806
 40
0.6451612903225806
 40
0.6451612903225806
 40
0.6774193548387096
 40
0.6774193548387096
 40
0.6774193548387096
 40
0.6774193548387096
 40
0.7096774193548387
 40
0.7096774193548387
 40
0.7096774193548387
 40
0.7096774193548387
 40
0.7419354838709677
 40
0.7419354838709677
 40
0.7419354838709677
 40
0.7419354838709677
 40
0.7741935483870968
 40
0.7741935483870968
 40
0.7741935483870968
 40
0.7741935483870968
 40
0.8064516129032258
 40
0.8064516129032258
 40
0.8064516129032258
 40
0.8064516129032258
 40
0.8387096774193549
 40
0.8387096774193549
 40
0.8387096774193549
 40
0.8387096774193549
 40
0.8709677419354839
 40
0.8709677419354839
 40
0.8709677419354839
 40
0.8709677419354839
 40
0.9032258064516129
 40
0.9032258064516129
 40
0.9032258064516129
 40
0.9032258064516129
 40
0.9354838709677419
 40
0.9354838709677419
 40
0.9354838709677419
 40
0.9354838709677419
 40
1.0
 40
1.0
 40
1.0
 40
1.0
 10
5.6331
 20
-29.9042
 30
0.0
 10
5.6331
 20
-29.9042
 30
0.0
 10
5.8818
 20
-29.8772
 30
0.0
 10
5.8818
 20
-29.8772
 30
0.0
 10
5.8818
 20
-29.8772
 30
0.0
 10
5.9072
 20
-30.0184
 30
0.0
 10
5.9534
 20
-30.1206
 30
0.0
 10
6.0201
 20
-30.1843
 30
0.0
 10
6.0201
 20
-30.1843
 30
0.0
 10
6.0873
 20
-30.248
 30
0.0
 10
6.1698
 20
-30.281
 30
0.0
 10
6.2681
 20
-30.2833
 30
0.0
 10
6.2681
 20
-30.2833
 30
0.0
 10
6.3848
 20
-30.286
 30
0.0
 10
6.4845
 20
-30.2479
 30
0.0
 10
6.5668
 20
-30.1689
 30
0.0
 10
6.5668
 20
-30.1689
 30
0.0
 10
6.6486
 20
-30.0898
 30
0.0
 10
6.6914
 20
-29.9906
 30
0.0
 10
6.6942
 20
-29.8711
 30
0.0
 10
6.6942
 20
-29.8711
 30
0.0
 10
6.6969
 20
-29.7573
 30
0.0
 10
6.6619
 20
-29.6624
 30
0.0
 10
6.5894
 20
-29.5868
 30
0.0
 10
6.5894
 20
-29.5868
 30
0.0
 10
6.5163
 20
-29.5113
 30
0.0
 10
6.4226
 20
-29.4719
 30
0.0
 10
6.3079
 20
-29.4692
 30
0.0
 10
6.3079
 20
-29.4692
 30
0.0
 10
6.2608
 20
-29.4681
 30
0.0
 10
6.2023
 20
-29.4762
 30
0.0
 10
6.1323
 20
-29.4928
 30
0.0
 10
6.1323
 20
-29.4928
 30
0.0
 10
6.1323
 20
-29.4928
 30
0.0
 10
6.1651
 20
-29.2757
 30
0.0
 10
6.1651
 20
-29.2757
 30
0.0
 10
6.1651
 20
-29.2757
 30
0.0
 10
6.1815
 20
-29.278
 30
0.0
 10
6.1946
 20
-29.2792
 30
0.0
 10
6.2049
 20
-29.2794
 30
0.0
 10
6.2049
 20
-29.2794
 30
0.0
 10
6.3104
 20
-29.282
 30
0.0
 10
6.4059
 20
-29.2564
 30
0.0
 10
6.492
 20
-29.2033
 30
0.0
 10
6.492
 20
-29.2033
 30
0.0
 10
6.578
 20
-29.1503
 30
0.0
 10
6.6222
 20
-29.0661
 30
0.0
 10
6.6249
 20
-28.9515
 30
0.0
 10
6.6249
 20
-28.9515
 30
0.0
 10
6.627
 20
-28.8606
 30
0.0
 10
6.5977
 20
-28.7843
 30
0.0
 10
6.5375
 20
-28.7234
 30
0.0
 10
6.5375
 20
-28.7234
 30
0.0
 10
6.4773
 20
-28.6623
 30
0.0
 10
6.3985
 20
-28.6303
 30
0.0
 10
6.3011
 20
-28.628
 30
0.0
 10
6.3011
 20
-28.628
 30
0.0
 10
6.2047
 20
-28.6258
 30
0.0
 10
6.1236
 20
-28.6545
 30
0.0
 10
6.0582
 20
-28.7132
 30
0.0
 10
6.0582
 20
-28.7132
 30
0.0
 10
5.9923
 20
-28.7724
 30
0.0
 10
5.9488
 20
-28.8627
 30
0.0
 10
5.9276
 20
-28.9835
 30
0.0
 10
5.9276
 20
-28.9835
 30
0.0
 10
5.9276
 20
-28.9835
 30
0.0
 10
5.6809
 20
-28.9336
 30
0.0
 10
5.6809
 20
-28.9336
 30
0.0
 10
5.6809
 20
-28.9336
 30
0.0
 10
5.7149
 20
-28.7678
 30
0.0
 10
5.7869
 20
-28.6405
 30
0.0
 10
5.8964
 20
-28.5518
 30
0.0
 10
5.8964
 20
-28.5518
 30
0.0
 10
6.0062
 20
-28.463
 30
0.0
 10
6.1408
 20
-28.4201
 30
0.0
 10
6.3007
 20
-28.4238
 30
0.0
 10
6.3007
 20
-28.4238
 30
0.0
 10
6.4108
 20
-28.4264
 30
0.0
 10
6.5118
 20
-28.4527
 30
0.0
 10
6.6034
 20
-28.502
 30
0.0
 10
6.6034
 20
-28.502
 30
0.0
 10
6.6949
 20
-28.5516
 30
0.0
 10
6.7644
 20
-28.6178
 30
0.0
 10
6.812
 20
-28.7007
 30
0.0
 10
6.812
 20
-28.7007
 30
0.0
 10
6.8589
 20
-28.7837
 30
0.0
 10
6.8818
 20
-28.8708
 30
0.0
 10
6.8796
 20
-28.963
 30
0.0
 10
6.8796
 20
-28.963
 30
0.0
 10
6.8777
 20
-29.05
 30
0.0
 10
6.8522
 20
-29.1289
 30
0.0
 10
6.8036
 20
-29.1998
 30
0.0
 10
6.8036
 20
-29.1998
 30
0.0
 10
6.7548
 20
-29.2702
 30
0.0
 10
6.6844
 20
-29.3255
 30
0.0
 10
6.5917
 20
-29.3656
 30
0.0
 10
6.5917
 20
-29.3656
 30
0.0
 10
6.7104
 20
-29.3957
 30
0.0
 10
6.8018
 20
-29.4553
 30
0.0
 10
6.8661
 20
-29.5438
 30
0.0
 10
6.8661
 20
-29.5438
 30
0.0
 10
6.93
 20
-29.632
 30
0.0
 10
6.9603
 20
-29.7413
 30
0.0
 10
6.9573
 20
-29.8717
 30
0.0
 10
6.9573
 20
-29.8717
 30
0.0
 10
6.9531
 20
-30.0481
 30
0.0
 10
6.8857
 20
-30.1961
 30
0.0
 10
6.754
 20
-30.3158
 30
0.0
 10
6.754
 20
-30.3158
 30
0.0
 10
6.6226
 20
-30.4356
 30
0.0
 10
6.4586
 20
-30.4929
 30
0.0
 10
6.2619
 20
-30.4883
 30
0.0
 10
6.2619
 20
-30.4883
 30
0.0
 10
6.0846
 20
-30.4841
 30
0.0
 10
5.9385
 20
-30.4281
 30
0.0
 10
5.8239
 20
-30.3194
 30
0.0
 10
5.8239
 20
-30.3194
 30
0.0
 10
5.7093
 20
-30.2115
 30
0.0
 10
5.6457
 20
-30.073
 30
0.0
 10
5.6331
 20
-29.9042
 30
0.0
  0
SPLINE
  5
143
330
1F
100
AcDbEntity
  8
AXIS
 62
   250
100
AcDbSpline
210
0.0
220
0.0
230
1.0
 70
    11
 71
     3
 72
    52
 73
    48
 74
     0
 42
0.0000000001
 43
0.0000000001
 40
0.0
 40
0.0
 40
0.0
 40
0.0
 40
0.0769230769230769
 40
0.0769230769230769
 40
0.0769230769230769
 40
0.0769230769230769
 40
0.1538461538461539
 40
0.1538461538461539
 40
0.1538461538461539
 40
0.1538461538461539
 40
0.2307692307692308
 40
0.2307692307692308
 40
0.2307692307692308
 40
0.2307692307692308
 40
0.3076923076923077
 40
0.3076923076923077
 40
0.3076923076923077
 40
0.3076923076923077
 40
0.3846153846153846
 40
0.3846153846153846
 40
0.3846153846153846
 40
0.3846153846153846
 40
0.4615384615384616
 40
0.4615384615384616
 40
0.4615384615384616
 40
0.4615384615384616
 40
0.5384615384615384
 40
0.5384615384615384
 40
0.5384615384615384
 40
0.5384615384615384
 40
0.6153846153846154
 40
0.6153846153846154
 40
0.6153846153846154
 40
0.6153846153846154
 40
0.6923076923076923
 40
0.6923076923076923
 40
0.6923076923076923
 40
0.6923076923076923
 40
0.7692307692307693
 40
0.7692307692307693
 40
0.7692307692307693
 40
0.7692307692307693
 40
0.8461538461538461
 40
0.8461538461538461
 40
0.8461538461538461
 40
0.8461538461538461
 40
1.0
 40
1.0
 40
1.0
 40
1.0
 10
7.8247
 20
-29.4565
 30
0.0
 10
7.7887
 20
-29.2201
 30
0.0
 10
7.784
 20
-29.0263
 30
0.0
 10
7.8109
 20
-28.8752
 30
0.0
 10
7.8109
 20
-28.8752
 30
0.0
 10
7.8373
 20
-28.7236
 30
0.0
 10
7.8929
 20
-28.6014
 30
0.0
 10
7.9769
 20
-28.5086
 30
0.0
 10
7.9769
 20
-28.5086
 30
0.0
 10
8.0608
 20
-28.4158
 30
0.0
 10
8.1753
 20
-28.3585
 30
0.0
 10
8.3204
 20
-28.3364
 30
0.0
 10
8.3204
 20
-28.3364
 30
0.0
 10
8.4278
 20
-28.32
 30
0.0
 10
8.5251
 20
-28.3275
 30
0.0
 10
8.6126
 20
-28.3586
 30
0.0
 10
8.6126
 20
-28.3586
 30
0.0
 10
8.7001
 20
-28.3889
 30
0.0
 10
8.7762
 20
-28.4411
 30
0.0
 10
8.8415
 20
-28.5145
 30
0.0
 10
8.8415
 20
-28.5145
 30
0.0
 10
8.9065
 20
-28.5879
 30
0.0
 10
8.963
 20
-28.6807
 30
0.0
 10
9.0104
 20
-28.7928
 30
0.0
 10
9.0104
 20
-28.7928
 30
0.0
 10
9.0585
 20
-28.905
 30
0.0
 10
9.0973
 20
-29.0599
 30
0.0
 10
9.1275
 20
-29.2581
 30
0.0
 10
9.1275
 20
-29.2581
 30
0.0
 10
9.1632
 20
-29.4924
 30
0.0
 10
9.1678
 20
-29.6849
 30
0.0
 10
9.1418
 20
-29.8364
 30
0.0
 10
9.1418
 20
-29.8364
 30
0.0
 10
9.1154
 20
-29.988
 30
0.0
 10
9.0603
 20
-30.1101
 30
0.0
 10
8.9764
 20
-30.2033
 30
0.0
 10
8.9764
 20
-30.2033
 30
0.0
 10
8.8927
 20
-30.2965
 30
0.0
 10
8.7776
 20
-30.354
 30
0.0
 10
8.6311
 20
-30.3763
 30
0.0
 10
8.6311
 20
-30.3763
 30
0.0
 10
8.4385
 20
-30.4057
 30
0.0
 10
8.2769
 20
-30.3599
 30
0.0
 10
8.1461
 20
-30.2384
 30
0.0
 10
8.1461
 20
-30.2384
 30
0.0
 10
7.9892
 20
-30.0925
 30
0.0
 10
7.8818
 20
-29.8313
 30
0.0
 10
7.8247
 20
-29.4565
 30
0.0
  0
SPLINE
  5
144
330
1F
100
AcDbEntity
  8
AXIS
 62
   250
100
AcDbSpline
210
0.0
220
0.0
230
1.0
 70
    11
 71
     3
 72
    36
 73
    32
 74
     0
 42
0.0000000001
 43
0.0000000001
 40
0.0
 40
0.0
 40
0.0
 40
0.0
 40
0.1111111111111111
 40
0.1111111111111111
 40
0.1111111111111111
 40
0.1111111111111111
 40
0.2222222222222222
 40
0.2222222222222222
 40
0.2222222222222222
 40
0.2222222222222222
 40
0.3333333333333333
 40
0.3333333333333333
 40
0.3333333333333333
 40
0.3333333333333333
 40
0.4444444444444444
 40
0.4444444444444444
 40
0.4444444444444444
 40
0.4444444444444444
 40
0.5555555555555556
 40
0.5555555555555556
 40
0.5555555555555556
 40
0.5555555555555556
 40
0.6666666666666666
 40
0.6666666666666666
 40
0.6666666666666666
 40
0.6666666666666666
 40
0.7777777777777778
 40
0.7777777777777778
 40
0.7777777777777778
 40
0.7777777777777778
 40
1.0
 40
1.0
 40
1.0
 40
1.0
 10
8.0768
 20
-29.4181
 30
0.0
 10
8.1268
 20
-29.746
 30
0.0
 10
8.1986
 20
-29.9582
 30
0.0
 10
8.2919
 20
-30.0553
 30
0.0
 10
8.2919
 20
-30.0553
 30
0.0
 10
8.3852
 20
-30.1521
 30
0.0
 10
8.4879
 20
-30.1921
 30
0.0
 10
8.6005
 20
-30.1749
 30
0.0
 10
8.6005
 20
-30.1749
 30
0.0
 10
8.7135
 20
-30.1578
 30
0.0
 10
8.7995
 20
-30.0885
 30
0.0
 10
8.8596
 20
-29.9679
 30
0.0
 10
8.8596
 20
-29.9679
 30
0.0
 10
8.9199
 20
-29.8474
 30
0.0
 10
8.9252
 20
-29.6234
 30
0.0
 10
8.8754
 20
-29.2965
 30
0.0
 10
8.8754
 20
-29.2965
 30
0.0
 10
8.8253
 20
-28.9676
 30
0.0
 10
8.7533
 20
-28.7548
 30
0.0
 10
8.6602
 20
-28.6586
 30
0.0
 10
8.6602
 20
-28.6586
 30
0.0
 10
8.567
 20
-28.562
 30
0.0
 10
8.4634
 20
-28.5226
 30
0.0
 10
8.3491
 20
-28.5401
 30
0.0
 10
8.3491
 20
-28.5401
 30
0.0
 10
8.2361
 20
-28.5572
 30
0.0
 10
8.1535
 20
-28.6187
 30
0.0
 10
8.1006
 20
-28.7244
 30
0.0
 10
8.1006
 20
-28.7244
 30
0.0
 10
8.0349
 20
-28.8586
 30
0.0
 10
8.0269
 20
-29.0903
 30
0.0
 10
8.0768
 20
-29.4181
 30
0.0
  0
SPLINE
  5
145
330
1F
100
AcDbEntity
  8
AXIS
 62
   250
100
AcDbSpline
210
0.0
220
0.0
230
1.0
 70
    11
 71
     3
 72
    52
 73
    48
 74
     0
 42
0.0000000001
 43
0.0000000001
 40
0.0
 40
0.0
 40
0.0
 40
0.0
 40
0.0769230769230769
 40
0.0769230769230769
 40
0.0769230769230769
 40
0.0769230769230769
 40
0.1538461538461539
 40
0.1538461538461539
 40
0.1538461538461539
 40
0.1538461538461539
 40
0.2307692307692308
 40
0.2307692307692308
 40
0.2307692307692308
 40
0.2307692307692308
 40
0.3076923076923077
 40
0.3076923076923077
 40
0.3076923076923077
 40
0.3076923076923077
 40
0.3846153846153846
 40
0.3846153846153846
 40
0.3846153846153846
 40
0.3846153846153846
 40
0.4615384615384616
 40
0.4615384615384616
 40
0.4615384615384616
 40
0.4615384615384616
 40
0.5384615384615384
 40
0.5384615384615384
 40
0.5384615384615384
 40
0.5384615384615384
 40
0.6153846153846154
 40
0.6153846153846154
 40
0.6153846153846154
 40
0.6153846153846154
 40
0.6923076923076923
 40
0.6923076923076923
 40
0.6923076923076923
 40
0.6923076923076923
 40
0.7692307692307693
 40
0.7692307692307693
 40
0.7692307692307693
 40
0.7692307692307693
 40
0.8461538461538461
 40
0.8461538461538461
 40
0.8461538461538461
 40
0.8461538461538461
 40
1.0
 40
1.0
 40
1.0
 40
1.0
 10
9.2773
 20
-29.2455
 30
0.0
 10
9.2168
 20
-29.0142
 30
0.0
 10
9.1918
 20
-28.8218
 30
0.0
 10
9.2028
 20
-28.6687
 30
0.0
 10
9.2028
 20
-28.6687
 30
0.0
 10
9.2133
 20
-28.5152
 30
0.0
 10
9.2558
 20
-28.3879
 30
0.0
 10
9.3295
 20
-28.2868
 30
0.0
 10
9.3295
 20
-28.2868
 30
0.0
 10
9.4033
 20
-28.1859
 30
0.0
 10
9.5111
 20
-28.1168
 30
0.0
 10
9.6531
 20
-28.0796
 30
0.0
 10
9.6531
 20
-28.0796
 30
0.0
 10
9.7583
 20
-28.0521
 30
0.0
 10
9.8558
 20
-28.0495
 30
0.0
 10
9.946
 20
-28.0712
 30
0.0
 10
9.946
 20
-28.0712
 30
0.0
 10
10.0363
 20
-28.0922
 30
0.0
 10
10.1174
 20
-28.1363
 30
0.0
 10
10.1901
 20
-28.2023
 30
0.0
 10
10.1901
 20
-28.2023
 30
0.0
 10
10.2623
 20
-28.2684
 30
0.0
 10
10.3282
 20
-28.3549
 30
0.0
 10
10.3872
 20
-28.4614
 30
0.0
 10
10.3872
 20
-28.4614
 30
0.0
 10
10.4467
 20
-28.568
 30
0.0
 10
10.5014
 20
-28.7179
 30
0.0
 10
10.5522
 20
-28.9119
 30
0.0
 10
10.5522
 20
-28.9119
 30
0.0
 10
10.6122
 20
-29.1412
 30
0.0
 10
10.6369
 20
-29.3322
 30
0.0
 10
10.6269
 20
-29.4856
 30
0.0
 10
10.6269
 20
-29.4856
 30
0.0
 10
10.6165
 20
-29.6391
 30
0.0
 10
10.5744
 20
-29.7663
 30
0.0
 10
10.5008
 20
-29.8677
 30
0.0
 10
10.5008
 20
-29.8677
 30
0.0
 10
10.4271
 20
-29.9692
 30
0.0
 10
10.3188
 20
-30.0384
 30
0.0
 10
10.1754
 20
-30.0758
 30
0.0
 10
10.1754
 20
-30.0758
 30
0.0
 10
9.987
 20
-30.1252
 30
0.0
 10
9.8214
 20
-30.0966
 30
0.0
 10
9.6786
 20
-29.9895
 30
0.0
 10
9.6786
 20
-29.9895
 30
0.0
 10
9.5073
 20
-29.8607
 30
0.0
 10
9.3733
 20
-29.6123
 30
0.0
 10
9.2773
 20
-29.2455
 30
0.0
  0
SPLINE
  5
146
330
1F
100
AcDbEntity
  8
AXIS
 62
   250
100
AcDbSpline
210
0.0
220
0.0
230
1.0
 70
    11
 71
     3
 72
    36
 73
    32
 74
     0
 42
0.0000000001
 43
0.0000000001
 40
0.0
 40
0.0
 40
0.0
 40
0.0
 40
0.1111111111111111
 40
0.1111111111111111
 40
0.1111111111111111
 40
0.1111111111111111
 40
0.2222222222222222
 40
0.2222222222222222
 40
0.2222222222222222
 40
0.2222222222222222
 40
0.3333333333333333
 40
0.3333333333333333
 40
0.3333333333333333
 40
0.3333333333333333
 40
0.4444444444444444
 40
0.4444444444444444
 40
0.4444444444444444
 40
0.4444444444444444
 40
0.5555555555555556
 40
0.5555555555555556
 40
0.5555555555555556
 40
0.5555555555555556
 40
0.6666666666666666
 40
0.6666666666666666
 40
0.6666666666666666
 40
0.6666666666666666
 40
0.7777777777777778
 40
0.7777777777777778
 40
0.7777777777777778
 40
0.7777777777777778
 40
1.0
 40
1.0
 40
1.0
 40
1.0
 10
9.524
 20
-29.1809
 30
0.0
 10
9.608
 20
-29.5017
 30
0.0
 10
9.7016
 20
-29.7054
 30
0.0
 10
9.8046
 20
-29.7921
 30
0.0
 10
9.8046
 20
-29.7921
 30
0.0
 10
9.9073
 20
-29.8786
 30
0.0
 10
10.0137
 20
-29.9077
 30
0.0
 10
10.1238
 20
-29.8789
 30
0.0
 10
10.1238
 20
-29.8789
 30
0.0
 10
10.2344
 20
-29.85
 30
0.0
 10
10.3128
 20
-29.7721
 30
0.0
 10
10.36
 20
-29.6459
 30
0.0
 10
10.36
 20
-29.6459
 30
0.0
 10
10.4073
 20
-29.5197
 30
0.0
 10
10.3893
 20
-29.2963
 30
0.0
 10
10.3055
 20
-28.9764
 30
0.0
 10
10.3055
 20
-28.9764
 30
0.0
 10
10.2213
 20
-28.6546
 30
0.0
 10
10.1275
 20
-28.4506
 30
0.0
 10
10.0248
 20
-28.3646
 30
0.0
 10
10.0248
 20
-28.3646
 30
0.0
 10
9.9219
 20
-28.2783
 30
0.0
 10
9.8149
 20
-28.2499
 30
0.0
 10
9.703
 20
-28.2792
 30
0.0
 10
9.703
 20
-28.2792
 30
0.0
 10
9.5924
 20
-28.3081
 30
0.0
 10
9.5168
 20
-28.378
 30
0.0
 10
9.4751
 20
-28.4884
 30
0.0
 10
9.4751
 20
-28.4884
 30
0.0
 10
9.4239
 20
-28.6288
 30
0.0
 10
9.4401
 20
-28.86
 30
0.0
 10
9.524
 20
-29.1809
 30
0.0
  0
SPLINE
  5
147
330
1F
100
AcDbEntity
  8
AXIS
 62
   250
100
AcDbSpline
210
0.0
220
0.0
230
1.0
 70
    11
 71
     3
 72
    52
 73
    48
 74
     0
 42
0.0000000001
 43
0.0000000001
 40
0.0
 40
0.0
 40
0.0
 40
0.0
 40
0.0769230769230769
 40
0.0769230769230769
 40
0.0769230769230769
 40
0.0769230769230769
 40
0.1538461538461539
 40
0.1538461538461539
 40
0.1538461538461539
 40
0.1538461538461539
 40
0.2307692307692308
 40
0.2307692307692308
 40
0.2307692307692308
 40
0.2307692307692308
 40
0.3076923076923077
 40
0.3076923076923077
 40
0.3076923076923077
 40
0.3076923076923077
 40
0.3846153846153846
 40
0.3846153846153846
 40
0.3846153846153846
 40
0.3846153846153846
 40
0.4615384615384616
 40
0.4615384615384616
 40
0.4615384615384616
 40
0.4615384615384616
 40
0.5384615384615384
 40
0.5384615384615384
 40
0.5384615384615384
 40
0.5384615384615384
 40
0.6153846153846154
 40
0.6153846153846154
 40
0.6153846153846154
 40
0.6153846153846154
 40
0.6923076923076923
 40
0.6923076923076923
 40
0.6923076923076923
 40
0.6923076923076923
 40
0.7692307692307693
 40
0.7692307692307693
 40
0.7692307692307693
 40
0.7692307692307693
 40
0.8461538461538461
 40
0.8461538461538461
 40
0.8461538461538461
 40
0.8461538461538461
 40
1.0
 40
1.0
 40
1.0
 40
1.0
 10
10.6944
 20
-28.9069
 30
0.0
 10
10.6062
 20
-28.6848
 30
0.0
 10
10.5579
 20
-28.4969
 30
0.0
 10
10.5502
 20
-28.3436
 30
0.0
 10
10.5502
 20
-28.3436
 30
0.0
 10
10.5419
 20
-28.19
 30
0.0
 10
10.5686
 20
-28.0585
 30
0.0
 10
10.6295
 20
-27.9491
 30
0.0
 10
10.6295
 20
-27.9491
 30
0.0
 10
10.6903
 20
-27.84
 30
0.0
 10
10.789
 20
-27.7582
 30
0.0
 10
10.9254
 20
-27.7041
 30
0.0
 10
10.9254
 20
-27.7041
 30
0.0
 10
11.0264
 20
-27.664
 30
0.0
 10
11.1229
 20
-27.6494
 30
0.0
 10
11.2151
 20
-27.66
 30
0.0
 10
11.2151
 20
-27.66
 30
0.0
 10
11.3072
 20
-27.6698
 30
0.0
 10
11.393
 20
-27.7036
 30
0.0
 10
11.4733
 20
-27.7604
 30
0.0
 10
11.4733
 20
-27.7604
 30
0.0
 10
11.553
 20
-27.8172
 30
0.0
 10
11.6289
 20
-27.8949
 30
0.0
 10
11.7004
 20
-27.9936
 30
0.0
 10
11.7004
 20
-27.9936
 30
0.0
 10
11.7725
 20
-28.092
 30
0.0
 10
11.8452
 20
-28.2343
 30
0.0
 10
11.9192
 20
-28.4205
 30
0.0
 10
11.9192
 20
-28.4205
 30
0.0
 10
12.0066
 20
-28.6408
 30
0.0
 10
12.0544
 20
-28.8275
 30
0.0
 10
12.0632
 20
-28.9809
 30
0.0
 10
12.0632
 20
-28.9809
 30
0.0
 10
12.0716
 20
-29.1345
 30
0.0
 10
12.0453
 20
-29.2659
 30
0.0
 10
11.9846
 20
-29.3756
 30
0.0
 10
11.9846
 20
-29.3756
 30
0.0
 10
11.9239
 20
-29.4852
 30
0.0
 10
11.8247
 20
-29.5671
 30
0.0
 10
11.687
 20
-29.6218
 30
0.0
 10
11.687
 20
-29.6218
 30
0.0
 10
11.5061
 20
-29.6937
 30
0.0
 10
11.3382
 20
-29.6854
 30
0.0
 10
11.1834
 20
-29.5965
 30
0.0
 10
11.1834
 20
-29.5965
 30
0.0
 10
10.9978
 20
-29.4896
 30
0.0
 10
10.8344
 20
-29.2594
 30
0.0
 10
10.6944
 20
-28.9069
 30
0.0
  0
SPLINE
  5
148
330
1F
100
AcDbEntity
  8
AXIS
 62
   250
100
AcDbSpline
210
0.0
220
0.0
230
1.0
 70
    11
 71
     3
 72
    36
 73
    32
 74
     0
 42
0.0000000001
 43
0.0000000001
 40
0.0
 40
0.0
 40
0.0
 40
0.0
 40
0.1111111111111111
 40
0.1111111111111111
 40
0.1111111111111111
 40
0.1111111111111111
 40
0.2222222222222222
 40
0.2222222222222222
 40
0.2222222222222222
 40
0.2222222222222222
 40
0.3333333333333333
 40
0.3333333333333333
 40
0.3333333333333333
 40
0.3333333333333333
 40
0.4444444444444444
 40
0.4444444444444444
 40
0.4444444444444444
 40
0.4444444444444444
 40
0.5555555555555556
 40
0.5555555555555556
 40
0.5555555555555556
 40
0.5555555555555556
 40
0.6666666666666666
 40
0.6666666666666666
 40
0.6666666666666666
 40
0.6666666666666666
 40
0.7777777777777778
 40
0.7777777777777778
 40
0.7777777777777778
 40
0.7777777777777778
 40
1.0
 40
1.0
 40
1.0
 40
1.0
 10
10.9314
 20
-28.8129
 30
0.0
 10
11.0539
 20
-29.1211
 30
0.0
 10
11.1715
 20
-29.3118
 30
0.0
 10
11.2844
 20
-29.3854
 30
0.0
 10
11.2844
 20
-29.3854
 30
0.0
 10
11.3969
 20
-29.4586
 30
0.0
 10
11.506
 20
-29.4746
 30
0.0
 10
11.6119
 20
-29.4326
 30
0.0
 10
11.6119
 20
-29.4326
 30
0.0
 10
11.7181
 20
-29.3904
 30
0.0
 10
11.7864
 20
-29.3035
 30
0.0
 10
11.8179
 20
-29.1725
 30
0.0
 10
11.8179
 20
-29.1725
 30
0.0
 10
11.8494
 20
-29.0415
 30
0.0
 10
11.8043
 20
-28.822
 30
0.0
 10
11.6822
 20
-28.5147
 30
0.0
 10
11.6822
 20
-28.5147
 30
0.0
 10
11.5594
 20
-28.2055
 30
0.0
 10
11.4414
 20
-28.0144
 30
0.0
 10
11.329
 20
-27.9416
 30
0.0
 10
11.329
 20
-27.9416
 30
0.0
 10
11.2164
 20
-27.8684
 30
0.0
 10
11.1066
 20
-27.8533
 30
0.0
 10
10.9992
 20
-27.896
 30
0.0
 10
10.9992
 20
-27.896
 30
0.0
 10
10.8929
 20
-27.9382
 30
0.0
 10
10.8263
 20
-28.0167
 30
0.0
 10
10.7986
 20
-28.1315
 30
0.0
 10
10.7986
 20
-28.1315
 30
0.0
 10
10.7647
 20
-28.2771
 30
0.0
 10
10.8091
 20
-28.5045
 30
0.0
 10
10.9314
 20
-28.8129
 30
0.0
  0
SPLINE
  5
149
330
1F
100
AcDbEntity
  8
AXIS
 62
   250
100
AcDbSpline
210
0.0
220
0.0
230
1.0
 70
    11
 71
     3
 72
    20
 73
    16
 74
     0
 42
0.0000000001
 43
0.0000000001
 40
0.0
 40
0.0
 40
0.0
 40
0.0
 40
0.2
 40
0.2
 40
0.2
 40
0.2
 40
0.4
 40
0.4
 40
0.4
 40
0.4
 40
0.6
 40
0.6
 40
0.6
 40
0.6
 40
1.0
 40
1.0
 40
1.0
 40
1.0
 10
-13.4849
 20
-2.1097
 30
0.0
 10
-13.4849
 20
-2.1097
 30
0.0
 10
-13.9229
 20
-5.1096
 30
0.0
 10
-13.9229
 20
-5.1096
 30
0.0
 10
-13.9229
 20
-5.1096
 30
0.0
 10
-13.9229
 20
-5.1096
 30
0.0
 10
-12.956
 20
-5.1096
 30
0.0
 10
-12.956
 20
-5.1096
 30
0.0
 10
-12.956
 20
-5.1096
 30
0.0
 10
-12.956
 20
-5.1096
 30
0.0
 10
-13.4836
 20
-2.1097
 30
0.0
 10
-13.4836
 20
-2.1097
 30
0.0
 10
-13.4836
 20
-2.1097
 30
0.0
 10
-13.4836
 20
-2.1097
 30
0.0
 10
-13.4849
 20
-2.1097
 30
0.0
 10
-13.4849
 20
-2.1097
 30
0.0
  0
SPLINE
  5
14A
330
1F
100
AcDbEntity
  8
AXIS
 62
   250
100
AcDbSpline
210
0.0
220
0.0
230
1.0
 70
    24
 71
     3
 72
     8
 73
     4
 74
     0
 42
0.0000000001
 43
0.0000000001
 40
0.0
 40
0.0
 40
0.0
 40
0.0
 40
1.0
 40
1.0
 40
1.0
 40
1.0
 10
22.2343
 20
-8.2725
 30
0.0
 10
22.2343
 20
-8.2725
 30
0.0
 10
27.1493
 20
-8.2484
 30
0.0
 10
27.1493
 20
-8.2484
 30
0.0
  0
SPLINE
  5
14B
330
1F
100
AcDbEntity
  8
AXIS
 62
   250
100
AcDbSpline
210
0.0
220
0.0
230
1.0
 70
     8
 71
     3
 72
    16
 73
    12
 74
     0
 42
0.0000000001
 43
0.0000000001
 40
0.0
 40
0.0
 40
0.0
 40
0.0
 40
0.25
 40
0.25
 40
0.25
 40
0.25
 40
0.5
 40
0.5
 40
0.5
 40
0.5
 40
1.0
 40
1.0
 40
1.0
 40
1.0
 10
26.5908
 20
-9.9993
 30
0.0
 10
25.0016
 20
-22.1004
 30
0.0
 10
16.6715
 20
-31.3756
 30
0.0
 10
6.6873
 20
-31.3756
 30
0.0
 10
6.6873
 20
-31.3756
 30
0.0
 10
-4.4257
 20
-31.3756
 30
0.0
 10
-13.4895
 20
-19.8849
 30
0.0
 10
-13.4895
 20
-5.7965
 30
0.0
 10
-13.4895
 20
-5.7965
 30
0.0
 10
-13.4895
 20
-5.7965
 30
0.0
 10
-13.4624
 20
-3.4361
 30
0.0
 10
-13.4624
 20
-3.4361
 30
0.0
  0
SPLINE
  5
14C
330
1F
100
AcDbEntity
  8
AXIS
 62
   250
100
AcDbSpline
210
0.0
220
0.0
230
1.0
 70
    24
 71
     3
 72
     8
 73
     4
 74
     0
 42
0.0000000001
 43
0.0000000001
 40
0.0
 40
0.0
 40
0.0
 40
0.0
 40
1.0
 40
1.0
 40
1.0
 40
1.0
 10
28.1343
 20
6.6595
 30
0.0
 10
28.1343
 20
6.6595
 30
0.0
 10
28.1343
 20
-6.587
 30
0.0
 10
28.1343
 20
-6.587
 30
0.0
  0
SPLINE
  5
14D
330
1F
100
AcDbEntity
  8
AXIS
 62
   250
100
AcDbSpline
210
0.0
220
0.0
230
1.0
 70
    24
 71
     3
 72
     8
 73
     4
 74
     0
 42
0.0000000001
 43
0.0000000001
 40
0.0
 40
0.0
 40
0.0
 40
0.0
 40
1.0
 40
1.0
 40
1.0
 40
1.0
 10
27.4413
 20
7.04
 30
0.0
 10
27.4413
 20
7.04
 30
0.0
 10
27.4413
 20
-6.9598
 30
0.0
 10
27.4413
 20
-6.9598
 30
0.0
  0
SPLINE
  5
14E
330
1F
100
AcDbEntity
  8
AXIS
 62
   250
100
AcDbSpline
210
0.0
220
0.0
230
1.0
 70
     8
 71
     3
 72
    48
 73
    44
 74
     0
 42
0.0000000001
 43
0.0000000001
 40
0.0
 40
0.0
 40
0.0
 40
0.0
 40
0.0833333333333333
 40
0.0833333333333333
 40
0.0833333333333333
 40
0.0833333333333333
 40
0.1666666666666667
 40
0.1666666666666667
 40
0.1666666666666667
 40
0.1666666666666667
 40
0.25
 40
0.25
 40
0.25
 40
0.25
 40
0.3333333333333333
 40
0.3333333333333333
 40
0.3333333333333333
 40
0.3333333333333333
 40
0.4166666666666667
 40
0.4166666666666667
 40
0.4166666666666667
 40
0.4166666666666667
 40
0.5
 40
0.5
 40
0.5
 40
0.5
 40
0.5833333333333334
 40
0.5833333333333334
 40
0.5833333333333334
 40
0.5833333333333334
 40
0.6666666666666666
 40
0.6666666666666666
 40
0.6666666666666666
 40
0.6666666666666666
 40
0.75
 40
0.75
 40
0.75
 40
0.75
 40
0.8333333333333334
 40
0.8333333333333334
 40
0.8333333333333334
 40
0.8333333333333334
 40
1.0
 40
1.0
 40
1.0
 40
1.0
 10
27.4413
 20
7.04
 30
0.0
 10
27.4413
 20
7.04
 30
0.0
 10
27.7185
 20
7.04
 30
0.0
 10
27.7185
 20
7.04
 30
0.0
 10
27.7185
 20
7.04
 30
0.0
 10
27.7185
 20
7.04
 30
0.0
 10
27.8571
 20
7.04
 30
0.0
 10
27.8571
 20
7.04
 30
0.0
 10
27.8571
 20
7.04
 30
0.0
 10
28.0977
 20
7.04
 30
0.0
 10
28.3306
 20
7.046
 30
0.0
 10
28.5648
 20
6.9832
 30
0.0
 10
28.5648
 20
6.9832
 30
0.0
 10
29.1334
 20
6.8309
 30
0.0
 10
29.5886
 20
6.3756
 30
0.0
 10
29.7409
 20
5.8071
 30
0.0
 10
29.7409
 20
5.8071
 30
0.0
 10
29.8037
 20
5.573
 30
0.0
 10
29.7976
 20
5.34
 30
0.0
 10
29.7976
 20
5.0993
 30
0.0
 10
29.7976
 20
5.0993
 30
0.0
 10
29.7976
 20
5.0993
 30
0.0
 10
29.7976
 20
-5.0192
 30
0.0
 10
29.7976
 20
-5.0192
 30
0.0
 10
29.7976
 20
-5.0192
 30
0.0
 10
29.7976
 20
-5.2598
 30
0.0
 10
29.8037
 20
-5.4929
 30
0.0
 10
29.7409
 20
-5.7269
 30
0.0
 10
29.7409
 20
-5.7269
 30
0.0
 10
29.5886
 20
-6.2955
 30
0.0
 10
29.1334
 20
-6.7507
 30
0.0
 10
28.5648
 20
-6.9031
 30
0.0
 10
28.5648
 20
-6.9031
 30
0.0
 10
28.3306
 20
-6.9658
 30
0.0
 10
28.0977
 20
-6.9598
 30
0.0
 10
27.8571
 20
-6.9598
 30
0.0
 10
27.8571
 20
-6.9598
 30
0.0
 10
27.8571
 20
-6.9598
 30
0.0
 10
27.7185
 20
-6.9598
 30
0.0
 10
27.7185
 20
-6.9598
 30
0.0
 10
27.7185
 20
-6.9598
 30
0.0
 10
27.7185
 20
-6.9598
 30
0.0
 10
27.4413
 20
-6.9598
 30
0.0
 10
27.4413
 20
-6.9598
 30
0.0
  0
SPLINE
  5
14F
330
1F
100
AcDbEntity
  8
AXIS
 62
   250
100
AcDbSpline
210
0.0
220
0.0
230
1.0
 70
    24
 71
     3
 72
     8
 73
     4
 74
     0
 42
0.0000000001
 43
0.0000000001
 40
0.0
 40
0.0
 40
0.0
 40
0.0
 40
1.0
 40
1.0
 40
1.0
 40
1.0
 10
27.4412
 20
-4.2569
 30
0.0
 10
27.4412
 20
-4.2569
 30
0.0
 10
27.4412
 20
1.4213
 30
0.0
 10
27.4412
 20
1.4213
 30
0.0
  0
SPLINE
  5
150
330
1F
100
AcDbEntity
  8
AXIS
 62
   250
100
AcDbSpline
210
0.0
220
0.0
230
1.0
 70
    24
 71
     3
 72
     8
 73
     4
 74
     0
 42
0.0000000001
 43
0.0000000001
 40
0.0
 40
0.0
 40
0.0
 40
0.0
 40
1.0
 40
1.0
 40
1.0
 40
1.0
 10
27.4412
 20
1.9405
 30
0.0
 10
27.4412
 20
1.9405
 30
0.0
 10
27.4412
 20
4.337
 30
0.0
 10
27.4412
 20
4.337
 30
0.0
  0
SPLINE
  5
151
330
1F
100
AcDbEntity
  8
AXIS
 62
   250
100
AcDbSpline
210
0.0
220
0.0
230
1.0
 70
    24
 71
     3
 72
     8
 73
     4
 74
     0
 42
0.0000000001
 43
0.0000000001
 40
0.0
 40
0.0
 40
0.0
 40
0.0
 40
1.0
 40
1.0
 40
1.0
 40
1.0
 10
31.7381
 20
2.1192
 30
0.0
 10
31.7381
 20
2.1192
 30
0.0
 10
31.7381
 20
-2.0391
 30
0.0
 10
31.7381
 20
-2.0391
 30
0.0
  0
SPLINE
  5
152
330
1F
100
AcDbEntity
  8
AXIS
 62
   250
100
AcDbSpline
210
0.0
220
0.0
230
1.0
 70
    24
 71
     3
 72
     8
 73
     4
 74
     0
 42
0.0000000001
 43
0.0000000001
 40
0.0
 40
0.0
 40
0.0
 40
0.0
 40
1.0
 40
1.0
 40
1.0
 40
1.0
 10
29.7976
 20
-2.0391
 30
0.0
 10
29.7976
 20
-2.0391
 30
0.0
 10
31.7381
 20
-2.0391
 30
0.0
 10
31.7381
 20
-2.0391
 30
0.0
  0
SPLINE
  5
153
330
1F
100
AcDbEntity
  8
AXIS
 62
   250
100
AcDbSpline
210
0.0
220
0.0
230
1.0
 70
    24
 71
     3
 72
     8
 73
     4
 74
     0
 42
0.0000000001
 43
0.0000000001
 40
0.0
 40
0.0
 40
0.0
 40
0.0
 40
1.0
 40
1.0
 40
1.0
 40
1.0
 10
29.7976
 20
2.1192
 30
0.0
 10
29.7976
 20
2.1192
 30
0.0
 10
31.7381
 20
2.1192
 30
0.0
 10
31.7381
 20
2.1192
 30
0.0
  0
SPLINE
  5
154
330
1F
100
AcDbEntity
  8
AXIS
 62
   250
100
AcDbSpline
210
0.0
220
0.0
230
1.0
 70
    24
 71
     3
 72
     8
 73
     4
 74
     0
 42
0.0000000001
 43
0.0000000001
 40
0.0
 40
0.0
 40
0.0
 40
0.0
 40
1.0
 40
1.0
 40
1.0
 40
1.0
 10
37.9243
 20
7.0063
 30
0.0
 10
37.9243
 20
7.0063
 30
0.0
 10
41.2625
 20
7.0165
 30
0.0
 10
41.2625
 20
7.0165
 30
0.0
  0
ENDSEC
  0
SECTION
  2
OBJECTS
  0
DICTIONARY
  5
C
330
0
100
AcDbDictionary
  3
ACAD_GROUP
350
D
  3
ACAD_LAYOUT
350
1A
  3
ACAD_MATERIAL
350
3B
  3
ACAD_MLEADERSTYLE
350
177
  3
ACAD_MLINESTYLE
350
17
  3
ACAD_PLOTSETTINGS
350
19
  3
ACAD_VISUALSTYLE
350
2A
  3
ACDBHEADERROUNDTRIPXREC
350
155
  3
ACDBVARIABLEDICTIONARY
350
175
  0
DICTIONARY
  5
D
102
{ACAD_REACTORS
330
C
102
}
330
C
100
AcDbDictionary
  0
DICTIONARY
  5
1A
102
{ACAD_REACTORS
330
C
102
}
330
C
100
AcDbDictionary
  0
DICTIONARY
  5
3B
102
{ACAD_REACTORS
330
C
102
}
330
C
100
AcDbDictionary
  3
BYBLOCK
350
3D
  3
BYLAYER
350
3C
  3
GLOBAL
350
3E
  0
DICTIONARY
  5
177
102
{ACAD_REACTORS
330
C
102
}
330
C
100
AcDbDictionary
  0
DICTIONARY
  5
17
102
{ACAD_REACTORS
330
C
102
}
330
C
100
AcDbDictionary
  3
STANDARD
350
18
  0
DICTIONARY
  5
19
102
{ACAD_REACTORS
330
C
102
}
330
C
100
AcDbDictionary
  0
DICTIONARY
  5
2A
102
{ACAD_REACTORS
330
C
102
}
330
C
100
AcDbDictionary
  3
2DWIREFRAME
350
2F
  3
3D_HIDDEN
350
31
  3
3DWIREFRAME
350
30
  3
BASIC
350
32
  3
BRIGHTEN
350
36
  3
COLORCHANGE
350
3A
  3
CONCEPTUAL
350
34
  3
DIM
350
35
  3
FACEPATTERN
350
39
  3
FLAT
350
2B
  3
FLATWITHEDGES
350
2C
  3
GOURAUD
350
2D
  3
GOURAUDWITHEDGES
350
2E
  3
LINEPATTERN
350
38
  3
REALISTIC
350
33
  3
THICKEN
350
37
  0
DICTIONARY
  5
155
102
{ACAD_REACTORS
330
C
102
}
330
C
100
AcDbDictionary
  3
CEPSNTYPE
350
15E
  3
DIMSTYLEDATA
350
174
  3
FINGERPRINTGUID
350
15F
  3
HYPERLINKBASE
350
158
  3
INSUNITS
350
15D
  3
LAYOUTDICT
350
15A
  3
LWETCUNION
350
15C
  3
PLOTSETDICT
350
15B
  3
PSVPSCALE
350
161
  3
PUCSBASE
350
164
  3
PUCSORGBACK
350
16A
  3
PUCSORGBOTTOM
350
166
  3
PUCSORGFRONT
350
169
  3
PUCSORGLEFT
350
167
  3
PUCSORGRIGHT
350
168
  3
PUCSORGTOP
350
165
  3
PUCSORTHOREF
350
162
  3
PUCSORTHOVIEW
350
163
  3
STYLESHEET
350
159
  3
TSTACKALIGN
350
156
  3
TSTACKSIZE
350
157
  3
UCSBASE
350
16D
  3
UCSORGBACK
350
173
  3
UCSORGBOTTOM
350
16F
  3
UCSORGFRONT
350
172
  3
UCSORGLEFT
350
170
  3
UCSORGRIGHT
350
171
  3
UCSORGTOP
350
16E
  3
UCSORTHOREF
350
16B
  3
UCSORTHOVIEW
350
16C
  3
VERSIONGUID
350
160
  0
DICTIONARY
  5
175
102
{ACAD_REACTORS
330
C
102
}
330
C
100
AcDbDictionary
  3
DIMASSOC
350
178
  3
HIDETEXT
350
179
  0
MATERIAL
  5
3D
102
{ACAD_REACTORS
330
3B
102
}
102
{ACAD_XDICTIONARY
360
17C
102
}
330
3B
100
AcDbMaterial
  1
ByBlock
  0
MATERIAL
  5
3C
102
{ACAD_REACTORS
330
3B
102
}
102
{ACAD_XDICTIONARY
360
17A
102
}
330
3B
100
AcDbMaterial
  1
ByLayer
  0
MATERIAL
  5
3E
102
{ACAD_REACTORS
330
3B
102
}
102
{ACAD_XDICTIONARY
360
17E
102
}
330
3B
100
AcDbMaterial
  1
Global
  0
MLINESTYLE
  5
18
102
{ACAD_REACTORS
330
17
102
}
330
17
100
AcDbMlineStyle
  2
Standard
 70
     0
  3

 62
   256
 51
90.0
 52
90.0
 71
     2
 49
0.5
 62
   256
  6
BYLAYER
 49
-0.5
 62
   256
  6
BYLAYER
  0
ACAD_PROXY_OBJECT
  5
2F
102
{ACAD_REACTORS
330
2A
102
}
330
2A
100
AcDbProxyObject
 90
      499
 91
      501
 93
      436
310
42CC9915DA5C99599C985B595049028333333333333E3BF0000000000000FB0107901411070040501600405405064090741402480A0340
1001
ACAD
1000
AcDbSavedByObjectVersion
1070
     0
  0
ACAD_PROXY_OBJECT
  5
31
102
{ACAD_REACTORS
330
2A
102
}
330
2A
100
AcDbProxyObject
 90
      499
 91
      501
 93
      500
310
424CD108121A5919195B90640502408333333333333E3BF0000000000000FB01079024090700405020000000000001110200405405064090740C02480A0340
1001
ACAD
1000
AcDbSavedByObjectVersion
1070
     0
  0
ACAD_PROXY_OBJECT
  5
30
102
{ACAD_REACTORS
330
2A
102
}
330
2A
100
AcDbProxyObject
 90
      499
 91
      501
 93
      436
310
42CCD915DA5C99599C985B595059028333333333333E3BF0000000000000FB0107901411070040501600405405064090741402480A0340
1001
ACAD
1000
AcDbSavedByObjectVersion
1070
     0
  0
ACAD_PROXY_OBJECT
  5
32
102
{ACAD_REACTORS
330
2A
102
}
330
2A
100
AcDbProxyObject
 90
      499
 91
      501
 93
      388
310
4150985CDA58D07406404333333333333E3BF0000000000000FB0107A41107004050150841D405064090741402480A0350
1001
ACAD
1000
AcDbSavedByObjectVersion
1070
     0
  0
ACAD_PROXY_OBJECT
  5
36
102
{ACAD_REACTORS
330
2A
102
}
330
2A
100
AcDbProxyObject
 90
      499
 91
      501
 93
      428
310
42109C9A59DA1D195B90C409028333333333333E3BF0000000000000FB010790141107004050150841D405064090741402480A029950
1001
ACAD
1000
AcDbSavedByObjectVersion
1070
     0
  0
ACAD_PROXY_OBJECT
  5
3A
102
{ACAD_REACTORS
330
2A
102
}
330
2A
100
AcDbProxyObject
 90
      499
 91
      501
 93
      452
310
42D0DBDB1BDC90DA185B99D95104090240C333333333333E3BF0000000000000FB0108901411070040501508421405064090741402480A0350
1001
ACAD
1000
AcDbSavedByObjectVersion
1070
     0
  0
ACAD_PROXY_OBJECT
  5
34
102
{ACAD_REACTORS
330
2A
102
}
330
2A
100
AcDbProxyObject
 90
      499
 91
      501
 93
      500
310
4290DBDB98D95C1D1D585B10940D028333333333333E3BF0000000000000FB0107902409070040501000000000000111010841D405064090740C02480A0340
1001
ACAD
1000
AcDbSavedByObjectVersion
1070
     0
  0
ACAD_PROXY_OBJECT
  5
35
102
{ACAD_REACTORS
330
2A
102
}
330
2A
100
AcDbProxyObject
 90
      499
 91
      501
 93
      412
310
40D11A5B50B409028333333333333E3BF0000000000000FB010790141107004050150841D405064090741402480A02677FFFFFD0
1001
ACAD
1000
AcDbSavedByObjectVersion
1070
     0
  0
ACAD_PROXY_OBJECT
  5
39
102
{ACAD_REACTORS
330
2A
102
}
330
2A
100
AcDbProxyObject
 90
      499
 91
      501
 93
      444
310
42D19858D95C185D1D195C9B90F409028333333333333E3BF0000000000000FB010790141107004050150841D405064090741402480A0350
1001
ACAD
1000
AcDbSavedByObjectVersion
1070
     0
  0
ACAD_PROXY_OBJECT
  5
2B
102
{ACAD_REACTORS
330
2A
102
}
330
2A
100
AcDbProxyObject
 90
      499
 91
      501
 93
      388
310
41119B185D240901404333333333333E3BF0000000000000F9010740A41107004050150841D405064090741402480A1B50
1001
ACAD
1000
AcDbSavedByObjectVersion
1070
     0
  0
ACAD_PROXY_OBJECT
  5
2C
102
{ACAD_REACTORS
330
2A
102
}
330
2A
100
AcDbProxyObject
 90
      499
 91
      501
 93
      476
310
43519B185D15DA5D1A115919D95CD0140901404333333333333E3BF0000000000000F9010740901411070040501600405405064090741402480A1B50
1001
ACAD
1000
AcDbSavedByObjectVersion
1070
     0
  0
ACAD_PROXY_OBJECT
  5
2D
102
{ACAD_REACTORS
330
2A
102
}
330
2A
100
AcDbProxyObject
 90
      499
 91
      501
 93
      412
310
41D1DBDD5C985D5910240902404333333333333E3BF0000000000000F9010740A411070040501641D405064090741402480A1B50
1001
ACAD
1000
AcDbSavedByObjectVersion
1070
     0
  0
ACAD_PROXY_OBJECT
  5
2E
102
{ACAD_REACTORS
330
2A
102
}
330
2A
100
AcDbProxyObject
 90
      499
 91
      501
 93
      500
310
4411DBDD5C985D5915DA5D1A115919D95CD0340902404333333333333E3BF0000000000000F9010740901411070040501600405405064090741402480A1B50
1001
ACAD
1000
AcDbSavedByObjectVersion
1070
     0
  0
ACAD_PROXY_OBJECT
  5
38
102
{ACAD_REACTORS
330
2A
102
}
330
2A
100
AcDbProxyObject
 90
      499
 91
      501
 93
      444
310
42D31A5B995C185D1D195C9B90E409028333333333333E3BF0000000000000FB010790141107004050750841D405064090741402483A0350
1001
ACAD
1000
AcDbSavedByObjectVersion
1070
     0
  0
ACAD_PROXY_OBJECT
  5
33
102
{ACAD_REACTORS
330
2A
102
}
330
2A
100
AcDbProxyObject
 90
      499
 91
      501
 93
      420
310
425499585B1A5CDD1A58D08409028333333333333E3BF0000000000000FB01079019070040501508421405064090741402480A1B40
1001
ACAD
1000
AcDbSavedByObjectVersion
1070
     0
  0
ACAD_PROXY_OBJECT
  5
37
102
{ACAD_REACTORS
330
2A
102
}
330
2A
100
AcDbProxyObject
 90
      499
 91
      501
 93
      412
310
41D51A1A58DAD95B90D409028333333333333E3BF0000000000000FB010790141107004050150C41D405064090741402480A0350
1001
ACAD
1000
AcDbSavedByObjectVersion
1070
     0
  0
XRECORD
  5
15E
102
{ACAD_REACTORS
330
155
102
}
330
155
100
AcDbXrecord
 90
        0
  0
XRECORD
  5
174
102
{ACAD_REACTORS
330
155
102
}
330
155
100
AcDbXrecord
1000
DSTYLE
1002
{
1070
   340
340
11
1002
}
  0
XRECORD
  5
15F
102
{ACAD_REACTORS
330
155
102
}
330
155
100
AcDbXrecord
  1
{76EBB9CE-F100-472F-BACC-561E15A2DDC9}
  0
XRECORD
  5
158
102
{ACAD_REACTORS
330
155
102
}
330
155
100
AcDbXrecord
  1

  0
XRECORD
  5
15D
102
{ACAD_REACTORS
330
155
102
}
330
155
100
AcDbXrecord
 90
        4
  0
XRECORD
  5
15A
102
{ACAD_REACTORS
330
155
102
}
330
155
100
AcDbXrecord
340
1A
  0
XRECORD
  5
15C
102
{ACAD_REACTORS
330
155
102
}
330
155
100
AcDbXrecord
 90
    10781
  0
XRECORD
  5
15B
102
{ACAD_REACTORS
330
155
102
}
330
155
100
AcDbXrecord
340
19
  0
XRECORD
  5
161
102
{ACAD_REACTORS
330
155
102
}
330
155
100
AcDbXrecord
 40
0.0
  0
XRECORD
  5
164
102
{ACAD_REACTORS
330
155
102
}
330
155
100
AcDbXrecord
340
0
  0
XRECORD
  5
16A
102
{ACAD_REACTORS
330
155
102
}
330
155
100
AcDbXrecord
 10
0.0
 20
0.0
 30
0.0
  0
XRECORD
  5
166
102
{ACAD_REACTORS
330
155
102
}
330
155
100
AcDbXrecord
 10
0.0
 20
0.0
 30
0.0
  0
XRECORD
  5
169
102
{ACAD_REACTORS
330
155
102
}
330
155
100
AcDbXrecord
 10
0.0
 20
0.0
 30
0.0
  0
XRECORD
  5
167
102
{ACAD_REACTORS
330
155
102
}
330
155
100
AcDbXrecord
 10
0.0
 20
0.0
 30
0.0
  0
XRECORD
  5
168
102
{ACAD_REACTORS
330
155
102
}
330
155
100
AcDbXrecord
 10
0.0
 20
0.0
 30
0.0
  0
XRECORD
  5
165
102
{ACAD_REACTORS
330
155
102
}
330
155
100
AcDbXrecord
 10
0.0
 20
0.0
 30
0.0
  0
XRECORD
  5
162
102
{ACAD_REACTORS
330
155
102
}
330
155
100
AcDbXrecord
340
0
  0
XRECORD
  5
163
102
{ACAD_REACTORS
330
155
102
}
330
155
100
AcDbXrecord
 70
     0
  0
XRECORD
  5
159
102
{ACAD_REACTORS
330
155
102
}
330
155
100
AcDbXrecord
  1

  0
XRECORD
  5
156
102
{ACAD_REACTORS
330
155
102
}
330
155
100
AcDbXrecord
 90
        1
  0
XRECORD
  5
157
102
{ACAD_REACTORS
330
155
102
}
330
155
100
AcDbXrecord
 90
       70
  0
XRECORD
  5
16D
102
{ACAD_REACTORS
330
155
102
}
330
155
100
AcDbXrecord
340
0
  0
XRECORD
  5
173
102
{ACAD_REACTORS
330
155
102
}
330
155
100
AcDbXrecord
 10
0.0
 20
0.0
 30
0.0
  0
XRECORD
  5
16F
102
{ACAD_REACTORS
330
155
102
}
330
155
100
AcDbXrecord
 10
0.0
 20
0.0
 30
0.0
  0
XRECORD
  5
172
102
{ACAD_REACTORS
330
155
102
}
330
155
100
AcDbXrecord
 10
0.0
 20
0.0
 30
0.0
  0
XRECORD
  5
170
102
{ACAD_REACTORS
330
155
102
}
330
155
100
AcDbXrecord
 10
0.0
 20
0.0
 30
0.0
  0
XRECORD
  5
171
102
{ACAD_REACTORS
330
155
102
}
330
155
100
AcDbXrecord
 10
0.0
 20
0.0
 30
0.0
  0
XRECORD
  5
16E
102
{ACAD_REACTORS
330
155
102
}
330
155
100
AcDbXrecord
 10
0.0
 20
0.0
 30
0.0
  0
XRECORD
  5
16B
102
{ACAD_REACTORS
330
155
102
}
330
155
100
AcDbXrecord
340
0
  0
XRECORD
  5
16C
102
{ACAD_REACTORS
330
155
102
}
330
155
100
AcDbXrecord
 70
     0
  0
XRECORD
  5
160
102
{ACAD_REACTORS
330
155
102
}
330
155
100
AcDbXrecord
  1
{FAEB1C32-E019-11D5-929B-00C0DF256EC4}
  0
DICTIONARYVAR
  5
178
102
{ACAD_REACTORS
330
175
102
}
330
175
100
DictionaryVariables
280
     0
  1
2
  0
DICTIONARYVAR
  5
179
102
{ACAD_REACTORS
330
175
102
}
330
175
100
DictionaryVariables
280
     0
  1
1
  0
DICTIONARY
  5
17C
330
3D
100
AcDbDictionary
280
     1
  3
ACAD_XREC_ROUNDTRIP
360
17D
  0
DICTIONARY
  5
17A
330
3C
100
AcDbDictionary
280
     1
  3
ACAD_XREC_ROUNDTRIP
360
17B
  0
DICTIONARY
  5
17E
330
3E
100
AcDbDictionary
280
     1
  3
ACAD_XREC_ROUNDTRIP
360
17F
  0
XRECORD
  5
17D
102
{ACAD_REACTORS
330
17C
102
}
330
17C
100
AcDbXrecord
102
MATERIAL
148
0.0
149
0.0
149
0.0
 93
        0
 94
      127
282
     0
 72
     1
 77
     1
171
     1
175
     1
179
     1
273
     0
  0
XRECORD
  5
17B
102
{ACAD_REACTORS
330
17A
102
}
330
17A
100
AcDbXrecord
102
MATERIAL
148
0.0
149
0.0
149
0.0
 93
        0
 94
      127
282
     0
 72
     1
 77
     1
171
     1
175
     1
179
     1
273
     0
  0
XRECORD
  5
17F
102
{ACAD_REACTORS
330
17E
102
}
330
17E
100
AcDbXrecord
102
MATERIAL
148
0.0
149
0.0
149
0.0
 93
        0
 94
      127
282
     0
 72
     1
 77
     1
171
     1
175
     1
179
     1
273
     0
  0
ENDSEC
  0
EOF
