  0
SECTION
  2
HEADER
  9
$ACADVER
  1
AC1014
  9
$ACADMAINTVER
 70
     9
  9
$DWGCODEPAGE
  3
ANSI_1250
  9
$INSBASE
 10
0.0
 20
0.0
 30
0.0
  9
$EXTMIN
 10
-36.5057
 20
-36.4045
 30
0.0
  9
$EXTMAX
 10
35.6919
 20
36.2638
 30
0.0
  9
$LIMMIN
 10
0.0
 20
0.0
  9
$LIMMAX
 10
12.0
 20
9.0
  9
$ORTHOMODE
 70
     0
  9
$REGENMODE
 70
     1
  9
$FILLMODE
 70
     1
  9
$QTEXTMODE
 70
     0
  9
$MIRRTEXT
 70
     1
  9
$DRAGMODE
 70
     2
  9
$LTSCALE
 40
1.0
  9
$OSMODE
 70
    37
  9
$ATTMODE
 70
     1
  9
$TEXTSIZE
 40
0.2
  9
$TRACEWID
 40
0.05
  9
$TEXTSTYLE
  7
STANDARD
  9
$CLAYER
  8
0
  9
$CELTYPE
  6
BYLAYER
  9
$CECOLOR
 62
   256
  9
$CELTSCALE
 40
1.0
  9
$DELOBJ
 70
     1
  9
$DISPSILH
 70
     0
  9
$DIMSCALE
 40
1.0
  9
$DIMASZ
 40
0.18
  9
$DIMEXO
 40
0.0625
  9
$DIMDLI
 40
0.38
  9
$DIMRND
 40
0.0
  9
$DIMDLE
 40
0.0
  9
$DIMEXE
 40
0.18
  9
$DIMTP
 40
0.0
  9
$DIMTM
 40
0.0
  9
$DIMTXT
 40
0.18
  9
$DIMCEN
 40
0.09
  9
$DIMTSZ
 40
0.0
  9
$DIMTOL
 70
     0
  9
$DIMLIM
 70
     0
  9
$DIMTIH
 70
     1
  9
$DIMTOH
 70
     1
  9
$DIMSE1
 70
     0
  9
$DIMSE2
 70
     0
  9
$DIMTAD
 70
     0
  9
$DIMZIN
 70
     0
  9
$DIMBLK
  1

  9
$DIMASO
 70
     1
  9
$DIMSHO
 70
     1
  9
$DIMPOST
  1

  9
$DIMAPOST
  1

  9
$DIMALT
 70
     0
  9
$DIMALTD
 70
     2
  9
$DIMALTF
 40
25.4
  9
$DIMLFAC
 40
1.0
  9
$DIMTOFL
 70
     0
  9
$DIMTVP
 40
0.0
  9
$DIMTIX
 70
     0
  9
$DIMSOXD
 70
     0
  9
$DIMSAH
 70
     0
  9
$DIMBLK1
  1

  9
$DIMBLK2
  1

  9
$DIMSTYLE
  2
STANDARD
  9
$DIMCLRD
 70
     0
  9
$DIMCLRE
 70
     0
  9
$DIMCLRT
 70
     0
  9
$DIMTFAC
 40
1.0
  9
$DIMGAP
 40
0.09
  9
$DIMJUST
 70
     0
  9
$DIMSD1
 70
     0
  9
$DIMSD2
 70
     0
  9
$DIMTOLJ
 70
     1
  9
$DIMTZIN
 70
     0
  9
$DIMALTZ
 70
     0
  9
$DIMALTTZ
 70
     0
  9
$DIMFIT
 70
     3
  9
$DIMUPT
 70
     0
  9
$DIMUNIT
 70
     2
  9
$DIMDEC
 70
     4
  9
$DIMTDEC
 70
     4
  9
$DIMALTU
 70
     2
  9
$DIMALTTD
 70
     2
  9
$DIMTXSTY
  7
STANDARD
  9
$DIMAUNIT
 70
     0
  9
$LUNITS
 70
     2
  9
$LUPREC
 70
     4
  9
$SKETCHINC
 40
0.1
  9
$FILLETRAD
 40
0.5
  9
$AUNITS
 70
     0
  9
$AUPREC
 70
     0
  9
$MENU
  1
.
  9
$ELEVATION
 40
0.0
  9
$PELEVATION
 40
0.0
  9
$THICKNESS
 40
0.0
  9
$LIMCHECK
 70
     0
  9
$CHAMFERA
 40
0.5
  9
$CHAMFERB
 40
0.5
  9
$CHAMFERC
 40
1.0
  9
$CHAMFERD
 40
0.0
  9
$SKPOLY
 70
     0
  9
$TDCREATE
 40
2456220.561204294
  9
$TDUPDATE
 40
2456220.561204305
  9
$TDINDWG
 40
0.0000000116
  9
$TDUSRTIMER
 40
0.0000000116
  9
$USRTIMER
 70
     1
  9
$ANGBASE
 50
0.0
  9
$ANGDIR
 70
     0
  9
$PDMODE
 70
     0
  9
$PDSIZE
 40
0.0
  9
$PLINEWID
 40
0.0
  9
$COORDS
 70
     1
  9
$SPLFRAME
 70
     0
  9
$SPLINETYPE
 70
     6
  9
$SPLINESEGS
 70
     8
  9
$ATTDIA
 70
     0
  9
$ATTREQ
 70
     1
  9
$HANDLING
 70
     1
  9
$HANDSEED
  5
C9
  9
$SURFTAB1
 70
     6
  9
$SURFTAB2
 70
     6
  9
$SURFTYPE
 70
     6
  9
$SURFU
 70
     6
  9
$SURFV
 70
     6
  9
$UCSNAME
  2

  9
$UCSORG
 10
0.0
 20
0.0
 30
0.0
  9
$UCSXDIR
 10
1.0
 20
0.0
 30
0.0
  9
$UCSYDIR
 10
0.0
 20
1.0
 30
0.0
  9
$PUCSNAME
  2

  9
$PUCSORG
 10
0.0
 20
0.0
 30
0.0
  9
$PUCSXDIR
 10
1.0
 20
0.0
 30
0.0
  9
$PUCSYDIR
 10
0.0
 20
1.0
 30
0.0
  9
$USERI1
 70
     0
  9
$USERI2
 70
     0
  9
$USERI3
 70
     0
  9
$USERI4
 70
     0
  9
$USERI5
 70
     0
  9
$USERR1
 40
0.0
  9
$USERR2
 40
0.0
  9
$USERR3
 40
0.0
  9
$USERR4
 40
0.0
  9
$USERR5
 40
0.0
  9
$WORLDVIEW
 70
     1
  9
$SHADEDGE
 70
     3
  9
$SHADEDIF
 70
    70
  9
$TILEMODE
 70
     1
  9
$MAXACTVP
 70
    64
  9
$PINSBASE
 10
0.0
 20
0.0
 30
0.0
  9
$PLIMCHECK
 70
     0
  9
$PEXTMIN
 10
1.000000000000000E+20
 20
1.000000000000000E+20
 30
1.000000000000000E+20
  9
$PEXTMAX
 10
-1.000000000000000E+20
 20
-1.000000000000000E+20
 30
-1.000000000000000E+20
  9
$PLIMMIN
 10
0.0
 20
0.0
  9
$PLIMMAX
 10
12.0
 20
9.0
  9
$UNITMODE
 70
     0
  9
$VISRETAIN
 70
     1
  9
$PLINEGEN
 70
     0
  9
$PSLTSCALE
 70
     1
  9
$TREEDEPTH
 70
  3020
  9
$PICKSTYLE
 70
     1
  9
$CMLSTYLE
  2
STANDARD
  9
$CMLJUST
 70
     0
  9
$CMLSCALE
 40
1.0
  9
$PROXYGRAPHICS
 70
     1
  9
$MEASUREMENT
 70
     0
  0
ENDSEC
  0
SECTION
  2
CLASSES
  0
CLASS
  1
ACDBDICTIONARYWDFLT
  2
AcDbDictionaryWithDefault
  3
ObjectDBX Classes
 90
        0
280
     0
281
     0
  0
CLASS
  1
VISUALSTYLE
  2
AcDbVisualStyle
  3
ObjectDBX Classes
 90
     4095
280
     0
281
     0
  0
CLASS
  1
MATERIAL
  2
AcDbMaterial
  3
ObjectDBX Classes
 90
     1153
280
     0
281
     0
  0
CLASS
  1
DICTIONARYVAR
  2
AcDbDictionaryVar
  3
ObjectDBX Classes
 90
        0
280
     0
281
     0
  0
CLASS
  1
XRECORD
  2
AcDbXrecord
  3
AutoCAD 2000
 90
        0
280
     0
281
     0
  0
CLASS
  1
LWPOLYLINE
  2
AcDbPolyline
  3
AutoCAD 2000
 90
        0
280
     0
281
     1
  0
CLASS
  1
HATCH
  2
AcDbHatch
  3
AutoCAD 2000
 90
        0
280
     0
281
     1
  0
CLASS
  1
ACDBPLACEHOLDER
  2
AcDbPlaceHolder
  3
ObjectDBX Classes
 90
        0
280
     0
281
     0
  0
CLASS
  1
LAYOUT
  2
AcDbLayout
  3
ObjectDBX Classes
 90
        0
280
     0
281
     0
  0
ENDSEC
  0
SECTION
  2
TABLES
  0
TABLE
  2
VPORT
  5
8
330
0
100
AcDbSymbolTable
 70
     1
  0
VPORT
  5
29
330
8
100
AcDbSymbolTableRecord
100
AcDbViewportTableRecord
  2
*ACTIVE
 70
     0
 10
0.0
 20
0.0
 11
1.0
 21
1.0
 12
10.42990654205607
 22
4.5
 13
0.0
 23
0.0
 14
0.5
 24
0.5
 15
0.5
 25
0.5
 16
0.0
 26
0.0
 36
1.0
 17
0.0
 27
0.0
 37
0.0
 40
9.0
 41
1.972972972850329
 42
50.0
 43
0.0
 44
0.0
 50
0.0
 51
0.0
 71
     0
 72
   100
 73
     1
 74
     3
 75
     0
 76
     0
 77
     0
 78
     0
  0
ENDTAB
  0
TABLE
  2
LTYPE
  5
5
330
0
100
AcDbSymbolTable
 70
     1
  0
LTYPE
  5
14
330
5
100
AcDbSymbolTableRecord
100
AcDbLinetypeTableRecord
  2
BYBLOCK
 70
     0
  3

 72
    65
 73
     0
 40
0.0
  0
LTYPE
  5
15
330
5
100
AcDbSymbolTableRecord
100
AcDbLinetypeTableRecord
  2
BYLAYER
 70
     0
  3

 72
    65
 73
     0
 40
0.0
  0
LTYPE
  5
16
330
5
100
AcDbSymbolTableRecord
100
AcDbLinetypeTableRecord
  2
CONTINUOUS
 70
     0
  3
Solid line
 72
    65
 73
     0
 40
0.0
  0
ENDTAB
  0
TABLE
  2
LAYER
  5
2
330
0
100
AcDbSymbolTable
 70
     2
  0
LAYER
  5
10
330
2
100
AcDbSymbolTableRecord
100
AcDbLayerTableRecord
  2
0
 70
     0
 62
     7
  6
CONTINUOUS
  0
LAYER
  5
40
330
2
100
AcDbSymbolTableRecord
100
AcDbLayerTableRecord
  2
DEFAULT_2
 70
     0
 62
     7
  6
CONTINUOUS
  0
ENDTAB
  0
TABLE
  2
STYLE
  5
3
330
0
100
AcDbSymbolTable
 70
     1
  0
STYLE
  5
11
330
3
100
AcDbSymbolTableRecord
100
AcDbTextStyleTableRecord
  2
STANDARD
 70
     0
 40
0.0
 41
1.0
 50
0.0
 71
     0
 42
0.2
  3
txt
  4

  0
ENDTAB
  0
TABLE
  2
VIEW
  5
6
330
0
100
AcDbSymbolTable
 70
     0
  0
ENDTAB
  0
TABLE
  2
UCS
  5
7
330
0
100
AcDbSymbolTable
 70
     0
  0
ENDTAB
  0
TABLE
  2
APPID
  5
9
330
0
100
AcDbSymbolTable
 70
     2
  0
APPID
  5
12
330
9
100
AcDbSymbolTableRecord
100
AcDbRegAppTableRecord
  2
ACAD
 70
     0
  0
APPID
  5
3F
330
9
100
AcDbSymbolTableRecord
100
AcDbRegAppTableRecord
  2
ODA
 70
     0
  0
ENDTAB
  0
TABLE
  2
DIMSTYLE
  5
A
330
0
100
AcDbSymbolTable
 70
     1
  0
DIMSTYLE
105
27
330
A
100
AcDbSymbolTableRecord
100
AcDbDimStyleTableRecord
  2
STANDARD
 70
     0
  3

  4

  5

  6

  7

 40
1.0
 41
0.18
 42
0.0625
 43
0.38
 44
0.18
 45
0.0
 46
0.0
 47
0.0
 48
0.0
140
0.18
141
0.09
142
0.0
143
25.4
144
1.0
145
0.0
146
1.0
147
0.09
 71
     0
 72
     0
 73
     1
 74
     1
 75
     0
 76
     0
 77
     0
 78
     0
170
     0
171
     2
172
     0
173
     0
174
     0
175
     0
176
     0
177
     0
178
     0
270
     2
271
     4
272
     4
273
     2
274
     2
340
11
275
     0
280
     0
281
     0
282
     0
283
     1
284
     0
285
     0
286
     0
287
     3
288
     0
  0
ENDTAB
  0
TABLE
  2
BLOCK_RECORD
  5
1
330
0
100
AcDbSymbolTable
 70
     1
  0
BLOCK_RECORD
  5
1F
330
1
100
AcDbSymbolTableRecord
100
AcDbBlockTableRecord
  2
*MODEL_SPACE
  0
BLOCK_RECORD
  5
1B
330
1
100
AcDbSymbolTableRecord
100
AcDbBlockTableRecord
  2
*PAPER_SPACE
  0
ENDTAB
  0
ENDSEC
  0
SECTION
  2
BLOCKS
  0
BLOCK
  5
20
330
1F
100
AcDbEntity
  8
0
100
AcDbBlockBegin
  2
*MODEL_SPACE
 70
     0
 10
0.0
 20
0.0
 30
0.0
  3
*MODEL_SPACE
  1

  0
ENDBLK
  5
21
330
1F
100
AcDbEntity
  8
0
100
AcDbBlockEnd
  0
BLOCK
  5
1C
330
1B
100
AcDbEntity
 67
     1
  8
0
100
AcDbBlockBegin
  2
*PAPER_SPACE
 70
     0
 10
0.0
 20
0.0
 30
0.0
  3
*PAPER_SPACE
  1

  0
ENDBLK
  5
1D
330
1B
100
AcDbEntity
 67
     1
  8
0
100
AcDbBlockEnd
  0
ENDSEC
  0
SECTION
  2
ENTITIES
  0
SPLINE
  5
41
330
1F
100
AcDbEntity
  8
DEFAULT_2
 62
   250
100
AcDbSpline
210
0.0
220
0.0
230
1.0
 70
    24
 71
     3
 72
     8
 73
     4
 74
     0
 42
0.0000000001
 43
0.0000000001
 40
0.0
 40
0.0
 40
0.0
 40
0.0
 40
1.0
 40
1.0
 40
1.0
 40
1.0
 10
30.599
 20
17.7216
 30
0.0
 10
30.599
 20
17.7216
 30
0.0
 10
30.599
 20
21.7958
 30
0.0
 10
30.599
 20
21.7958
 30
0.0
  0
SPLINE
  5
42
330
1F
100
AcDbEntity
  8
DEFAULT_2
 62
   250
100
AcDbSpline
210
0.0
220
0.0
230
1.0
 70
    24
 71
     3
 72
     8
 73
     4
 74
     0
 42
0.0000000001
 43
0.0000000001
 40
0.0
 40
0.0
 40
0.0
 40
0.0
 40
1.0
 40
1.0
 40
1.0
 40
1.0
 10
31.3674
 20
17.746
 30
0.0
 10
31.3674
 20
17.746
 30
0.0
 10
31.3674
 20
21.8126
 30
0.0
 10
31.3674
 20
21.8126
 30
0.0
  0
SPLINE
  5
43
330
1F
100
AcDbEntity
  8
DEFAULT_2
 62
   250
100
AcDbSpline
210
0.0
220
0.0
230
1.0
 70
    24
 71
     3
 72
     8
 73
     4
 74
     0
 42
0.0000000001
 43
0.0000000001
 40
0.0
 40
0.0
 40
0.0
 40
0.0
 40
1.0
 40
1.0
 40
1.0
 40
1.0
 10
-20.4098
 20
0.2551
 30
0.0
 10
-20.4098
 20
0.2551
 30
0.0
 10
-24.3301
 20
0.2551
 30
0.0
 10
-24.3301
 20
0.2551
 30
0.0
  0
SPLINE
  5
44
330
1F
100
AcDbEntity
  8
DEFAULT_2
 62
   250
100
AcDbSpline
210
0.0
220
0.0
230
1.0
 70
    24
 71
     3
 72
     8
 73
     4
 74
     0
 42
0.0000000001
 43
0.0000000001
 40
0.0
 40
0.0
 40
0.0
 40
0.0
 40
1.0
 40
1.0
 40
1.0
 40
1.0
 10
-20.4098
 20
2.8178
 30
0.0
 10
-20.4098
 20
2.8178
 30
0.0
 10
-24.3301
 20
2.8178
 30
0.0
 10
-24.3301
 20
2.8178
 30
0.0
  0
SPLINE
  5
45
330
1F
100
AcDbEntity
  8
DEFAULT_2
 62
   250
100
AcDbSpline
210
0.0
220
0.0
230
1.0
 70
    24
 71
     3
 72
     8
 73
     4
 74
     0
 42
0.0000000001
 43
0.0000000001
 40
0.0
 40
0.0
 40
0.0
 40
0.0
 40
1.0
 40
1.0
 40
1.0
 40
1.0
 10
-20.4098
 20
1.5365
 30
0.0
 10
-20.4098
 20
1.5365
 30
0.0
 10
-20.4098
 20
28.2818
 30
0.0
 10
-20.4098
 20
28.2818
 30
0.0
  0
SPLINE
  5
46
330
1F
100
AcDbEntity
  8
DEFAULT_2
 62
   250
100
AcDbSpline
210
0.0
220
0.0
230
1.0
 70
    24
 71
     3
 72
     8
 73
     4
 74
     0
 42
0.0000000001
 43
0.0000000001
 40
0.0
 40
0.0
 40
0.0
 40
0.0
 40
1.0
 40
1.0
 40
1.0
 40
1.0
 10
9.0613
 20
1.5365
 30
0.0
 10
9.0613
 20
1.5365
 30
0.0
 10
9.0613
 20
28.1424
 30
0.0
 10
9.0613
 20
28.1424
 30
0.0
  0
SPLINE
  5
47
330
1F
100
AcDbEntity
  8
DEFAULT_2
 62
   250
100
AcDbSpline
210
0.0
220
0.0
230
1.0
 70
    24
 71
     3
 72
     8
 73
     4
 74
     0
 42
0.0000000001
 43
0.0000000001
 40
0.0
 40
0.0
 40
0.0
 40
0.0
 40
1.0
 40
1.0
 40
1.0
 40
1.0
 10
-17.2064
 20
1.5365
 30
0.0
 10
-17.2064
 20
1.5365
 30
0.0
 10
-17.2064
 20
22.0023
 30
0.0
 10
-17.2064
 20
22.0023
 30
0.0
  0
SPLINE
  5
48
330
1F
100
AcDbEntity
  8
DEFAULT_2
 62
   250
100
AcDbSpline
210
0.0
220
0.0
230
1.0
 70
    24
 71
     3
 72
     8
 73
     4
 74
     0
 42
0.0000000001
 43
0.0000000001
 40
0.0
 40
0.0
 40
0.0
 40
0.0
 40
1.0
 40
1.0
 40
1.0
 40
1.0
 10
5.8579
 20
1.5365
 30
0.0
 10
5.8579
 20
1.5365
 30
0.0
 10
5.8579
 20
22.0362
 30
0.0
 10
5.8579
 20
22.0362
 30
0.0
  0
SPLINE
  5
49
330
1F
100
AcDbEntity
  8
DEFAULT_2
 62
   250
100
AcDbSpline
210
0.0
220
0.0
230
1.0
 70
    24
 71
     3
 72
     8
 73
     4
 74
     0
 42
0.0000000001
 43
0.0000000001
 40
0.0
 40
0.0
 40
0.0
 40
0.0
 40
1.0
 40
1.0
 40
1.0
 40
1.0
 10
-29.3793
 20
17.5534
 30
0.0
 10
-29.3793
 20
17.5534
 30
0.0
 10
-29.3793
 20
-8.0737
 30
0.0
 10
-29.3793
 20
-8.0737
 30
0.0
  0
SPLINE
  5
4A
330
1F
100
AcDbEntity
  8
DEFAULT_2
 62
   250
100
AcDbSpline
210
0.0
220
0.0
230
1.0
 70
    24
 71
     3
 72
     8
 73
     4
 74
     0
 42
0.0000000001
 43
0.0000000001
 40
0.0
 40
0.0
 40
0.0
 40
0.0
 40
1.0
 40
1.0
 40
1.0
 40
1.0
 10
-13.3623
 20
-10.6364
 30
0.0
 10
-13.3623
 20
-10.6364
 30
0.0
 10
-13.3623
 20
-11.9177
 30
0.0
 10
-13.3623
 20
-11.9177
 30
0.0
  0
SPLINE
  5
4B
330
1F
100
AcDbEntity
  8
DEFAULT_2
 62
   250
100
AcDbSpline
210
0.0
220
0.0
230
1.0
 70
    24
 71
     3
 72
     8
 73
     4
 74
     0
 42
0.0000000001
 43
0.0000000001
 40
0.0
 40
0.0
 40
0.0
 40
0.0
 40
1.0
 40
1.0
 40
1.0
 40
1.0
 10
-9.5183
 20
6.6619
 30
0.0
 10
-9.5183
 20
6.6619
 30
0.0
 10
-9.5183
 20
5.3805
 30
0.0
 10
-9.5183
 20
5.3805
 30
0.0
  0
SPLINE
  5
4C
330
1F
100
AcDbEntity
  8
DEFAULT_2
 62
   250
100
AcDbSpline
210
0.0
220
0.0
230
1.0
 70
    24
 71
     3
 72
     8
 73
     4
 74
     0
 42
0.0000000001
 43
0.0000000001
 40
0.0
 40
0.0
 40
0.0
 40
0.0
 40
1.0
 40
1.0
 40
1.0
 40
1.0
 10
-6.3149
 20
-24.0905
 30
0.0
 10
-6.3149
 20
-24.0905
 30
0.0
 10
-6.3149
 20
-34.3414
 30
0.0
 10
-6.3149
 20
-34.3414
 30
0.0
  0
SPLINE
  5
4D
330
1F
100
AcDbEntity
  8
DEFAULT_2
 62
   250
100
AcDbSpline
210
0.0
220
0.0
230
1.0
 70
    24
 71
     3
 72
     8
 73
     4
 74
     0
 42
0.0000000001
 43
0.0000000001
 40
0.0
 40
0.0
 40
0.0
 40
0.0
 40
1.0
 40
1.0
 40
1.0
 40
1.0
 10
-5.0336
 20
-34.3414
 30
0.0
 10
-5.0336
 20
-34.3414
 30
0.0
 10
-5.0336
 20
-24.0905
 30
0.0
 10
-5.0336
 20
-24.0905
 30
0.0
  0
SPLINE
  5
4E
330
1F
100
AcDbEntity
  8
DEFAULT_2
 62
   250
100
AcDbSpline
210
0.0
220
0.0
230
1.0
 70
    24
 71
     3
 72
     8
 73
     4
 74
     0
 42
0.0000000001
 43
0.0000000001
 40
0.0
 40
0.0
 40
0.0
 40
0.0
 40
1.0
 40
1.0
 40
1.0
 40
1.0
 10
-1.8302
 20
5.3805
 30
0.0
 10
-1.8302
 20
5.3805
 30
0.0
 10
-1.8302
 20
6.6619
 30
0.0
 10
-1.8302
 20
6.6619
 30
0.0
  0
SPLINE
  5
4F
330
1F
100
AcDbEntity
  8
DEFAULT_2
 62
   250
100
AcDbSpline
210
0.0
220
0.0
230
1.0
 70
    24
 71
     3
 72
     8
 73
     4
 74
     0
 42
0.0000000001
 43
0.0000000001
 40
0.0
 40
0.0
 40
0.0
 40
0.0
 40
1.0
 40
1.0
 40
1.0
 40
1.0
 10
2.0138
 20
-11.9177
 30
0.0
 10
2.0138
 20
-11.9177
 30
0.0
 10
2.0138
 20
-10.6364
 30
0.0
 10
2.0138
 20
-10.6364
 30
0.0
  0
SPLINE
  5
50
330
1F
100
AcDbEntity
  8
DEFAULT_2
 62
   250
100
AcDbSpline
210
0.0
220
0.0
230
1.0
 70
    24
 71
     3
 72
     8
 73
     4
 74
     0
 42
0.0000000001
 43
0.0000000001
 40
0.0
 40
0.0
 40
0.0
 40
0.0
 40
1.0
 40
1.0
 40
1.0
 40
1.0
 10
9.0613
 20
0.2551
 30
0.0
 10
9.0613
 20
0.2551
 30
0.0
 10
5.8579
 20
0.2551
 30
0.0
 10
5.8579
 20
0.2551
 30
0.0
  0
SPLINE
  5
51
330
1F
100
AcDbEntity
  8
DEFAULT_2
 62
   250
100
AcDbSpline
210
0.0
220
0.0
230
1.0
 70
    24
 71
     3
 72
     8
 73
     4
 74
     0
 42
0.0000000001
 43
0.0000000001
 40
0.0
 40
0.0
 40
0.0
 40
0.0
 40
1.0
 40
1.0
 40
1.0
 40
1.0
 10
-20.4098
 20
0.2551
 30
0.0
 10
-20.4098
 20
0.2551
 30
0.0
 10
-17.2064
 20
0.2551
 30
0.0
 10
-17.2064
 20
0.2551
 30
0.0
  0
SPLINE
  5
52
330
1F
100
AcDbEntity
  8
DEFAULT_2
 62
   250
100
AcDbSpline
210
0.0
220
0.0
230
1.0
 70
    24
 71
     3
 72
     8
 73
     4
 74
     0
 42
0.0000000001
 43
0.0000000001
 40
0.0
 40
0.0
 40
0.0
 40
0.0
 40
1.0
 40
1.0
 40
1.0
 40
1.0
 10
-17.2064
 20
2.8178
 30
0.0
 10
-17.2064
 20
2.8178
 30
0.0
 10
-20.4098
 20
2.8178
 30
0.0
 10
-20.4098
 20
2.8178
 30
0.0
  0
SPLINE
  5
53
330
1F
100
AcDbEntity
  8
DEFAULT_2
 62
   250
100
AcDbSpline
210
0.0
220
0.0
230
1.0
 70
    24
 71
     3
 72
     8
 73
     4
 74
     0
 42
0.0000000001
 43
0.0000000001
 40
0.0
 40
0.0
 40
0.0
 40
0.0
 40
1.0
 40
1.0
 40
1.0
 40
1.0
 10
5.8579
 20
2.8178
 30
0.0
 10
5.8579
 20
2.8178
 30
0.0
 10
9.0613
 20
2.8178
 30
0.0
 10
9.0613
 20
2.8178
 30
0.0
  0
SPLINE
  5
54
330
1F
100
AcDbEntity
  8
DEFAULT_2
 62
   250
100
AcDbSpline
210
0.0
220
0.0
230
1.0
 70
    24
 71
     3
 72
     8
 73
     4
 74
     0
 42
0.0000000001
 43
0.0000000001
 40
0.0
 40
0.0
 40
0.0
 40
0.0
 40
1.0
 40
1.0
 40
1.0
 40
1.0
 10
18.0307
 20
-8.0737
 30
0.0
 10
18.0307
 20
-8.0737
 30
0.0
 10
18.0307
 20
17.5534
 30
0.0
 10
18.0307
 20
17.5534
 30
0.0
  0
SPLINE
  5
55
330
1F
100
AcDbEntity
  8
DEFAULT_2
 62
   250
100
AcDbSpline
210
0.0
220
0.0
230
1.0
 70
    24
 71
     3
 72
     8
 73
     4
 74
     0
 42
0.0000000001
 43
0.0000000001
 40
0.0
 40
0.0
 40
0.0
 40
0.0
 40
1.0
 40
1.0
 40
1.0
 40
1.0
 10
18.0307
 20
17.5534
 30
0.0
 10
18.0307
 20
17.5534
 30
0.0
 10
-29.3793
 20
17.5534
 30
0.0
 10
-29.3793
 20
17.5534
 30
0.0
  0
SPLINE
  5
56
330
1F
100
AcDbEntity
  8
DEFAULT_2
 62
   250
100
AcDbSpline
210
0.0
220
0.0
230
1.0
 70
    24
 71
     3
 72
     8
 73
     4
 74
     0
 42
0.0000000001
 43
0.0000000001
 40
0.0
 40
0.0
 40
0.0
 40
0.0
 40
1.0
 40
1.0
 40
1.0
 40
1.0
 10
30.5984
 20
17.5534
 30
0.0
 10
30.5984
 20
17.5534
 30
0.0
 10
30.5984
 20
-8.0737
 30
0.0
 10
30.5984
 20
-8.0737
 30
0.0
  0
SPLINE
  5
57
330
1F
100
AcDbEntity
  8
DEFAULT_2
 62
   250
100
AcDbSpline
210
0.0
220
0.0
230
1.0
 70
    24
 71
     3
 72
     8
 73
     4
 74
     0
 42
0.0000000001
 43
0.0000000001
 40
0.0
 40
0.0
 40
0.0
 40
0.0
 40
1.0
 40
1.0
 40
1.0
 40
1.0
 10
31.3672
 20
17.5534
 30
0.0
 10
31.3672
 20
17.5534
 30
0.0
 10
31.3672
 20
-8.0737
 30
0.0
 10
31.3672
 20
-8.0737
 30
0.0
  0
SPLINE
  5
58
330
1F
100
AcDbEntity
  8
DEFAULT_2
 62
   250
100
AcDbSpline
210
0.0
220
0.0
230
1.0
 70
    24
 71
     3
 72
     8
 73
     4
 74
     0
 42
0.0000000001
 43
0.0000000001
 40
0.0
 40
0.0
 40
0.0
 40
0.0
 40
1.0
 40
1.0
 40
1.0
 40
1.0
 10
30.5984
 20
17.5534
 30
0.0
 10
30.5984
 20
17.5534
 30
0.0
 10
31.3672
 20
17.5534
 30
0.0
 10
31.3672
 20
17.5534
 30
0.0
  0
SPLINE
  5
59
330
1F
100
AcDbEntity
  8
DEFAULT_2
 62
   250
100
AcDbSpline
210
0.0
220
0.0
230
1.0
 70
     8
 71
     3
 72
    12
 73
     8
 74
     0
 42
0.0000000001
 43
0.0000000001
 40
0.0
 40
0.0
 40
0.0
 40
0.0
 40
0.3333333333333333
 40
0.3333333333333333
 40
0.3333333333333333
 40
0.3333333333333333
 40
1.0
 40
1.0
 40
1.0
 40
1.0
 10
-13.3623
 20
-11.9177
 30
0.0
 10
-13.3623
 20
-16.1637
 30
0.0
 10
-9.9203
 20
-19.6058
 30
0.0
 10
-5.6742
 20
-19.6058
 30
0.0
 10
-5.6742
 20
-19.6058
 30
0.0
 10
-1.4282
 20
-19.6058
 30
0.0
 10
2.0138
 20
-16.1637
 30
0.0
 10
2.0138
 20
-11.9177
 30
0.0
  0
SPLINE
  5
5A
330
1F
100
AcDbEntity
  8
DEFAULT_2
 62
   250
100
AcDbSpline
210
0.0
220
0.0
230
1.0
 70
     8
 71
     3
 72
    12
 73
     8
 74
     0
 42
0.0000000001
 43
0.0000000001
 40
0.0
 40
0.0
 40
0.0
 40
0.0
 40
0.3333333333333333
 40
0.3333333333333333
 40
0.3333333333333333
 40
0.3333333333333333
 40
1.0
 40
1.0
 40
1.0
 40
1.0
 10
2.0138
 20
-10.6364
 30
0.0
 10
2.0138
 20
-6.3903
 30
0.0
 10
-1.4282
 20
-2.9482
 30
0.0
 10
-5.6742
 20
-2.9482
 30
0.0
 10
-5.6742
 20
-2.9482
 30
0.0
 10
-9.9203
 20
-2.9482
 30
0.0
 10
-13.3623
 20
-6.3903
 30
0.0
 10
-13.3623
 20
-10.6364
 30
0.0
  0
SPLINE
  5
5B
330
1F
100
AcDbEntity
  8
DEFAULT_2
 62
   250
100
AcDbSpline
210
0.0
220
0.0
230
1.0
 70
     8
 71
     3
 72
    12
 73
     8
 74
     0
 42
0.0000000001
 43
0.0000000001
 40
0.0
 40
0.0
 40
0.0
 40
0.0
 40
0.3333333333333333
 40
0.3333333333333333
 40
0.3333333333333333
 40
0.3333333333333333
 40
1.0
 40
1.0
 40
1.0
 40
1.0
 10
-1.8302
 20
6.6619
 30
0.0
 10
-1.8302
 20
8.7849
 30
0.0
 10
-3.5512
 20
10.5059
 30
0.0
 10
-5.6742
 20
10.5059
 30
0.0
 10
-5.6742
 20
10.5059
 30
0.0
 10
-7.7973
 20
10.5059
 30
0.0
 10
-9.5183
 20
8.7849
 30
0.0
 10
-9.5183
 20
6.6619
 30
0.0
  0
SPLINE
  5
5C
330
1F
100
AcDbEntity
  8
DEFAULT_2
 62
   250
100
AcDbSpline
210
0.0
220
0.0
230
1.0
 70
     8
 71
     3
 72
    12
 73
     8
 74
     0
 42
0.0000000001
 43
0.0000000001
 40
0.0
 40
0.0
 40
0.0
 40
0.0
 40
0.3333333333333333
 40
0.3333333333333333
 40
0.3333333333333333
 40
0.3333333333333333
 40
1.0
 40
1.0
 40
1.0
 40
1.0
 10
-9.5183
 20
5.3805
 30
0.0
 10
-9.5183
 20
3.2575
 30
0.0
 10
-7.7973
 20
1.5365
 30
0.0
 10
-5.6742
 20
1.5365
 30
0.0
 10
-5.6742
 20
1.5365
 30
0.0
 10
-3.5512
 20
1.5365
 30
0.0
 10
-1.8302
 20
3.2575
 30
0.0
 10
-1.8302
 20
5.3805
 30
0.0
  0
SPLINE
  5
5D
330
1F
100
AcDbEntity
  8
DEFAULT_2
 62
   250
100
AcDbSpline
210
0.0
220
0.0
230
1.0
 70
     8
 71
     3
 72
    12
 73
     8
 74
     0
 42
0.0000000001
 43
0.0000000001
 40
0.0
 40
0.0
 40
0.0
 40
0.0
 40
0.3333333333333333
 40
0.3333333333333333
 40
0.3333333333333333
 40
0.3333333333333333
 40
1.0
 40
1.0
 40
1.0
 40
1.0
 10
5.8579
 20
2.8178
 30
0.0
 10
5.1502
 20
2.8178
 30
0.0
 10
4.5765
 20
2.2441
 30
0.0
 10
4.5765
 20
1.5365
 30
0.0
 10
4.5765
 20
1.5365
 30
0.0
 10
4.5765
 20
0.8288
 30
0.0
 10
5.1502
 20
0.2551
 30
0.0
 10
5.8579
 20
0.2551
 30
0.0
  0
SPLINE
  5
5E
330
1F
100
AcDbEntity
  8
DEFAULT_2
 62
   250
100
AcDbSpline
210
0.0
220
0.0
230
1.0
 70
     8
 71
     3
 72
    12
 73
     8
 74
     0
 42
0.0000000001
 43
0.0000000001
 40
0.0
 40
0.0
 40
0.0
 40
0.0
 40
0.3333333333333333
 40
0.3333333333333333
 40
0.3333333333333333
 40
0.3333333333333333
 40
1.0
 40
1.0
 40
1.0
 40
1.0
 10
9.0613
 20
0.2551
 30
0.0
 10
9.7689
 20
0.2551
 30
0.0
 10
10.3426
 20
0.8288
 30
0.0
 10
10.3426
 20
1.5365
 30
0.0
 10
10.3426
 20
1.5365
 30
0.0
 10
10.3426
 20
2.2441
 30
0.0
 10
9.7689
 20
2.8178
 30
0.0
 10
9.0613
 20
2.8178
 30
0.0
  0
SPLINE
  5
5F
330
1F
100
AcDbEntity
  8
DEFAULT_2
 62
   250
100
AcDbSpline
210
0.0
220
0.0
230
1.0
 70
     8
 71
     3
 72
    12
 73
     8
 74
     0
 42
0.0000000001
 43
0.0000000001
 40
0.0
 40
0.0
 40
0.0
 40
0.0
 40
0.3333333333333333
 40
0.3333333333333333
 40
0.3333333333333333
 40
0.3333333333333333
 40
1.0
 40
1.0
 40
1.0
 40
1.0
 10
-17.2064
 20
0.2551
 30
0.0
 10
-16.4987
 20
0.2551
 30
0.0
 10
-15.9251
 20
0.8288
 30
0.0
 10
-15.9251
 20
1.5365
 30
0.0
 10
-15.9251
 20
1.5365
 30
0.0
 10
-15.9251
 20
2.2441
 30
0.0
 10
-16.4987
 20
2.8178
 30
0.0
 10
-17.2064
 20
2.8178
 30
0.0
  0
SPLINE
  5
60
330
1F
100
AcDbEntity
  8
DEFAULT_2
 62
   250
100
AcDbSpline
210
0.0
220
0.0
230
1.0
 70
     8
 71
     3
 72
    12
 73
     8
 74
     0
 42
0.0000000001
 43
0.0000000001
 40
0.0
 40
0.0
 40
0.0
 40
0.0
 40
0.3333333333333333
 40
0.3333333333333333
 40
0.3333333333333333
 40
0.3333333333333333
 40
1.0
 40
1.0
 40
1.0
 40
1.0
 10
-20.4098
 20
2.8178
 30
0.0
 10
-21.1175
 20
2.8178
 30
0.0
 10
-21.6912
 20
2.2441
 30
0.0
 10
-21.6912
 20
1.5365
 30
0.0
 10
-21.6912
 20
1.5365
 30
0.0
 10
-21.6912
 20
0.8288
 30
0.0
 10
-21.1175
 20
0.2551
 30
0.0
 10
-20.4098
 20
0.2551
 30
0.0
  0
SPLINE
  5
61
330
1F
100
AcDbEntity
  8
DEFAULT_2
 62
   250
100
AcDbSpline
210
0.0
220
0.0
230
1.0
 70
     8
 71
     3
 72
    12
 73
     8
 74
     0
 42
0.0000000001
 43
0.0000000001
 40
0.0
 40
0.0
 40
0.0
 40
0.0
 40
0.3333333333333333
 40
0.3333333333333333
 40
0.3333333333333333
 40
0.3333333333333333
 40
1.0
 40
1.0
 40
1.0
 40
1.0
 10
-6.3149
 20
-34.3414
 30
0.0
 10
-6.3149
 20
-34.6952
 30
0.0
 10
-6.0281
 20
-34.982
 30
0.0
 10
-5.6742
 20
-34.982
 30
0.0
 10
-5.6742
 20
-34.982
 30
0.0
 10
-5.3204
 20
-34.982
 30
0.0
 10
-5.0336
 20
-34.6952
 30
0.0
 10
-5.0336
 20
-34.3414
 30
0.0
  0
SPLINE
  5
62
330
1F
100
AcDbEntity
  8
DEFAULT_2
 62
   250
100
AcDbSpline
210
0.0
220
0.0
230
1.0
 70
     8
 71
     3
 72
    12
 73
     8
 74
     0
 42
0.0000000001
 43
0.0000000001
 40
0.0
 40
0.0
 40
0.0
 40
0.0
 40
0.3333333333333333
 40
0.3333333333333333
 40
0.3333333333333333
 40
0.3333333333333333
 40
1.0
 40
1.0
 40
1.0
 40
1.0
 10
-5.0336
 20
-24.0905
 30
0.0
 10
-5.0336
 20
-23.7367
 30
0.0
 10
-5.3204
 20
-23.4498
 30
0.0
 10
-5.6742
 20
-23.4498
 30
0.0
 10
-5.6742
 20
-23.4498
 30
0.0
 10
-6.0281
 20
-23.4498
 30
0.0
 10
-6.3149
 20
-23.7367
 30
0.0
 10
-6.3149
 20
-24.0905
 30
0.0
  0
SPLINE
  5
63
330
1F
100
AcDbEntity
  8
DEFAULT_2
 62
   250
100
AcDbSpline
210
0.0
220
0.0
230
1.0
 70
    24
 71
     3
 72
     8
 73
     4
 74
     0
 42
0.0000000001
 43
0.0000000001
 40
0.0
 40
0.0
 40
0.0
 40
0.0
 40
1.0
 40
1.0
 40
1.0
 40
1.0
 10
-7.3968
 20
-36.2634
 30
0.0
 10
-7.3968
 20
-36.2634
 30
0.0
 10
-3.9517
 20
-36.2634
 30
0.0
 10
-3.9517
 20
-36.2634
 30
0.0
  0
SPLINE
  5
64
330
1F
100
AcDbEntity
  8
DEFAULT_2
 62
   250
100
AcDbSpline
210
0.0
220
0.0
230
1.0
 70
    24
 71
     3
 72
     8
 73
     4
 74
     0
 42
0.0000000001
 43
0.0000000001
 40
0.0
 40
0.0
 40
0.0
 40
0.0
 40
1.0
 40
1.0
 40
1.0
 40
1.0
 10
-29.3793
 20
-8.0737
 30
0.0
 10
-29.3793
 20
-8.0737
 30
0.0
 10
-16.3094
 20
-31.0766
 30
0.0
 10
-16.3094
 20
-31.0766
 30
0.0
  0
SPLINE
  5
65
330
1F
100
AcDbEntity
  8
DEFAULT_2
 62
   250
100
AcDbSpline
210
0.0
220
0.0
230
1.0
 70
    24
 71
     3
 72
     8
 73
     4
 74
     0
 42
0.0000000001
 43
0.0000000001
 40
0.0
 40
0.0
 40
0.0
 40
0.0
 40
1.0
 40
1.0
 40
1.0
 40
1.0
 10
4.9609
 20
-31.0766
 30
0.0
 10
4.9609
 20
-31.0766
 30
0.0
 10
18.0307
 20
-8.0737
 30
0.0
 10
18.0307
 20
-8.0737
 30
0.0
  0
SPLINE
  5
66
330
1F
100
AcDbEntity
  8
DEFAULT_2
 62
   250
100
AcDbSpline
210
0.0
220
0.0
230
1.0
 70
    24
 71
     3
 72
     8
 73
     4
 74
     0
 42
0.0000000001
 43
0.0000000001
 40
0.0
 40
0.0
 40
0.0
 40
0.0
 40
1.0
 40
1.0
 40
1.0
 40
1.0
 10
31.3672
 20
-36.2634
 30
0.0
 10
31.3672
 20
-36.2634
 30
0.0
 10
30.5984
 20
-36.2634
 30
0.0
 10
30.5984
 20
-36.2634
 30
0.0
  0
SPLINE
  5
67
330
1F
100
AcDbEntity
  8
DEFAULT_2
 62
   250
100
AcDbSpline
210
0.0
220
0.0
230
1.0
 70
    24
 71
     3
 72
     8
 73
     4
 74
     0
 42
0.0000000001
 43
0.0000000001
 40
0.0
 40
0.0
 40
0.0
 40
0.0
 40
1.0
 40
1.0
 40
1.0
 40
1.0
 10
30.5984
 20
-36.2634
 30
0.0
 10
30.5984
 20
-36.2634
 30
0.0
 10
30.5984
 20
-8.0737
 30
0.0
 10
30.5984
 20
-8.0737
 30
0.0
  0
SPLINE
  5
68
330
1F
100
AcDbEntity
  8
DEFAULT_2
 62
   250
100
AcDbSpline
210
0.0
220
0.0
230
1.0
 70
    24
 71
     3
 72
     8
 73
     4
 74
     0
 42
0.0000000001
 43
0.0000000001
 40
0.0
 40
0.0
 40
0.0
 40
0.0
 40
1.0
 40
1.0
 40
1.0
 40
1.0
 10
31.3672
 20
-8.0737
 30
0.0
 10
31.3672
 20
-8.0737
 30
0.0
 10
31.3672
 20
-36.2634
 30
0.0
 10
31.3672
 20
-36.2634
 30
0.0
  0
SPLINE
  5
69
330
1F
100
AcDbEntity
  8
DEFAULT_2
 62
   250
100
AcDbSpline
210
0.0
220
0.0
230
1.0
 70
     8
 71
     3
 72
     8
 73
     4
 74
     0
 42
0.0000000001
 43
0.0000000001
 40
0.0
 40
0.0
 40
0.0
 40
0.0
 40
1.0
 40
1.0
 40
1.0
 40
1.0
 10
-16.3094
 20
-31.0766
 30
0.0
 10
-14.4877
 20
-34.2827
 30
0.0
 10
-11.0843
 20
-36.2634
 30
0.0
 10
-7.3968
 20
-36.2634
 30
0.0
  0
SPLINE
  5
6A
330
1F
100
AcDbEntity
  8
DEFAULT_2
 62
   250
100
AcDbSpline
210
0.0
220
0.0
230
1.0
 70
     8
 71
     3
 72
     8
 73
     4
 74
     0
 42
0.0000000001
 43
0.0000000001
 40
0.0
 40
0.0
 40
0.0
 40
0.0
 40
1.0
 40
1.0
 40
1.0
 40
1.0
 10
-3.9517
 20
-36.2634
 30
0.0
 10
-0.2642
 20
-36.2634
 30
0.0
 10
3.1392
 20
-34.2827
 30
0.0
 10
4.9609
 20
-31.0766
 30
0.0
  0
SPLINE
  5
6B
330
1F
100
AcDbEntity
  8
DEFAULT_2
 62
   250
100
AcDbSpline
210
0.0
220
0.0
230
1.0
 70
    11
 71
     3
 72
   124
 73
   120
 74
     0
 42
0.0000000001
 43
0.0000000001
 40
0.0
 40
0.0
 40
0.0
 40
0.0
 40
0.032258064516129
 40
0.032258064516129
 40
0.032258064516129
 40
0.032258064516129
 40
0.0645161290322581
 40
0.0645161290322581
 40
0.0645161290322581
 40
0.0645161290322581
 40
0.0967741935483871
 40
0.0967741935483871
 40
0.0967741935483871
 40
0.0967741935483871
 40
0.1290322580645161
 40
0.1290322580645161
 40
0.1290322580645161
 40
0.1290322580645161
 40
0.1612903225806452
 40
0.1612903225806452
 40
0.1612903225806452
 40
0.1612903225806452
 40
0.1935483870967742
 40
0.1935483870967742
 40
0.1935483870967742
 40
0.1935483870967742
 40
0.2258064516129032
 40
0.2258064516129032
 40
0.2258064516129032
 40
0.2258064516129032
 40
0.2580645161290323
 40
0.2580645161290323
 40
0.2580645161290323
 40
0.2580645161290323
 40
0.2903225806451613
 40
0.2903225806451613
 40
0.2903225806451613
 40
0.2903225806451613
 40
0.3225806451612903
 40
0.3225806451612903
 40
0.3225806451612903
 40
0.3225806451612903
 40
0.3548387096774194
 40
0.3548387096774194
 40
0.3548387096774194
 40
0.3548387096774194
 40
0.3870967741935484
 40
0.3870967741935484
 40
0.3870967741935484
 40
0.3870967741935484
 40
0.4193548387096774
 40
0.4193548387096774
 40
0.4193548387096774
 40
0.4193548387096774
 40
0.4516129032258064
 40
0.4516129032258064
 40
0.4516129032258064
 40
0.4516129032258064
 40
0.4838709677419355
 40
0.4838709677419355
 40
0.4838709677419355
 40
0.4838709677419355
 40
0.5161290322580645
 40
0.5161290322580645
 40
0.5161290322580645
 40
0.5161290322580645
 40
0.5483870967741935
 40
0.5483870967741935
 40
0.5483870967741935
 40
0.5483870967741935
 40
0.5806451612903226
 40
0.5806451612903226
 40
0.5806451612903226
 40
0.5806451612903226
 40
0.6129032258064516
 40
0.6129032258064516
 40
0.6129032258064516
 40
0.6129032258064516
 40
0.6451612903225806
 40
0.6451612903225806
 40
0.6451612903225806
 40
0.6451612903225806
 40
0.6774193548387096
 40
0.6774193548387096
 40
0.6774193548387096
 40
0.6774193548387096
 40
0.7096774193548387
 40
0.7096774193548387
 40
0.7096774193548387
 40
0.7096774193548387
 40
0.7419354838709677
 40
0.7419354838709677
 40
0.7419354838709677
 40
0.7419354838709677
 40
0.7741935483870968
 40
0.7741935483870968
 40
0.7741935483870968
 40
0.7741935483870968
 40
0.8064516129032258
 40
0.8064516129032258
 40
0.8064516129032258
 40
0.8064516129032258
 40
0.8387096774193549
 40
0.8387096774193549
 40
0.8387096774193549
 40
0.8387096774193549
 40
0.8709677419354839
 40
0.8709677419354839
 40
0.8709677419354839
 40
0.8709677419354839
 40
0.9032258064516129
 40
0.9032258064516129
 40
0.9032258064516129
 40
0.9032258064516129
 40
0.9354838709677419
 40
0.9354838709677419
 40
0.9354838709677419
 40
0.9354838709677419
 40
1.0
 40
1.0
 40
1.0
 40
1.0
 10
-8.4209
 20
34.7685
 30
0.0
 10
-8.4209
 20
34.7685
 30
0.0
 10
-8.173
 20
34.8014
 30
0.0
 10
-8.173
 20
34.8014
 30
0.0
 10
-8.173
 20
34.8014
 30
0.0
 10
-8.1443
 20
34.6608
 30
0.0
 10
-8.0958
 20
34.5596
 30
0.0
 10
-8.0277
 20
34.4976
 30
0.0
 10
-8.0277
 20
34.4976
 30
0.0
 10
-7.959
 20
34.4355
 30
0.0
 10
-7.8757
 20
34.4044
 30
0.0
 10
-7.7774
 20
34.4044
 30
0.0
 10
-7.7774
 20
34.4044
 30
0.0
 10
-7.6608
 20
34.4044
 30
0.0
 10
-7.562
 20
34.4449
 30
0.0
 10
-7.4816
 20
34.5258
 30
0.0
 10
-7.4816
 20
34.5258
 30
0.0
 10
-7.4016
 20
34.6067
 30
0.0
 10
-7.3611
 20
34.7069
 30
0.0
 10
-7.3611
 20
34.8263
 30
0.0
 10
-7.3611
 20
34.8263
 30
0.0
 10
-7.3611
 20
34.9402
 30
0.0
 10
-7.3983
 20
35.0342
 30
0.0
 10
-7.4726
 20
35.1081
 30
0.0
 10
-7.4726
 20
35.1081
 30
0.0
 10
-7.5474
 20
35.1819
 30
0.0
 10
-7.642
 20
35.2191
 30
0.0
 10
-7.7567
 20
35.2191
 30
0.0
 10
-7.7567
 20
35.2191
 30
0.0
 10
-7.8038
 20
35.2191
 30
0.0
 10
-7.8621
 20
35.2097
 30
0.0
 10
-7.9317
 20
35.1913
 30
0.0
 10
-7.9317
 20
35.1913
 30
0.0
 10
-7.9317
 20
35.1913
 30
0.0
 10
-7.9039
 20
35.4091
 30
0.0
 10
-7.9039
 20
35.4091
 30
0.0
 10
-7.9039
 20
35.4091
 30
0.0
 10
-7.8875
 20
35.4072
 30
0.0
 10
-7.8743
 20
35.4063
 30
0.0
 10
-7.864
 20
35.4063
 30
0.0
 10
-7.864
 20
35.4063
 30
0.0
 10
-7.7586
 20
35.4063
 30
0.0
 10
-7.6636
 20
35.4341
 30
0.0
 10
-7.5789
 20
35.4891
 30
0.0
 10
-7.5789
 20
35.4891
 30
0.0
 10
-7.4942
 20
35.5441
 30
0.0
 10
-7.4519
 20
35.6293
 30
0.0
 10
-7.4519
 20
35.744
 30
0.0
 10
-7.4519
 20
35.744
 30
0.0
 10
-7.4519
 20
35.8348
 30
0.0
 10
-7.483
 20
35.9105
 30
0.0
 10
-7.5446
 20
35.9698
 30
0.0
 10
-7.5446
 20
35.9698
 30
0.0
 10
-7.6062
 20
36.0295
 30
0.0
 10
-7.6857
 20
36.0596
 30
0.0
 10
-7.7831
 20
36.0596
 30
0.0
 10
-7.7831
 20
36.0596
 30
0.0
 10
-7.8795
 20
36.0596
 30
0.0
 10
-7.9599
 20
36.0291
 30
0.0
 10
-8.0239
 20
35.9688
 30
0.0
 10
-8.0239
 20
35.9688
 30
0.0
 10
-8.0883
 20
35.9082
 30
0.0
 10
-8.1297
 20
35.8169
 30
0.0
 10
-8.1481
 20
35.6956
 30
0.0
 10
-8.1481
 20
35.6956
 30
0.0
 10
-8.1481
 20
35.6956
 30
0.0
 10
-8.3959
 20
35.7398
 30
0.0
 10
-8.3959
 20
35.7398
 30
0.0
 10
-8.3959
 20
35.7398
 30
0.0
 10
-8.3658
 20
35.9063
 30
0.0
 10
-8.2967
 20
36.0352
 30
0.0
 10
-8.1895
 20
36.1264
 30
0.0
 10
-8.1895
 20
36.1264
 30
0.0
 10
-8.0817
 20
36.2177
 30
0.0
 10
-7.9482
 20
36.2638
 30
0.0
 10
-7.7882
 20
36.2638
 30
0.0
 10
-7.7882
 20
36.2638
 30
0.0
 10
-7.6782
 20
36.2638
 30
0.0
 10
-7.5766
 20
36.2398
 30
0.0
 10
-7.4839
 20
36.1927
 30
0.0
 10
-7.4839
 20
36.1927
 30
0.0
 10
-7.3913
 20
36.1452
 30
0.0
 10
-7.3202
 20
36.0808
 30
0.0
 10
-7.2708
 20
35.999
 30
0.0
 10
-7.2708
 20
35.999
 30
0.0
 10
-7.2219
 20
35.9171
 30
0.0
 10
-7.197
 20
35.8306
 30
0.0
 10
-7.197
 20
35.7384
 30
0.0
 10
-7.197
 20
35.7384
 30
0.0
 10
-7.197
 20
35.6514
 30
0.0
 10
-7.2205
 20
35.5719
 30
0.0
 10
-7.2675
 20
35.4999
 30
0.0
 10
-7.2675
 20
35.4999
 30
0.0
 10
-7.3146
 20
35.4284
 30
0.0
 10
-7.3837
 20
35.3715
 30
0.0
 10
-7.4754
 20
35.3292
 30
0.0
 10
-7.4754
 20
35.3292
 30
0.0
 10
-7.356
 20
35.3019
 30
0.0
 10
-7.2633
 20
35.2445
 30
0.0
 10
-7.197
 20
35.1575
 30
0.0
 10
-7.197
 20
35.1575
 30
0.0
 10
-7.1311
 20
35.0709
 30
0.0
 10
-7.0982
 20
34.9623
 30
0.0
 10
-7.0982
 20
34.832
 30
0.0
 10
-7.0982
 20
34.832
 30
0.0
 10
-7.0982
 20
34.6556
 30
0.0
 10
-7.1622
 20
34.506
 30
0.0
 10
-7.2911
 20
34.3833
 30
0.0
 10
-7.2911
 20
34.3833
 30
0.0
 10
-7.4195
 20
34.2605
 30
0.0
 10
-7.5822
 20
34.1994
 30
0.0
 10
-7.7788
 20
34.1994
 30
0.0
 10
-7.7788
 20
34.1994
 30
0.0
 10
-7.9562
 20
34.1994
 30
0.0
 10
-8.1034
 20
34.252
 30
0.0
 10
-8.2205
 20
34.3579
 30
0.0
 10
-8.2205
 20
34.3579
 30
0.0
 10
-8.3376
 20
34.4632
 30
0.0
 10
-8.4044
 20
34.6001
 30
0.0
 10
-8.4209
 20
34.7685
 30
0.0
  0
SPLINE
  5
6C
330
1F
100
AcDbEntity
  8
DEFAULT_2
 62
   250
100
AcDbSpline
210
0.0
220
0.0
230
1.0
 70
    11
 71
     3
 72
    48
 73
    44
 74
     0
 42
0.0000000001
 43
0.0000000001
 40
0.0
 40
0.0
 40
0.0
 40
0.0
 40
0.0833333333333333
 40
0.0833333333333333
 40
0.0833333333333333
 40
0.0833333333333333
 40
0.1666666666666667
 40
0.1666666666666667
 40
0.1666666666666667
 40
0.1666666666666667
 40
0.25
 40
0.25
 40
0.25
 40
0.25
 40
0.3333333333333333
 40
0.3333333333333333
 40
0.3333333333333333
 40
0.3333333333333333
 40
0.4166666666666667
 40
0.4166666666666667
 40
0.4166666666666667
 40
0.4166666666666667
 40
0.5
 40
0.5
 40
0.5
 40
0.5
 40
0.5833333333333334
 40
0.5833333333333334
 40
0.5833333333333334
 40
0.5833333333333334
 40
0.6666666666666666
 40
0.6666666666666666
 40
0.6666666666666666
 40
0.6666666666666666
 40
0.75
 40
0.75
 40
0.75
 40
0.75
 40
0.8333333333333334
 40
0.8333333333333334
 40
0.8333333333333334
 40
0.8333333333333334
 40
1.0
 40
1.0
 40
1.0
 40
1.0
 10
-6.8362
 20
35.9905
 30
0.0
 10
-6.8362
 20
35.9905
 30
0.0
 10
-6.8362
 20
36.229
 30
0.0
 10
-6.8362
 20
36.229
 30
0.0
 10
-6.8362
 20
36.229
 30
0.0
 10
-6.8362
 20
36.229
 30
0.0
 10
-5.5286
 20
36.229
 30
0.0
 10
-5.5286
 20
36.229
 30
0.0
 10
-5.5286
 20
36.229
 30
0.0
 10
-5.5286
 20
36.229
 30
0.0
 10
-5.5286
 20
36.0361
 30
0.0
 10
-5.5286
 20
36.0361
 30
0.0
 10
-5.5286
 20
36.0361
 30
0.0
 10
-5.657
 20
35.8992
 30
0.0
 10
-5.7845
 20
35.7172
 30
0.0
 10
-5.911
 20
35.4905
 30
0.0
 10
-5.911
 20
35.4905
 30
0.0
 10
-6.0371
 20
35.2638
 30
0.0
 10
-6.1349
 20
35.03
 30
0.0
 10
-6.2036
 20
34.7906
 30
0.0
 10
-6.2036
 20
34.7906
 30
0.0
 10
-6.2534
 20
34.6213
 30
0.0
 10
-6.285
 20
34.4364
 30
0.0
 10
-6.2986
 20
34.2351
 30
0.0
 10
-6.2986
 20
34.2351
 30
0.0
 10
-6.2986
 20
34.2351
 30
0.0
 10
-6.5535
 20
34.2351
 30
0.0
 10
-6.5535
 20
34.2351
 30
0.0
 10
-6.5535
 20
34.2351
 30
0.0
 10
-6.5507
 20
34.3941
 30
0.0
 10
-6.5197
 20
34.586
 30
0.0
 10
-6.4599
 20
34.8113
 30
0.0
 10
-6.4599
 20
34.8113
 30
0.0
 10
-6.4002
 20
35.0361
 30
0.0
 10
-6.3146
 20
35.2534
 30
0.0
 10
-6.2031
 20
35.4623
 30
0.0
 10
-6.2031
 20
35.4623
 30
0.0
 10
-6.0912
 20
35.6711
 30
0.0
 10
-5.9726
 20
35.8475
 30
0.0
 10
-5.8466
 20
35.9905
 30
0.0
 10
-5.8466
 20
35.9905
 30
0.0
 10
-5.8466
 20
35.9905
 30
0.0
 10
-6.8362
 20
35.9905
 30
0.0
 10
-6.8362
 20
35.9905
 30
0.0
  0
SPLINE
  5
6D
330
1F
100
AcDbEntity
  8
DEFAULT_2
 62
   250
100
AcDbSpline
210
0.0
220
0.0
230
1.0
 70
    11
 71
     3
 72
    52
 73
    48
 74
     0
 42
0.0000000001
 43
0.0000000001
 40
0.0
 40
0.0
 40
0.0
 40
0.0
 40
0.0769230769230769
 40
0.0769230769230769
 40
0.0769230769230769
 40
0.0769230769230769
 40
0.1538461538461539
 40
0.1538461538461539
 40
0.1538461538461539
 40
0.1538461538461539
 40
0.2307692307692308
 40
0.2307692307692308
 40
0.2307692307692308
 40
0.2307692307692308
 40
0.3076923076923077
 40
0.3076923076923077
 40
0.3076923076923077
 40
0.3076923076923077
 40
0.3846153846153846
 40
0.3846153846153846
 40
0.3846153846153846
 40
0.3846153846153846
 40
0.4615384615384616
 40
0.4615384615384616
 40
0.4615384615384616
 40
0.4615384615384616
 40
0.5384615384615384
 40
0.5384615384615384
 40
0.5384615384615384
 40
0.5384615384615384
 40
0.6153846153846154
 40
0.6153846153846154
 40
0.6153846153846154
 40
0.6153846153846154
 40
0.6923076923076923
 40
0.6923076923076923
 40
0.6923076923076923
 40
0.6923076923076923
 40
0.7692307692307693
 40
0.7692307692307693
 40
0.7692307692307693
 40
0.7692307692307693
 40
0.8461538461538461
 40
0.8461538461538461
 40
0.8461538461538461
 40
0.8461538461538461
 40
1.0
 40
1.0
 40
1.0
 40
1.0
 10
-5.2831
 20
35.2313
 30
0.0
 10
-5.2831
 20
35.4703
 30
0.0
 10
-5.2586
 20
35.6627
 30
0.0
 10
-5.2092
 20
35.808
 30
0.0
 10
-5.2092
 20
35.808
 30
0.0
 10
-5.1603
 20
35.9538
 30
0.0
 10
-5.0869
 20
36.0662
 30
0.0
 10
-4.99
 20
36.1452
 30
0.0
 10
-4.99
 20
36.1452
 30
0.0
 10
-4.8931
 20
36.2243
 30
0.0
 10
-4.7713
 20
36.2638
 30
0.0
 10
-4.6246
 20
36.2638
 30
0.0
 10
-4.6246
 20
36.2638
 30
0.0
 10
-4.5159
 20
36.2638
 30
0.0
 10
-4.4209
 20
36.2417
 30
0.0
 10
-4.3391
 20
36.1979
 30
0.0
 10
-4.3391
 20
36.1979
 30
0.0
 10
-4.2572
 20
36.1546
 30
0.0
 10
-4.19
 20
36.0916
 30
0.0
 10
-4.1363
 20
36.0093
 30
0.0
 10
-4.1363
 20
36.0093
 30
0.0
 10
-4.0832
 20
35.927
 30
0.0
 10
-4.0413
 20
35.8268
 30
0.0
 10
-4.0112
 20
35.7087
 30
0.0
 10
-4.0112
 20
35.7087
 30
0.0
 10
-3.9806
 20
35.5907
 30
0.0
 10
-3.9656
 20
35.4317
 30
0.0
 10
-3.9656
 20
35.2313
 30
0.0
 10
-3.9656
 20
35.2313
 30
0.0
 10
-3.9656
 20
34.9943
 30
0.0
 10
-3.9901
 20
34.8033
 30
0.0
 10
-4.0385
 20
34.6575
 30
0.0
 10
-4.0385
 20
34.6575
 30
0.0
 10
-4.0874
 20
34.5117
 30
0.0
 10
-4.1603
 20
34.3992
 30
0.0
 10
-4.2572
 20
34.3198
 30
0.0
 10
-4.2572
 20
34.3198
 30
0.0
 10
-4.3541
 20
34.2403
 30
0.0
 10
-4.4764
 20
34.2008
 30
0.0
 10
-4.6246
 20
34.2008
 30
0.0
 10
-4.6246
 20
34.2008
 30
0.0
 10
-4.8193
 20
34.2008
 30
0.0
 10
-4.9722
 20
34.2704
 30
0.0
 10
-5.0832
 20
34.4101
 30
0.0
 10
-5.0832
 20
34.4101
 30
0.0
 10
-5.2163
 20
34.578
 30
0.0
 10
-5.2831
 20
34.8522
 30
0.0
 10
-5.2831
 20
35.2313
 30
0.0
  0
SPLINE
  5
6E
330
1F
100
AcDbEntity
  8
DEFAULT_2
 62
   250
100
AcDbSpline
210
0.0
220
0.0
230
1.0
 70
    11
 71
     3
 72
    36
 73
    32
 74
     0
 42
0.0000000001
 43
0.0000000001
 40
0.0
 40
0.0
 40
0.0
 40
0.0
 40
0.1111111111111111
 40
0.1111111111111111
 40
0.1111111111111111
 40
0.1111111111111111
 40
0.2222222222222222
 40
0.2222222222222222
 40
0.2222222222222222
 40
0.2222222222222222
 40
0.3333333333333333
 40
0.3333333333333333
 40
0.3333333333333333
 40
0.3333333333333333
 40
0.4444444444444444
 40
0.4444444444444444
 40
0.4444444444444444
 40
0.4444444444444444
 40
0.5555555555555556
 40
0.5555555555555556
 40
0.5555555555555556
 40
0.5555555555555556
 40
0.6666666666666666
 40
0.6666666666666666
 40
0.6666666666666666
 40
0.6666666666666666
 40
0.7777777777777778
 40
0.7777777777777778
 40
0.7777777777777778
 40
0.7777777777777778
 40
1.0
 40
1.0
 40
1.0
 40
1.0
 10
-5.0281
 20
35.2313
 30
0.0
 10
-5.0281
 20
34.8997
 30
0.0
 10
-4.9891
 20
34.6791
 30
0.0
 10
-4.9115
 20
34.5691
 30
0.0
 10
-4.9115
 20
34.5691
 30
0.0
 10
-4.8339
 20
34.4595
 30
0.0
 10
-4.7384
 20
34.4044
 30
0.0
 10
-4.6246
 20
34.4044
 30
0.0
 10
-4.6246
 20
34.4044
 30
0.0
 10
-4.5103
 20
34.4044
 30
0.0
 10
-4.4148
 20
34.4599
 30
0.0
 10
-4.3372
 20
34.57
 30
0.0
 10
-4.3372
 20
34.57
 30
0.0
 10
-4.2596
 20
34.6801
 30
0.0
 10
-4.2205
 20
34.9007
 30
0.0
 10
-4.2205
 20
35.2313
 30
0.0
 10
-4.2205
 20
35.2313
 30
0.0
 10
-4.2205
 20
35.5639
 30
0.0
 10
-4.2596
 20
35.7849
 30
0.0
 10
-4.3372
 20
35.8941
 30
0.0
 10
-4.3372
 20
35.8941
 30
0.0
 10
-4.4148
 20
36.0037
 30
0.0
 10
-4.5112
 20
36.0582
 30
0.0
 10
-4.6269
 20
36.0582
 30
0.0
 10
-4.6269
 20
36.0582
 30
0.0
 10
-4.7412
 20
36.0582
 30
0.0
 10
-4.832
 20
36.0098
 30
0.0
 10
-4.9002
 20
35.9134
 30
0.0
 10
-4.9002
 20
35.9134
 30
0.0
 10
-4.9853
 20
35.7906
 30
0.0
 10
-5.0281
 20
35.5629
 30
0.0
 10
-5.0281
 20
35.2313
 30
0.0
  0
SPLINE
  5
6F
330
1F
100
AcDbEntity
  8
DEFAULT_2
 62
   250
100
AcDbSpline
210
0.0
220
0.0
230
1.0
 70
    24
 71
     3
 72
     8
 73
     4
 74
     0
 42
0.0000000001
 43
0.0000000001
 40
0.0
 40
0.0
 40
0.0
 40
0.0
 40
1.0
 40
1.0
 40
1.0
 40
1.0
 10
-28.1419
 20
33.62
 30
0.0
 10
-28.1419
 20
33.62
 30
0.0
 10
17.4806
 20
33.62
 30
0.0
 10
17.4806
 20
33.62
 30
0.0
  0
SPLINE
  5
70
330
1F
100
AcDbEntity
  8
DEFAULT_2
 62
   250
100
AcDbSpline
210
0.0
220
0.0
230
1.0
 70
    11
 71
     3
 72
    20
 73
    16
 74
     0
 42
0.0000000001
 43
0.0000000001
 40
0.0
 40
0.0
 40
0.0
 40
0.0
 40
0.2
 40
0.2
 40
0.2
 40
0.2
 40
0.4
 40
0.4
 40
0.4
 40
0.4
 40
0.6
 40
0.6
 40
0.6
 40
0.6
 40
1.0
 40
1.0
 40
1.0
 40
1.0
 10
14.9298
 20
34.0636
 30
0.0
 10
14.9298
 20
34.0636
 30
0.0
 10
17.9298
 20
33.6402
 30
0.0
 10
17.9298
 20
33.6402
 30
0.0
 10
17.9298
 20
33.6402
 30
0.0
 10
17.9298
 20
33.6402
 30
0.0
 10
17.9298
 20
33.5462
 30
0.0
 10
17.9298
 20
33.5462
 30
0.0
 10
17.9298
 20
33.5462
 30
0.0
 10
17.9298
 20
33.5462
 30
0.0
 10
14.9298
 20
33.0946
 30
0.0
 10
14.9298
 20
33.0946
 30
0.0
 10
14.9298
 20
33.0946
 30
0.0
 10
14.9298
 20
33.0946
 30
0.0
 10
14.9298
 20
34.0636
 30
0.0
 10
14.9298
 20
34.0636
 30
0.0
  0
SPLINE
  5
71
330
1F
100
AcDbEntity
  8
DEFAULT_2
 62
   250
100
AcDbSpline
210
0.0
220
0.0
230
1.0
 70
    11
 71
     3
 72
    20
 73
    16
 74
     0
 42
0.0000000001
 43
0.0000000001
 40
0.0
 40
0.0
 40
0.0
 40
0.0
 40
0.2
 40
0.2
 40
0.2
 40
0.2
 40
0.4
 40
0.4
 40
0.4
 40
0.4
 40
0.6
 40
0.6
 40
0.6
 40
0.6
 40
1.0
 40
1.0
 40
1.0
 40
1.0
 10
-26.2893
 20
33.168
 30
0.0
 10
-26.2893
 20
33.168
 30
0.0
 10
-29.2892
 20
33.5913
 30
0.0
 10
-29.2892
 20
33.5913
 30
0.0
 10
-29.2892
 20
33.5913
 30
0.0
 10
-29.2892
 20
33.5913
 30
0.0
 10
-29.2892
 20
33.6853
 30
0.0
 10
-29.2892
 20
33.6853
 30
0.0
 10
-29.2892
 20
33.6853
 30
0.0
 10
-29.2892
 20
33.6853
 30
0.0
 10
-26.2893
 20
34.1368
 30
0.0
 10
-26.2893
 20
34.1368
 30
0.0
 10
-26.2893
 20
34.1368
 30
0.0
 10
-26.2893
 20
34.1368
 30
0.0
 10
-26.2893
 20
33.168
 30
0.0
 10
-26.2893
 20
33.168
 30
0.0
  0
SPLINE
  5
72
330
1F
100
AcDbEntity
  8
DEFAULT_2
 62
   250
100
AcDbSpline
210
0.0
220
0.0
230
1.0
 70
    24
 71
     3
 72
     8
 73
     4
 74
     0
 42
0.0000000001
 43
0.0000000001
 40
0.0
 40
0.0
 40
0.0
 40
0.0
 40
1.0
 40
1.0
 40
1.0
 40
1.0
 10
-29.363
 20
18.4608
 30
0.0
 10
-29.363
 20
18.4608
 30
0.0
 10
-29.363
 20
34.434
 30
0.0
 10
-29.363
 20
34.434
 30
0.0
  0
SPLINE
  5
73
330
1F
100
AcDbEntity
  8
DEFAULT_2
 62
   250
100
AcDbSpline
210
0.0
220
0.0
230
1.0
 70
    24
 71
     3
 72
     8
 73
     4
 74
     0
 42
0.0000000001
 43
0.0000000001
 40
0.0
 40
0.0
 40
0.0
 40
0.0
 40
1.0
 40
1.0
 40
1.0
 40
1.0
 10
17.9329
 20
18.4815
 30
0.0
 10
17.9329
 20
18.4815
 30
0.0
 10
17.9329
 20
34.1672
 30
0.0
 10
17.9329
 20
34.1672
 30
0.0
  0
SPLINE
  5
74
330
1F
100
AcDbEntity
  8
DEFAULT_2
 62
   250
100
AcDbSpline
210
0.0
220
0.0
230
1.0
 70
    24
 71
     3
 72
     8
 73
     4
 74
     0
 42
0.0000000001
 43
0.0000000001
 40
0.0
 40
0.0
 40
0.0
 40
0.0
 40
1.0
 40
1.0
 40
1.0
 40
1.0
 10
-33.5849
 20
-34.6925
 30
0.0
 10
-33.5849
 20
-34.6925
 30
0.0
 10
-33.5849
 20
16.6289
 30
0.0
 10
-33.5849
 20
16.6289
 30
0.0
  0
SPLINE
  5
75
330
1F
100
AcDbEntity
  8
DEFAULT_2
 62
   250
100
AcDbSpline
210
0.0
220
0.0
230
1.0
 70
    11
 71
     3
 72
    20
 73
    16
 74
     0
 42
0.0000000001
 43
0.0000000001
 40
0.0
 40
0.0
 40
0.0
 40
0.0
 40
0.2
 40
0.2
 40
0.2
 40
0.2
 40
0.4
 40
0.4
 40
0.4
 40
0.4
 40
0.6
 40
0.6
 40
0.6
 40
0.6
 40
1.0
 40
1.0
 40
1.0
 40
1.0
 10
-33.0992
 20
-33.0364
 30
0.0
 10
-33.0992
 20
-33.0364
 30
0.0
 10
-33.5225
 20
-36.0364
 30
0.0
 10
-33.5225
 20
-36.0364
 30
0.0
 10
-33.5225
 20
-36.0364
 30
0.0
 10
-33.5225
 20
-36.0364
 30
0.0
 10
-33.6165
 20
-36.0364
 30
0.0
 10
-33.6165
 20
-36.0364
 30
0.0
 10
-33.6165
 20
-36.0364
 30
0.0
 10
-33.6165
 20
-36.0364
 30
0.0
 10
-34.068
 20
-33.0364
 30
0.0
 10
-34.068
 20
-33.0364
 30
0.0
 10
-34.068
 20
-33.0364
 30
0.0
 10
-34.068
 20
-33.0364
 30
0.0
 10
-33.0992
 20
-33.0364
 30
0.0
 10
-33.0992
 20
-33.0364
 30
0.0
  0
SPLINE
  5
76
330
1F
100
AcDbEntity
  8
DEFAULT_2
 62
   250
100
AcDbSpline
210
0.0
220
0.0
230
1.0
 70
    11
 71
     3
 72
    20
 73
    16
 74
     0
 42
0.0000000001
 43
0.0000000001
 40
0.0
 40
0.0
 40
0.0
 40
0.0
 40
0.2
 40
0.2
 40
0.2
 40
0.2
 40
0.4
 40
0.4
 40
0.4
 40
0.4
 40
0.6
 40
0.6
 40
0.6
 40
0.6
 40
1.0
 40
1.0
 40
1.0
 40
1.0
 10
-34.0736
 20
14.3189
 30
0.0
 10
-34.0736
 20
14.3189
 30
0.0
 10
-33.6502
 20
17.319
 30
0.0
 10
-33.6502
 20
17.319
 30
0.0
 10
-33.6502
 20
17.319
 30
0.0
 10
-33.6502
 20
17.319
 30
0.0
 10
-33.5562
 20
17.319
 30
0.0
 10
-33.5562
 20
17.319
 30
0.0
 10
-33.5562
 20
17.319
 30
0.0
 10
-33.5562
 20
17.319
 30
0.0
 10
-33.1047
 20
14.3189
 30
0.0
 10
-33.1047
 20
14.3189
 30
0.0
 10
-33.1047
 20
14.3189
 30
0.0
 10
-33.1047
 20
14.3189
 30
0.0
 10
-34.0736
 20
14.3189
 30
0.0
 10
-34.0736
 20
14.3189
 30
0.0
  0
SPLINE
  5
77
330
1F
100
AcDbEntity
  8
DEFAULT_2
 62
   250
100
AcDbSpline
210
0.0
220
0.0
230
1.0
 70
    11
 71
     3
 72
    48
 73
    44
 74
     0
 42
0.0000000001
 43
0.0000000001
 40
0.0
 40
0.0
 40
0.0
 40
0.0
 40
0.0833333333333333
 40
0.0833333333333333
 40
0.0833333333333333
 40
0.0833333333333333
 40
0.1666666666666667
 40
0.1666666666666667
 40
0.1666666666666667
 40
0.1666666666666667
 40
0.25
 40
0.25
 40
0.25
 40
0.25
 40
0.3333333333333333
 40
0.3333333333333333
 40
0.3333333333333333
 40
0.3333333333333333
 40
0.4166666666666667
 40
0.4166666666666667
 40
0.4166666666666667
 40
0.4166666666666667
 40
0.5
 40
0.5
 40
0.5
 40
0.5
 40
0.5833333333333334
 40
0.5833333333333334
 40
0.5833333333333334
 40
0.5833333333333334
 40
0.6666666666666666
 40
0.6666666666666666
 40
0.6666666666666666
 40
0.6666666666666666
 40
0.75
 40
0.75
 40
0.75
 40
0.75
 40
0.8333333333333334
 40
0.8333333333333334
 40
0.8333333333333334
 40
0.8333333333333334
 40
1.0
 40
1.0
 40
1.0
 40
1.0
 10
-34.477
 20
-13.0382
 30
0.0
 10
-34.477
 20
-13.0382
 30
0.0
 10
-34.9605
 20
-13.0382
 30
0.0
 10
-34.9605
 20
-13.0382
 30
0.0
 10
-34.9605
 20
-13.0382
 30
0.0
 10
-34.9605
 20
-13.0382
 30
0.0
 10
-34.9605
 20
-13.9145
 30
0.0
 10
-34.9605
 20
-13.9145
 30
0.0
 10
-34.9605
 20
-13.9145
 30
0.0
 10
-34.9605
 20
-13.9145
 30
0.0
 10
-35.1882
 20
-13.9145
 30
0.0
 10
-35.1882
 20
-13.9145
 30
0.0
 10
-35.1882
 20
-13.9145
 30
0.0
 10
-35.1882
 20
-13.9145
 30
0.0
 10
-36.4972
 20
-12.9926
 30
0.0
 10
-36.4972
 20
-12.9926
 30
0.0
 10
-36.4972
 20
-12.9926
 30
0.0
 10
-36.4972
 20
-12.9926
 30
0.0
 10
-36.4972
 20
-12.7898
 30
0.0
 10
-36.4972
 20
-12.7898
 30
0.0
 10
-36.4972
 20
-12.7898
 30
0.0
 10
-36.4972
 20
-12.7898
 30
0.0
 10
-35.1882
 20
-12.7898
 30
0.0
 10
-35.1882
 20
-12.7898
 30
0.0
 10
-35.1882
 20
-12.7898
 30
0.0
 10
-35.1882
 20
-12.7898
 30
0.0
 10
-35.1882
 20
-12.517
 30
0.0
 10
-35.1882
 20
-12.517
 30
0.0
 10
-35.1882
 20
-12.517
 30
0.0
 10
-35.1882
 20
-12.517
 30
0.0
 10
-34.9605
 20
-12.517
 30
0.0
 10
-34.9605
 20
-12.517
 30
0.0
 10
-34.9605
 20
-12.517
 30
0.0
 10
-34.9605
 20
-12.517
 30
0.0
 10
-34.9605
 20
-12.7898
 30
0.0
 10
-34.9605
 20
-12.7898
 30
0.0
 10
-34.9605
 20
-12.7898
 30
0.0
 10
-34.9605
 20
-12.7898
 30
0.0
 10
-34.477
 20
-12.7898
 30
0.0
 10
-34.477
 20
-12.7898
 30
0.0
 10
-34.477
 20
-12.7898
 30
0.0
 10
-34.477
 20
-12.7898
 30
0.0
 10
-34.477
 20
-13.0382
 30
0.0
 10
-34.477
 20
-13.0382
 30
0.0
  0
SPLINE
  5
78
330
1F
100
AcDbEntity
  8
DEFAULT_2
 62
   250
100
AcDbSpline
210
0.0
220
0.0
230
1.0
 70
    11
 71
     3
 72
    16
 73
    12
 74
     0
 42
0.0000000001
 43
0.0000000001
 40
0.0
 40
0.0
 40
0.0
 40
0.0
 40
0.25
 40
0.25
 40
0.25
 40
0.25
 40
0.5
 40
0.5
 40
0.5
 40
0.5
 40
1.0
 40
1.0
 40
1.0
 40
1.0
 10
-35.1882
 20
-13.0382
 30
0.0
 10
-35.1882
 20
-13.0382
 30
0.0
 10
-36.0988
 20
-13.0382
 30
0.0
 10
-36.0988
 20
-13.0382
 30
0.0
 10
-36.0988
 20
-13.0382
 30
0.0
 10
-36.0988
 20
-13.0382
 30
0.0
 10
-35.1882
 20
-13.6703
 30
0.0
 10
-35.1882
 20
-13.6703
 30
0.0
 10
-35.1882
 20
-13.6703
 30
0.0
 10
-35.1882
 20
-13.6703
 30
0.0
 10
-35.1882
 20
-13.0382
 30
0.0
 10
-35.1882
 20
-13.0382
 30
0.0
  0
SPLINE
  5
79
330
1F
100
AcDbEntity
  8
DEFAULT_2
 62
   250
100
AcDbSpline
210
0.0
220
0.0
230
1.0
 70
    11
 71
     3
 72
    92
 73
    88
 74
     0
 42
0.0000000001
 43
0.0000000001
 40
0.0
 40
0.0
 40
0.0
 40
0.0
 40
0.0434782608695652
 40
0.0434782608695652
 40
0.0434782608695652
 40
0.0434782608695652
 40
0.0869565217391304
 40
0.0869565217391304
 40
0.0869565217391304
 40
0.0869565217391304
 40
0.1304347826086956
 40
0.1304347826086956
 40
0.1304347826086956
 40
0.1304347826086956
 40
0.1739130434782609
 40
0.1739130434782609
 40
0.1739130434782609
 40
0.1739130434782609
 40
0.2173913043478261
 40
0.2173913043478261
 40
0.2173913043478261
 40
0.2173913043478261
 40
0.2608695652173913
 40
0.2608695652173913
 40
0.2608695652173913
 40
0.2608695652173913
 40
0.3043478260869565
 40
0.3043478260869565
 40
0.3043478260869565
 40
0.3043478260869565
 40
0.3478260869565217
 40
0.3478260869565217
 40
0.3478260869565217
 40
0.3478260869565217
 40
0.391304347826087
 40
0.391304347826087
 40
0.391304347826087
 40
0.391304347826087
 40
0.4347826086956522
 40
0.4347826086956522
 40
0.4347826086956522
 40
0.4347826086956522
 40
0.4782608695652174
 40
0.4782608695652174
 40
0.4782608695652174
 40
0.4782608695652174
 40
0.5217391304347826
 40
0.5217391304347826
 40
0.5217391304347826
 40
0.5217391304347826
 40
0.5652173913043478
 40
0.5652173913043478
 40
0.5652173913043478
 40
0.5652173913043478
 40
0.6086956521739131
 40
0.6086956521739131
 40
0.6086956521739131
 40
0.6086956521739131
 40
0.6521739130434783
 40
0.6521739130434783
 40
0.6521739130434783
 40
0.6521739130434783
 40
0.6956521739130435
 40
0.6956521739130435
 40
0.6956521739130435
 40
0.6956521739130435
 40
0.7391304347826086
 40
0.7391304347826086
 40
0.7391304347826086
 40
0.7391304347826086
 40
0.782608695652174
 40
0.782608695652174
 40
0.782608695652174
 40
0.782608695652174
 40
0.8260869565217391
 40
0.8260869565217391
 40
0.8260869565217391
 40
0.8260869565217391
 40
0.8695652173913043
 40
0.8695652173913043
 40
0.8695652173913043
 40
0.8695652173913043
 40
0.9130434782608695
 40
0.9130434782608695
 40
0.9130434782608695
 40
0.9130434782608695
 40
1.0
 40
1.0
 40
1.0
 40
1.0
 10
-34.7155
 20
-10.9596
 30
0.0
 10
-34.7155
 20
-10.9596
 30
0.0
 10
-34.477
 20
-10.9596
 30
0.0
 10
-34.477
 20
-10.9596
 30
0.0
 10
-34.477
 20
-10.9596
 30
0.0
 10
-34.477
 20
-10.9596
 30
0.0
 10
-34.477
 20
-12.295
 30
0.0
 10
-34.477
 20
-12.295
 30
0.0
 10
-34.477
 20
-12.295
 30
0.0
 10
-34.5367
 20
-12.2969
 30
0.0
 10
-34.5941
 20
-12.2875
 30
0.0
 10
-34.6491
 20
-12.2663
 30
0.0
 10
-34.6491
 20
-12.2663
 30
0.0
 10
-34.7404
 20
-12.2324
 30
0.0
 10
-34.8298
 20
-12.1779
 30
0.0
 10
-34.9182
 20
-12.1031
 30
0.0
 10
-34.9182
 20
-12.1031
 30
0.0
 10
-35.0062
 20
-12.0278
 30
0.0
 10
-35.1082
 20
-11.9196
 30
0.0
 10
-35.2239
 20
-11.7785
 30
0.0
 10
-35.2239
 20
-11.7785
 30
0.0
 10
-35.4041
 20
-11.5589
 30
0.0
 10
-35.5466
 20
-11.4102
 30
0.0
 10
-35.652
 20
-11.3331
 30
0.0
 10
-35.652
 20
-11.3331
 30
0.0
 10
-35.7568
 20
-11.256
 30
0.0
 10
-35.8566
 20
-11.2174
 30
0.0
 10
-35.9502
 20
-11.2174
 30
0.0
 10
-35.9502
 20
-11.2174
 30
0.0
 10
-36.0485
 20
-11.2174
 30
0.0
 10
-36.1313
 20
-11.2527
 30
0.0
 10
-36.199
 20
-11.3228
 30
0.0
 10
-36.199
 20
-11.3228
 30
0.0
 10
-36.2662
 20
-11.3933
 30
0.0
 10
-36.3001
 20
-11.485
 30
0.0
 10
-36.3001
 20
-11.5979
 30
0.0
 10
-36.3001
 20
-11.5979
 30
0.0
 10
-36.3001
 20
-11.7174
 30
0.0
 10
-36.2644
 20
-11.8129
 30
0.0
 10
-36.1924
 20
-11.8844
 30
0.0
 10
-36.1924
 20
-11.8844
 30
0.0
 10
-36.1209
 20
-11.9563
 30
0.0
 10
-36.0217
 20
-11.9926
 30
0.0
 10
-35.8951
 20
-11.9935
 30
0.0
 10
-35.8951
 20
-11.9935
 30
0.0
 10
-35.8951
 20
-11.9935
 30
0.0
 10
-35.921
 20
-12.2484
 30
0.0
 10
-35.921
 20
-12.2484
 30
0.0
 10
-35.921
 20
-12.2484
 30
0.0
 10
-36.1115
 20
-12.231
 30
0.0
 10
-36.2564
 20
-12.1652
 30
0.0
 10
-36.3561
 20
-12.0513
 30
0.0
 10
-36.3561
 20
-12.0513
 30
0.0
 10
-36.4558
 20
-11.9375
 30
0.0
 10
-36.5057
 20
-11.7842
 30
0.0
 10
-36.5057
 20
-11.5923
 30
0.0
 10
-36.5057
 20
-11.5923
 30
0.0
 10
-36.5057
 20
-11.3985
 30
0.0
 10
-36.4516
 20
-11.2451
 30
0.0
 10
-36.3443
 20
-11.1323
 30
0.0
 10
-36.3443
 20
-11.1323
 30
0.0
 10
-36.2366
 20
-11.0189
 30
0.0
 10
-36.1035
 20
-10.9625
 30
0.0
 10
-35.9445
 20
-10.9625
 30
0.0
 10
-35.9445
 20
-10.9625
 30
0.0
 10
-35.8636
 20
-10.9625
 30
0.0
 10
-35.7841
 20
-10.9789
 30
0.0
 10
-35.7061
 20
-11.0123
 30
0.0
 10
-35.7061
 20
-11.0123
 30
0.0
 10
-35.628
 20
-11.0452
 30
0.0
 10
-35.5457
 20
-11.1003
 30
0.0
 10
-35.4596
 20
-11.1769
 30
0.0
 10
-35.4596
 20
-11.1769
 30
0.0
 10
-35.373
 20
-11.2536
 30
0.0
 10
-35.2545
 20
-11.3811
 30
0.0
 10
-35.104
 20
-11.5593
 30
0.0
 10
-35.104
 20
-11.5593
 30
0.0
 10
-34.9789
 20
-11.708
 30
0.0
 10
-34.8942
 20
-11.8035
 30
0.0
 10
-34.8495
 20
-11.8458
 30
0.0
 10
-34.8495
 20
-11.8458
 30
0.0
 10
-34.8053
 20
-11.8881
 30
0.0
 10
-34.7606
 20
-11.9229
 30
0.0
 10
-34.7155
 20
-11.9507
 30
0.0
 10
-34.7155
 20
-11.9507
 30
0.0
 10
-34.7155
 20
-11.9507
 30
0.0
 10
-34.7155
 20
-10.9596
 30
0.0
 10
-34.7155
 20
-10.9596
 30
0.0
  0
SPLINE
  5
7A
330
1F
100
AcDbEntity
  8
DEFAULT_2
 62
   250
100
AcDbSpline
210
0.0
220
0.0
230
1.0
 70
    11
 71
     3
 72
    52
 73
    48
 74
     0
 42
0.0000000001
 43
0.0000000001
 40
0.0
 40
0.0
 40
0.0
 40
0.0
 40
0.0769230769230769
 40
0.0769230769230769
 40
0.0769230769230769
 40
0.0769230769230769
 40
0.1538461538461539
 40
0.1538461538461539
 40
0.1538461538461539
 40
0.1538461538461539
 40
0.2307692307692308
 40
0.2307692307692308
 40
0.2307692307692308
 40
0.2307692307692308
 40
0.3076923076923077
 40
0.3076923076923077
 40
0.3076923076923077
 40
0.3076923076923077
 40
0.3846153846153846
 40
0.3846153846153846
 40
0.3846153846153846
 40
0.3846153846153846
 40
0.4615384615384616
 40
0.4615384615384616
 40
0.4615384615384616
 40
0.4615384615384616
 40
0.5384615384615384
 40
0.5384615384615384
 40
0.5384615384615384
 40
0.5384615384615384
 40
0.6153846153846154
 40
0.6153846153846154
 40
0.6153846153846154
 40
0.6153846153846154
 40
0.6923076923076923
 40
0.6923076923076923
 40
0.6923076923076923
 40
0.6923076923076923
 40
0.7692307692307693
 40
0.7692307692307693
 40
0.7692307692307693
 40
0.7692307692307693
 40
0.8461538461538461
 40
0.8461538461538461
 40
0.8461538461538461
 40
0.8461538461538461
 40
1.0
 40
1.0
 40
1.0
 40
1.0
 10
-35.4732
 20
-10.6939
 30
0.0
 10
-35.7122
 20
-10.6939
 30
0.0
 10
-35.9046
 20
-10.6694
 30
0.0
 10
-36.0499
 20
-10.62
 30
0.0
 10
-36.0499
 20
-10.62
 30
0.0
 10
-36.1957
 20
-10.5711
 30
0.0
 10
-36.3081
 20
-10.4977
 30
0.0
 10
-36.3871
 20
-10.4008
 30
0.0
 10
-36.3871
 20
-10.4008
 30
0.0
 10
-36.4662
 20
-10.3039
 30
0.0
 10
-36.5057
 20
-10.1821
 30
0.0
 10
-36.5057
 20
-10.0354
 30
0.0
 10
-36.5057
 20
-10.0354
 30
0.0
 10
-36.5057
 20
-9.9267
 30
0.0
 10
-36.4836
 20
-9.8317
 30
0.0
 10
-36.4398
 20
-9.7499
 30
0.0
 10
-36.4398
 20
-9.7499
 30
0.0
 10
-36.3965
 20
-9.668
 30
0.0
 10
-36.3335
 20
-9.6008
 30
0.0
 10
-36.2512
 20
-9.5471
 30
0.0
 10
-36.2512
 20
-9.5471
 30
0.0
 10
-36.1689
 20
-9.494
 30
0.0
 10
-36.0687
 20
-9.4521
 30
0.0
 10
-35.9506
 20
-9.422
 30
0.0
 10
-35.9506
 20
-9.422
 30
0.0
 10
-35.8326
 20
-9.3914
 30
0.0
 10
-35.6736
 20
-9.3764
 30
0.0
 10
-35.4732
 20
-9.3764
 30
0.0
 10
-35.4732
 20
-9.3764
 30
0.0
 10
-35.2362
 20
-9.3764
 30
0.0
 10
-35.0452
 20
-9.4009
 30
0.0
 10
-34.8994
 20
-9.4493
 30
0.0
 10
-34.8994
 20
-9.4493
 30
0.0
 10
-34.7536
 20
-9.4982
 30
0.0
 10
-34.6411
 20
-9.5711
 30
0.0
 10
-34.5617
 20
-9.668
 30
0.0
 10
-34.5617
 20
-9.668
 30
0.0
 10
-34.4822
 20
-9.7649
 30
0.0
 10
-34.4427
 20
-9.8872
 30
0.0
 10
-34.4427
 20
-10.0354
 30
0.0
 10
-34.4427
 20
-10.0354
 30
0.0
 10
-34.4427
 20
-10.2301
 30
0.0
 10
-34.5123
 20
-10.383
 30
0.0
 10
-34.652
 20
-10.494
 30
0.0
 10
-34.652
 20
-10.494
 30
0.0
 10
-34.8199
 20
-10.6271
 30
0.0
 10
-35.0941
 20
-10.6939
 30
0.0
 10
-35.4732
 20
-10.6939
 30
0.0
  0
SPLINE
  5
7B
330
1F
100
AcDbEntity
  8
DEFAULT_2
 62
   250
100
AcDbSpline
210
0.0
220
0.0
230
1.0
 70
    11
 71
     3
 72
    36
 73
    32
 74
     0
 42
0.0000000001
 43
0.0000000001
 40
0.0
 40
0.0
 40
0.0
 40
0.0
 40
0.1111111111111111
 40
0.1111111111111111
 40
0.1111111111111111
 40
0.1111111111111111
 40
0.2222222222222222
 40
0.2222222222222222
 40
0.2222222222222222
 40
0.2222222222222222
 40
0.3333333333333333
 40
0.3333333333333333
 40
0.3333333333333333
 40
0.3333333333333333
 40
0.4444444444444444
 40
0.4444444444444444
 40
0.4444444444444444
 40
0.4444444444444444
 40
0.5555555555555556
 40
0.5555555555555556
 40
0.5555555555555556
 40
0.5555555555555556
 40
0.6666666666666666
 40
0.6666666666666666
 40
0.6666666666666666
 40
0.6666666666666666
 40
0.7777777777777778
 40
0.7777777777777778
 40
0.7777777777777778
 40
0.7777777777777778
 40
1.0
 40
1.0
 40
1.0
 40
1.0
 10
-35.4732
 20
-10.4389
 30
0.0
 10
-35.1416
 20
-10.4389
 30
0.0
 10
-34.921
 20
-10.3999
 30
0.0
 10
-34.811
 20
-10.3223
 30
0.0
 10
-34.811
 20
-10.3223
 30
0.0
 10
-34.7014
 20
-10.2447
 30
0.0
 10
-34.6463
 20
-10.1492
 30
0.0
 10
-34.6463
 20
-10.0354
 30
0.0
 10
-34.6463
 20
-10.0354
 30
0.0
 10
-34.6463
 20
-9.9211
 30
0.0
 10
-34.7018
 20
-9.8256
 30
0.0
 10
-34.8119
 20
-9.748
 30
0.0
 10
-34.8119
 20
-9.748
 30
0.0
 10
-34.922
 20
-9.6704
 30
0.0
 10
-35.1426
 20
-9.6313
 30
0.0
 10
-35.4732
 20
-9.6313
 30
0.0
 10
-35.4732
 20
-9.6313
 30
0.0
 10
-35.8058
 20
-9.6313
 30
0.0
 10
-36.0268
 20
-9.6704
 30
0.0
 10
-36.136
 20
-9.748
 30
0.0
 10
-36.136
 20
-9.748
 30
0.0
 10
-36.2456
 20
-9.8256
 30
0.0
 10
-36.3001
 20
-9.922
 30
0.0
 10
-36.3001
 20
-10.0377
 30
0.0
 10
-36.3001
 20
-10.0377
 30
0.0
 10
-36.3001
 20
-10.152
 30
0.0
 10
-36.2517
 20
-10.2428
 30
0.0
 10
-36.1553
 20
-10.311
 30
0.0
 10
-36.1553
 20
-10.311
 30
0.0
 10
-36.0325
 20
-10.3961
 30
0.0
 10
-35.8048
 20
-10.4389
 30
0.0
 10
-35.4732
 20
-10.4389
 30
0.0
  0
SPLINE
  5
7C
330
1F
100
AcDbEntity
  8
DEFAULT_2
 62
   250
100
AcDbSpline
210
0.0
220
0.0
230
1.0
 70
    24
 71
     3
 72
     8
 73
     4
 74
     0
 42
0.0000000001
 43
0.0000000001
 40
0.0
 40
0.0
 40
0.0
 40
0.0
 40
1.0
 40
1.0
 40
1.0
 40
1.0
 10
-34.2762
 20
17.4142
 30
0.0
 10
-34.2762
 20
17.4142
 30
0.0
 10
-30.1833
 20
17.4142
 30
0.0
 10
-30.1833
 20
17.4142
 30
0.0
  0
SPLINE
  5
7D
330
1F
100
AcDbEntity
  8
DEFAULT_2
 62
   250
100
AcDbSpline
210
0.0
220
0.0
230
1.0
 70
    24
 71
     3
 72
     8
 73
     4
 74
     0
 42
0.0000000001
 43
0.0000000001
 40
0.0
 40
0.0
 40
0.0
 40
0.0
 40
1.0
 40
1.0
 40
1.0
 40
1.0
 10
-34.227
 20
-36.16
 30
0.0
 10
-34.227
 20
-36.16
 30
0.0
 10
-11.9181
 20
-36.16
 30
0.0
 10
-11.9181
 20
-36.16
 30
0.0
  0
SPLINE
  5
7E
330
1F
100
AcDbEntity
  8
DEFAULT_2
 62
   250
100
AcDbSpline
210
0.0
220
0.0
230
1.0
 70
    11
 71
     3
 72
    92
 73
    88
 74
     0
 42
0.0000000001
 43
0.0000000001
 40
0.0
 40
0.0
 40
0.0
 40
0.0
 40
0.0434782608695652
 40
0.0434782608695652
 40
0.0434782608695652
 40
0.0434782608695652
 40
0.0869565217391304
 40
0.0869565217391304
 40
0.0869565217391304
 40
0.0869565217391304
 40
0.1304347826086956
 40
0.1304347826086956
 40
0.1304347826086956
 40
0.1304347826086956
 40
0.1739130434782609
 40
0.1739130434782609
 40
0.1739130434782609
 40
0.1739130434782609
 40
0.2173913043478261
 40
0.2173913043478261
 40
0.2173913043478261
 40
0.2173913043478261
 40
0.2608695652173913
 40
0.2608695652173913
 40
0.2608695652173913
 40
0.2608695652173913
 40
0.3043478260869565
 40
0.3043478260869565
 40
0.3043478260869565
 40
0.3043478260869565
 40
0.3478260869565217
 40
0.3478260869565217
 40
0.3478260869565217
 40
0.3478260869565217
 40
0.391304347826087
 40
0.391304347826087
 40
0.391304347826087
 40
0.391304347826087
 40
0.4347826086956522
 40
0.4347826086956522
 40
0.4347826086956522
 40
0.4347826086956522
 40
0.4782608695652174
 40
0.4782608695652174
 40
0.4782608695652174
 40
0.4782608695652174
 40
0.5217391304347826
 40
0.5217391304347826
 40
0.5217391304347826
 40
0.5217391304347826
 40
0.5652173913043478
 40
0.5652173913043478
 40
0.5652173913043478
 40
0.5652173913043478
 40
0.6086956521739131
 40
0.6086956521739131
 40
0.6086956521739131
 40
0.6086956521739131
 40
0.6521739130434783
 40
0.6521739130434783
 40
0.6521739130434783
 40
0.6521739130434783
 40
0.6956521739130435
 40
0.6956521739130435
 40
0.6956521739130435
 40
0.6956521739130435
 40
0.7391304347826086
 40
0.7391304347826086
 40
0.7391304347826086
 40
0.7391304347826086
 40
0.782608695652174
 40
0.782608695652174
 40
0.782608695652174
 40
0.782608695652174
 40
0.8260869565217391
 40
0.8260869565217391
 40
0.8260869565217391
 40
0.8260869565217391
 40
0.8695652173913043
 40
0.8695652173913043
 40
0.8695652173913043
 40
0.8695652173913043
 40
0.9130434782608695
 40
0.9130434782608695
 40
0.9130434782608695
 40
0.9130434782608695
 40
1.0
 40
1.0
 40
1.0
 40
1.0
 10
-8.2299
 20
28.3649
 30
0.0
 10
-8.2299
 20
28.3649
 30
0.0
 10
-8.2299
 20
28.1264
 30
0.0
 10
-8.2299
 20
28.1264
 30
0.0
 10
-8.2299
 20
28.1264
 30
0.0
 10
-8.2299
 20
28.1264
 30
0.0
 10
-9.5653
 20
28.1264
 30
0.0
 10
-9.5653
 20
28.1264
 30
0.0
 10
-9.5653
 20
28.1264
 30
0.0
 10
-9.5672
 20
28.1861
 30
0.0
 10
-9.5578
 20
28.2435
 30
0.0
 10
-9.5366
 20
28.2985
 30
0.0
 10
-9.5366
 20
28.2985
 30
0.0
 10
-9.5027
 20
28.3898
 30
0.0
 10
-9.4482
 20
28.4792
 30
0.0
 10
-9.3734
 20
28.5676
 30
0.0
 10
-9.3734
 20
28.5676
 30
0.0
 10
-9.2981
 20
28.6556
 30
0.0
 10
-9.1899
 20
28.7576
 30
0.0
 10
-9.0488
 20
28.8733
 30
0.0
 10
-9.0488
 20
28.8733
 30
0.0
 10
-8.8292
 20
29.0535
 30
0.0
 10
-8.6805
 20
29.196
 30
0.0
 10
-8.6034
 20
29.3014
 30
0.0
 10
-8.6034
 20
29.3014
 30
0.0
 10
-8.5263
 20
29.4062
 30
0.0
 10
-8.4877
 20
29.506
 30
0.0
 10
-8.4877
 20
29.5996
 30
0.0
 10
-8.4877
 20
29.5996
 30
0.0
 10
-8.4877
 20
29.6979
 30
0.0
 10
-8.523
 20
29.7807
 30
0.0
 10
-8.5931
 20
29.8484
 30
0.0
 10
-8.5931
 20
29.8484
 30
0.0
 10
-8.6636
 20
29.9156
 30
0.0
 10
-8.7553
 20
29.9495
 30
0.0
 10
-8.8682
 20
29.9495
 30
0.0
 10
-8.8682
 20
29.9495
 30
0.0
 10
-8.9877
 20
29.9495
 30
0.0
 10
-9.0832
 20
29.9138
 30
0.0
 10
-9.1547
 20
29.8418
 30
0.0
 10
-9.1547
 20
29.8418
 30
0.0
 10
-9.2266
 20
29.7703
 30
0.0
 10
-9.2629
 20
29.6711
 30
0.0
 10
-9.2638
 20
29.5445
 30
0.0
 10
-9.2638
 20
29.5445
 30
0.0
 10
-9.2638
 20
29.5445
 30
0.0
 10
-9.5187
 20
29.5704
 30
0.0
 10
-9.5187
 20
29.5704
 30
0.0
 10
-9.5187
 20
29.5704
 30
0.0
 10
-9.5013
 20
29.7609
 30
0.0
 10
-9.4355
 20
29.9058
 30
0.0
 10
-9.3217
 20
30.0055
 30
0.0
 10
-9.3217
 20
30.0055
 30
0.0
 10
-9.2078
 20
30.1052
 30
0.0
 10
-9.0545
 20
30.1551
 30
0.0
 10
-8.8626
 20
30.1551
 30
0.0
 10
-8.8626
 20
30.1551
 30
0.0
 10
-8.6688
 20
30.1551
 30
0.0
 10
-8.5154
 20
30.101
 30
0.0
 10
-8.4026
 20
29.9937
 30
0.0
 10
-8.4026
 20
29.9937
 30
0.0
 10
-8.2892
 20
29.886
 30
0.0
 10
-8.2328
 20
29.7529
 30
0.0
 10
-8.2328
 20
29.5939
 30
0.0
 10
-8.2328
 20
29.5939
 30
0.0
 10
-8.2328
 20
29.513
 30
0.0
 10
-8.2492
 20
29.4335
 30
0.0
 10
-8.2826
 20
29.3555
 30
0.0
 10
-8.2826
 20
29.3555
 30
0.0
 10
-8.3155
 20
29.2774
 30
0.0
 10
-8.3706
 20
29.1951
 30
0.0
 10
-8.4472
 20
29.109
 30
0.0
 10
-8.4472
 20
29.109
 30
0.0
 10
-8.5239
 20
29.0224
 30
0.0
 10
-8.6514
 20
28.9039
 30
0.0
 10
-8.8296
 20
28.7534
 30
0.0
 10
-8.8296
 20
28.7534
 30
0.0
 10
-8.9783
 20
28.6283
 30
0.0
 10
-9.0738
 20
28.5436
 30
0.0
 10
-9.1161
 20
28.4989
 30
0.0
 10
-9.1161
 20
28.4989
 30
0.0
 10
-9.1584
 20
28.4547
 30
0.0
 10
-9.1932
 20
28.41
 30
0.0
 10
-9.221
 20
28.3649
 30
0.0
 10
-9.221
 20
28.3649
 30
0.0
 10
-9.221
 20
28.3649
 30
0.0
 10
-8.2299
 20
28.3649
 30
0.0
 10
-8.2299
 20
28.3649
 30
0.0
  0
SPLINE
  5
7F
330
1F
100
AcDbEntity
  8
DEFAULT_2
 62
   250
100
AcDbSpline
210
0.0
220
0.0
230
1.0
 70
    11
 71
     3
 72
   124
 73
   120
 74
     0
 42
0.0000000001
 43
0.0000000001
 40
0.0
 40
0.0
 40
0.0
 40
0.0
 40
0.032258064516129
 40
0.032258064516129
 40
0.032258064516129
 40
0.032258064516129
 40
0.0645161290322581
 40
0.0645161290322581
 40
0.0645161290322581
 40
0.0645161290322581
 40
0.0967741935483871
 40
0.0967741935483871
 40
0.0967741935483871
 40
0.0967741935483871
 40
0.1290322580645161
 40
0.1290322580645161
 40
0.1290322580645161
 40
0.1290322580645161
 40
0.1612903225806452
 40
0.1612903225806452
 40
0.1612903225806452
 40
0.1612903225806452
 40
0.1935483870967742
 40
0.1935483870967742
 40
0.1935483870967742
 40
0.1935483870967742
 40
0.2258064516129032
 40
0.2258064516129032
 40
0.2258064516129032
 40
0.2258064516129032
 40
0.2580645161290323
 40
0.2580645161290323
 40
0.2580645161290323
 40
0.2580645161290323
 40
0.2903225806451613
 40
0.2903225806451613
 40
0.2903225806451613
 40
0.2903225806451613
 40
0.3225806451612903
 40
0.3225806451612903
 40
0.3225806451612903
 40
0.3225806451612903
 40
0.3548387096774194
 40
0.3548387096774194
 40
0.3548387096774194
 40
0.3548387096774194
 40
0.3870967741935484
 40
0.3870967741935484
 40
0.3870967741935484
 40
0.3870967741935484
 40
0.4193548387096774
 40
0.4193548387096774
 40
0.4193548387096774
 40
0.4193548387096774
 40
0.4516129032258064
 40
0.4516129032258064
 40
0.4516129032258064
 40
0.4516129032258064
 40
0.4838709677419355
 40
0.4838709677419355
 40
0.4838709677419355
 40
0.4838709677419355
 40
0.5161290322580645
 40
0.5161290322580645
 40
0.5161290322580645
 40
0.5161290322580645
 40
0.5483870967741935
 40
0.5483870967741935
 40
0.5483870967741935
 40
0.5483870967741935
 40
0.5806451612903226
 40
0.5806451612903226
 40
0.5806451612903226
 40
0.5806451612903226
 40
0.6129032258064516
 40
0.6129032258064516
 40
0.6129032258064516
 40
0.6129032258064516
 40
0.6451612903225806
 40
0.6451612903225806
 40
0.6451612903225806
 40
0.6451612903225806
 40
0.6774193548387096
 40
0.6774193548387096
 40
0.6774193548387096
 40
0.6774193548387096
 40
0.7096774193548387
 40
0.7096774193548387
 40
0.7096774193548387
 40
0.7096774193548387
 40
0.7419354838709677
 40
0.7419354838709677
 40
0.7419354838709677
 40
0.7419354838709677
 40
0.7741935483870968
 40
0.7741935483870968
 40
0.7741935483870968
 40
0.7741935483870968
 40
0.8064516129032258
 40
0.8064516129032258
 40
0.8064516129032258
 40
0.8064516129032258
 40
0.8387096774193549
 40
0.8387096774193549
 40
0.8387096774193549
 40
0.8387096774193549
 40
0.8709677419354839
 40
0.8709677419354839
 40
0.8709677419354839
 40
0.8709677419354839
 40
0.9032258064516129
 40
0.9032258064516129
 40
0.9032258064516129
 40
0.9032258064516129
 40
0.9354838709677419
 40
0.9354838709677419
 40
0.9354838709677419
 40
0.9354838709677419
 40
1.0
 40
1.0
 40
1.0
 40
1.0
 10
-7.9628
 20
28.6598
 30
0.0
 10
-7.9628
 20
28.6598
 30
0.0
 10
-7.7149
 20
28.6927
 30
0.0
 10
-7.7149
 20
28.6927
 30
0.0
 10
-7.7149
 20
28.6927
 30
0.0
 10
-7.6862
 20
28.5521
 30
0.0
 10
-7.6377
 20
28.4509
 30
0.0
 10
-7.5696
 20
28.3889
 30
0.0
 10
-7.5696
 20
28.3889
 30
0.0
 10
-7.5009
 20
28.3268
 30
0.0
 10
-7.4176
 20
28.2957
 30
0.0
 10
-7.3193
 20
28.2957
 30
0.0
 10
-7.3193
 20
28.2957
 30
0.0
 10
-7.2027
 20
28.2957
 30
0.0
 10
-7.1039
 20
28.3362
 30
0.0
 10
-7.0235
 20
28.4171
 30
0.0
 10
-7.0235
 20
28.4171
 30
0.0
 10
-6.9435
 20
28.498
 30
0.0
 10
-6.903
 20
28.5982
 30
0.0
 10
-6.903
 20
28.7176
 30
0.0
 10
-6.903
 20
28.7176
 30
0.0
 10
-6.903
 20
28.8315
 30
0.0
 10
-6.9402
 20
28.9255
 30
0.0
 10
-7.0145
 20
28.9994
 30
0.0
 10
-7.0145
 20
28.9994
 30
0.0
 10
-7.0893
 20
29.0732
 30
0.0
 10
-7.1839
 20
29.1104
 30
0.0
 10
-7.2986
 20
29.1104
 30
0.0
 10
-7.2986
 20
29.1104
 30
0.0
 10
-7.3457
 20
29.1104
 30
0.0
 10
-7.404
 20
29.101
 30
0.0
 10
-7.4736
 20
29.0826
 30
0.0
 10
-7.4736
 20
29.0826
 30
0.0
 10
-7.4736
 20
29.0826
 30
0.0
 10
-7.4458
 20
29.3004
 30
0.0
 10
-7.4458
 20
29.3004
 30
0.0
 10
-7.4458
 20
29.3004
 30
0.0
 10
-7.4294
 20
29.2985
 30
0.0
 10
-7.4162
 20
29.2976
 30
0.0
 10
-7.4059
 20
29.2976
 30
0.0
 10
-7.4059
 20
29.2976
 30
0.0
 10
-7.3005
 20
29.2976
 30
0.0
 10
-7.2055
 20
29.3254
 30
0.0
 10
-7.1208
 20
29.3804
 30
0.0
 10
-7.1208
 20
29.3804
 30
0.0
 10
-7.0361
 20
29.4354
 30
0.0
 10
-6.9938
 20
29.5206
 30
0.0
 10
-6.9938
 20
29.6353
 30
0.0
 10
-6.9938
 20
29.6353
 30
0.0
 10
-6.9938
 20
29.7261
 30
0.0
 10
-7.0249
 20
29.8018
 30
0.0
 10
-7.0865
 20
29.8611
 30
0.0
 10
-7.0865
 20
29.8611
 30
0.0
 10
-7.1481
 20
29.9208
 30
0.0
 10
-7.2276
 20
29.9509
 30
0.0
 10
-7.3249
 20
29.9509
 30
0.0
 10
-7.3249
 20
29.9509
 30
0.0
 10
-7.4214
 20
29.9509
 30
0.0
 10
-7.5018
 20
29.9204
 30
0.0
 10
-7.5658
 20
29.8601
 30
0.0
 10
-7.5658
 20
29.8601
 30
0.0
 10
-7.6302
 20
29.7995
 30
0.0
 10
-7.6716
 20
29.7082
 30
0.0
 10
-7.69
 20
29.5869
 30
0.0
 10
-7.69
 20
29.5869
 30
0.0
 10
-7.69
 20
29.5869
 30
0.0
 10
-7.9378
 20
29.6311
 30
0.0
 10
-7.9378
 20
29.6311
 30
0.0
 10
-7.9378
 20
29.6311
 30
0.0
 10
-7.9077
 20
29.7976
 30
0.0
 10
-7.8386
 20
29.9265
 30
0.0
 10
-7.7314
 20
30.0177
 30
0.0
 10
-7.7314
 20
30.0177
 30
0.0
 10
-7.6236
 20
30.109
 30
0.0
 10
-7.4901
 20
30.1551
 30
0.0
 10
-7.3301
 20
30.1551
 30
0.0
 10
-7.3301
 20
30.1551
 30
0.0
 10
-7.2201
 20
30.1551
 30
0.0
 10
-7.1185
 20
30.1311
 30
0.0
 10
-7.0258
 20
30.084
 30
0.0
 10
-7.0258
 20
30.084
 30
0.0
 10
-6.9332
 20
30.0365
 30
0.0
 10
-6.8621
 20
29.9721
 30
0.0
 10
-6.8127
 20
29.8903
 30
0.0
 10
-6.8127
 20
29.8903
 30
0.0
 10
-6.7638
 20
29.8084
 30
0.0
 10
-6.7389
 20
29.7219
 30
0.0
 10
-6.7389
 20
29.6297
 30
0.0
 10
-6.7389
 20
29.6297
 30
0.0
 10
-6.7389
 20
29.5427
 30
0.0
 10
-6.7624
 20
29.4632
 30
0.0
 10
-6.8094
 20
29.3912
 30
0.0
 10
-6.8094
 20
29.3912
 30
0.0
 10
-6.8565
 20
29.3197
 30
0.0
 10
-6.9256
 20
29.2628
 30
0.0
 10
-7.0173
 20
29.2205
 30
0.0
 10
-7.0173
 20
29.2205
 30
0.0
 10
-6.8979
 20
29.1932
 30
0.0
 10
-6.8052
 20
29.1358
 30
0.0
 10
-6.7389
 20
29.0488
 30
0.0
 10
-6.7389
 20
29.0488
 30
0.0
 10
-6.673
 20
28.9622
 30
0.0
 10
-6.6401
 20
28.8536
 30
0.0
 10
-6.6401
 20
28.7233
 30
0.0
 10
-6.6401
 20
28.7233
 30
0.0
 10
-6.6401
 20
28.5469
 30
0.0
 10
-6.7041
 20
28.3973
 30
0.0
 10
-6.833
 20
28.2746
 30
0.0
 10
-6.833
 20
28.2746
 30
0.0
 10
-6.9614
 20
28.1518
 30
0.0
 10
-7.1241
 20
28.0907
 30
0.0
 10
-7.3207
 20
28.0907
 30
0.0
 10
-7.3207
 20
28.0907
 30
0.0
 10
-7.4981
 20
28.0907
 30
0.0
 10
-7.6453
 20
28.1433
 30
0.0
 10
-7.7624
 20
28.2492
 30
0.0
 10
-7.7624
 20
28.2492
 30
0.0
 10
-7.8795
 20
28.3545
 30
0.0
 10
-7.9463
 20
28.4914
 30
0.0
 10
-7.9628
 20
28.6598
 30
0.0
  0
SPLINE
  5
80
330
1F
100
AcDbEntity
  8
DEFAULT_2
 62
   250
100
AcDbSpline
210
0.0
220
0.0
230
1.0
 70
    11
 71
     3
 72
    52
 73
    48
 74
     0
 42
0.0000000001
 43
0.0000000001
 40
0.0
 40
0.0
 40
0.0
 40
0.0
 40
0.0769230769230769
 40
0.0769230769230769
 40
0.0769230769230769
 40
0.0769230769230769
 40
0.1538461538461539
 40
0.1538461538461539
 40
0.1538461538461539
 40
0.1538461538461539
 40
0.2307692307692308
 40
0.2307692307692308
 40
0.2307692307692308
 40
0.2307692307692308
 40
0.3076923076923077
 40
0.3076923076923077
 40
0.3076923076923077
 40
0.3076923076923077
 40
0.3846153846153846
 40
0.3846153846153846
 40
0.3846153846153846
 40
0.3846153846153846
 40
0.4615384615384616
 40
0.4615384615384616
 40
0.4615384615384616
 40
0.4615384615384616
 40
0.5384615384615384
 40
0.5384615384615384
 40
0.5384615384615384
 40
0.5384615384615384
 40
0.6153846153846154
 40
0.6153846153846154
 40
0.6153846153846154
 40
0.6153846153846154
 40
0.6923076923076923
 40
0.6923076923076923
 40
0.6923076923076923
 40
0.6923076923076923
 40
0.7692307692307693
 40
0.7692307692307693
 40
0.7692307692307693
 40
0.7692307692307693
 40
0.8461538461538461
 40
0.8461538461538461
 40
0.8461538461538461
 40
0.8461538461538461
 40
1.0
 40
1.0
 40
1.0
 40
1.0
 10
-6.3946
 20
29.1226
 30
0.0
 10
-6.3946
 20
29.3616
 30
0.0
 10
-6.3701
 20
29.554
 30
0.0
 10
-6.3207
 20
29.6993
 30
0.0
 10
-6.3207
 20
29.6993
 30
0.0
 10
-6.2718
 20
29.8451
 30
0.0
 10
-6.1984
 20
29.9575
 30
0.0
 10
-6.1015
 20
30.0365
 30
0.0
 10
-6.1015
 20
30.0365
 30
0.0
 10
-6.0046
 20
30.1156
 30
0.0
 10
-5.8828
 20
30.1551
 30
0.0
 10
-5.7361
 20
30.1551
 30
0.0
 10
-5.7361
 20
30.1551
 30
0.0
 10
-5.6274
 20
30.1551
 30
0.0
 10
-5.5324
 20
30.133
 30
0.0
 10
-5.4506
 20
30.0892
 30
0.0
 10
-5.4506
 20
30.0892
 30
0.0
 10
-5.3687
 20
30.0459
 30
0.0
 10
-5.3015
 20
29.9829
 30
0.0
 10
-5.2478
 20
29.9006
 30
0.0
 10
-5.2478
 20
29.9006
 30
0.0
 10
-5.1947
 20
29.8183
 30
0.0
 10
-5.1528
 20
29.7181
 30
0.0
 10
-5.1227
 20
29.6
 30
0.0
 10
-5.1227
 20
29.6
 30
0.0
 10
-5.0921
 20
29.482
 30
0.0
 10
-5.0771
 20
29.323
 30
0.0
 10
-5.0771
 20
29.1226
 30
0.0
 10
-5.0771
 20
29.1226
 30
0.0
 10
-5.0771
 20
28.8856
 30
0.0
 10
-5.1016
 20
28.6946
 30
0.0
 10
-5.15
 20
28.5488
 30
0.0
 10
-5.15
 20
28.5488
 30
0.0
 10
-5.1989
 20
28.403
 30
0.0
 10
-5.2718
 20
28.2905
 30
0.0
 10
-5.3687
 20
28.2111
 30
0.0
 10
-5.3687
 20
28.2111
 30
0.0
 10
-5.4656
 20
28.1316
 30
0.0
 10
-5.5879
 20
28.0921
 30
0.0
 10
-5.7361
 20
28.0921
 30
0.0
 10
-5.7361
 20
28.0921
 30
0.0
 10
-5.9308
 20
28.0921
 30
0.0
 10
-6.0837
 20
28.1617
 30
0.0
 10
-6.1947
 20
28.3014
 30
0.0
 10
-6.1947
 20
28.3014
 30
0.0
 10
-6.3278
 20
28.4693
 30
0.0
 10
-6.3946
 20
28.7435
 30
0.0
 10
-6.3946
 20
29.1226
 30
0.0
  0
SPLINE
  5
81
330
1F
100
AcDbEntity
  8
DEFAULT_2
 62
   250
100
AcDbSpline
210
0.0
220
0.0
230
1.0
 70
    11
 71
     3
 72
    36
 73
    32
 74
     0
 42
0.0000000001
 43
0.0000000001
 40
0.0
 40
0.0
 40
0.0
 40
0.0
 40
0.1111111111111111
 40
0.1111111111111111
 40
0.1111111111111111
 40
0.1111111111111111
 40
0.2222222222222222
 40
0.2222222222222222
 40
0.2222222222222222
 40
0.2222222222222222
 40
0.3333333333333333
 40
0.3333333333333333
 40
0.3333333333333333
 40
0.3333333333333333
 40
0.4444444444444444
 40
0.4444444444444444
 40
0.4444444444444444
 40
0.4444444444444444
 40
0.5555555555555556
 40
0.5555555555555556
 40
0.5555555555555556
 40
0.5555555555555556
 40
0.6666666666666666
 40
0.6666666666666666
 40
0.6666666666666666
 40
0.6666666666666666
 40
0.7777777777777778
 40
0.7777777777777778
 40
0.7777777777777778
 40
0.7777777777777778
 40
1.0
 40
1.0
 40
1.0
 40
1.0
 10
-6.1396
 20
29.1226
 30
0.0
 10
-6.1396
 20
28.791
 30
0.0
 10
-6.1006
 20
28.5704
 30
0.0
 10
-6.023
 20
28.4604
 30
0.0
 10
-6.023
 20
28.4604
 30
0.0
 10
-5.9454
 20
28.3508
 30
0.0
 10
-5.8499
 20
28.2957
 30
0.0
 10
-5.7361
 20
28.2957
 30
0.0
 10
-5.7361
 20
28.2957
 30
0.0
 10
-5.6218
 20
28.2957
 30
0.0
 10
-5.5263
 20
28.3512
 30
0.0
 10
-5.4487
 20
28.4613
 30
0.0
 10
-5.4487
 20
28.4613
 30
0.0
 10
-5.3711
 20
28.5714
 30
0.0
 10
-5.332
 20
28.792
 30
0.0
 10
-5.332
 20
29.1226
 30
0.0
 10
-5.332
 20
29.1226
 30
0.0
 10
-5.332
 20
29.4552
 30
0.0
 10
-5.3711
 20
29.6762
 30
0.0
 10
-5.4487
 20
29.7854
 30
0.0
 10
-5.4487
 20
29.7854
 30
0.0
 10
-5.5263
 20
29.895
 30
0.0
 10
-5.6227
 20
29.9495
 30
0.0
 10
-5.7384
 20
29.9495
 30
0.0
 10
-5.7384
 20
29.9495
 30
0.0
 10
-5.8527
 20
29.9495
 30
0.0
 10
-5.9435
 20
29.9011
 30
0.0
 10
-6.0117
 20
29.8047
 30
0.0
 10
-6.0117
 20
29.8047
 30
0.0
 10
-6.0968
 20
29.6819
 30
0.0
 10
-6.1396
 20
29.4542
 30
0.0
 10
-6.1396
 20
29.1226
 30
0.0
  0
SPLINE
  5
82
330
1F
100
AcDbEntity
  8
DEFAULT_2
 62
   250
100
AcDbSpline
210
0.0
220
0.0
230
1.0
 70
    24
 71
     3
 72
     8
 73
     4
 74
     0
 42
0.0000000001
 43
0.0000000001
 40
0.0
 40
0.0
 40
0.0
 40
0.0
 40
1.0
 40
1.0
 40
1.0
 40
1.0
 10
-19.1691
 20
27.5113
 30
0.0
 10
-19.1691
 20
27.5113
 30
0.0
 10
7.7666
 20
27.5113
 30
0.0
 10
7.7666
 20
27.5113
 30
0.0
  0
SPLINE
  5
83
330
1F
100
AcDbEntity
  8
DEFAULT_2
 62
   250
100
AcDbSpline
210
0.0
220
0.0
230
1.0
 70
    11
 71
     3
 72
    20
 73
    16
 74
     0
 42
0.0000000001
 43
0.0000000001
 40
0.0
 40
0.0
 40
0.0
 40
0.0
 40
0.2
 40
0.2
 40
0.2
 40
0.2
 40
0.4
 40
0.4
 40
0.4
 40
0.4
 40
0.6
 40
0.6
 40
0.6
 40
0.6
 40
1.0
 40
1.0
 40
1.0
 40
1.0
 10
5.9803
 20
27.9549
 30
0.0
 10
5.9803
 20
27.9549
 30
0.0
 10
8.9803
 20
27.5316
 30
0.0
 10
8.9803
 20
27.5316
 30
0.0
 10
8.9803
 20
27.5316
 30
0.0
 10
8.9803
 20
27.5316
 30
0.0
 10
8.9803
 20
27.4375
 30
0.0
 10
8.9803
 20
27.4375
 30
0.0
 10
8.9803
 20
27.4375
 30
0.0
 10
8.9803
 20
27.4375
 30
0.0
 10
5.9803
 20
26.986
 30
0.0
 10
5.9803
 20
26.986
 30
0.0
 10
5.9803
 20
26.986
 30
0.0
 10
5.9803
 20
26.986
 30
0.0
 10
5.9803
 20
27.9549
 30
0.0
 10
5.9803
 20
27.9549
 30
0.0
  0
SPLINE
  5
84
330
1F
100
AcDbEntity
  8
DEFAULT_2
 62
   250
100
AcDbSpline
210
0.0
220
0.0
230
1.0
 70
    11
 71
     3
 72
    20
 73
    16
 74
     0
 42
0.0000000001
 43
0.0000000001
 40
0.0
 40
0.0
 40
0.0
 40
0.0
 40
0.2
 40
0.2
 40
0.2
 40
0.2
 40
0.4
 40
0.4
 40
0.4
 40
0.4
 40
0.6
 40
0.6
 40
0.6
 40
0.6
 40
1.0
 40
1.0
 40
1.0
 40
1.0
 10
-17.3338
 20
27.0593
 30
0.0
 10
-17.3338
 20
27.0593
 30
0.0
 10
-20.3338
 20
27.4827
 30
0.0
 10
-20.3338
 20
27.4827
 30
0.0
 10
-20.3338
 20
27.4827
 30
0.0
 10
-20.3338
 20
27.4827
 30
0.0
 10
-20.3338
 20
27.5767
 30
0.0
 10
-20.3338
 20
27.5767
 30
0.0
 10
-20.3338
 20
27.5767
 30
0.0
 10
-20.3338
 20
27.5767
 30
0.0
 10
-17.3338
 20
28.0282
 30
0.0
 10
-17.3338
 20
28.0282
 30
0.0
 10
-17.3338
 20
28.0282
 30
0.0
 10
-17.3338
 20
28.0282
 30
0.0
 10
-17.3338
 20
27.0593
 30
0.0
 10
-17.3338
 20
27.0593
 30
0.0
  0
SPLINE
  5
85
330
1F
100
AcDbEntity
  8
DEFAULT_2
 62
   250
100
AcDbSpline
210
0.0
220
0.0
230
1.0
 70
    11
 71
     3
 72
    40
 73
    36
 74
     0
 42
0.0000000001
 43
0.0000000001
 40
0.0
 40
0.0
 40
0.0
 40
0.0
 40
0.1
 40
0.1
 40
0.1
 40
0.1
 40
0.2
 40
0.2
 40
0.2
 40
0.2
 40
0.3
 40
0.3
 40
0.3
 40
0.3
 40
0.4
 40
0.4
 40
0.4
 40
0.4
 40
0.5
 40
0.5
 40
0.5
 40
0.5
 40
0.6
 40
0.6
 40
0.6
 40
0.6
 40
0.7
 40
0.7
 40
0.7
 40
0.7
 40
0.8
 40
0.8
 40
0.8
 40
0.8
 40
1.0
 40
1.0
 40
1.0
 40
1.0
 10
-7.2532
 20
21.7274
 30
0.0
 10
-7.2532
 20
21.7274
 30
0.0
 10
-7.5011
 20
21.7274
 30
0.0
 10
-7.5011
 20
21.7274
 30
0.0
 10
-7.5011
 20
21.7274
 30
0.0
 10
-7.5011
 20
21.7274
 30
0.0
 10
-7.5011
 20
23.3078
 30
0.0
 10
-7.5011
 20
23.3078
 30
0.0
 10
-7.5011
 20
23.3078
 30
0.0
 10
-7.5609
 20
23.2509
 30
0.0
 10
-7.6389
 20
23.194
 30
0.0
 10
-7.7358
 20
23.1371
 30
0.0
 10
-7.7358
 20
23.1371
 30
0.0
 10
-7.8332
 20
23.0802
 30
0.0
 10
-7.9202
 20
23.0373
 30
0.0
 10
-7.9974
 20
23.0091
 30
0.0
 10
-7.9974
 20
23.0091
 30
0.0
 10
-7.9974
 20
23.0091
 30
0.0
 10
-7.9974
 20
23.2486
 30
0.0
 10
-7.9974
 20
23.2486
 30
0.0
 10
-7.9974
 20
23.2486
 30
0.0
 10
-7.8586
 20
23.3139
 30
0.0
 10
-7.7372
 20
23.3929
 30
0.0
 10
-7.6333
 20
23.4856
 30
0.0
 10
-7.6333
 20
23.4856
 30
0.0
 10
-7.5298
 20
23.5787
 30
0.0
 10
-7.456
 20
23.6686
 30
0.0
 10
-7.4127
 20
23.7561
 30
0.0
 10
-7.4127
 20
23.7561
 30
0.0
 10
-7.4127
 20
23.7561
 30
0.0
 10
-7.2532
 20
23.7561
 30
0.0
 10
-7.2532
 20
23.7561
 30
0.0
 10
-7.2532
 20
23.7561
 30
0.0
 10
-7.2532
 20
23.7561
 30
0.0
 10
-7.2532
 20
21.7274
 30
0.0
 10
-7.2532
 20
21.7274
 30
0.0
  0
SPLINE
  5
86
330
1F
100
AcDbEntity
  8
DEFAULT_2
 62
   250
100
AcDbSpline
210
0.0
220
0.0
230
1.0
 70
    11
 71
     3
 72
    68
 73
    64
 74
     0
 42
0.0000000001
 43
0.0000000001
 40
0.0
 40
0.0
 40
0.0
 40
0.0
 40
0.0588235294117647
 40
0.0588235294117647
 40
0.0588235294117647
 40
0.0588235294117647
 40
0.1176470588235294
 40
0.1176470588235294
 40
0.1176470588235294
 40
0.1176470588235294
 40
0.1764705882352941
 40
0.1764705882352941
 40
0.1764705882352941
 40
0.1764705882352941
 40
0.2352941176470588
 40
0.2352941176470588
 40
0.2352941176470588
 40
0.2352941176470588
 40
0.2941176470588235
 40
0.2941176470588235
 40
0.2941176470588235
 40
0.2941176470588235
 40
0.3529411764705883
 40
0.3529411764705883
 40
0.3529411764705883
 40
0.3529411764705883
 40
0.4117647058823529
 40
0.4117647058823529
 40
0.4117647058823529
 40
0.4117647058823529
 40
0.4705882352941176
 40
0.4705882352941176
 40
0.4705882352941176
 40
0.4705882352941176
 40
0.5294117647058824
 40
0.5294117647058824
 40
0.5294117647058824
 40
0.5294117647058824
 40
0.5882352941176471
 40
0.5882352941176471
 40
0.5882352941176471
 40
0.5882352941176471
 40
0.6470588235294118
 40
0.6470588235294118
 40
0.6470588235294118
 40
0.6470588235294118
 40
0.7058823529411765
 40
0.7058823529411765
 40
0.7058823529411765
 40
0.7058823529411765
 40
0.7647058823529411
 40
0.7647058823529411
 40
0.7647058823529411
 40
0.7647058823529411
 40
0.8235294117647058
 40
0.8235294117647058
 40
0.8235294117647058
 40
0.8235294117647058
 40
0.8823529411764706
 40
0.8823529411764706
 40
0.8823529411764706
 40
0.8823529411764706
 40
1.0
 40
1.0
 40
1.0
 40
1.0
 10
-6.2358
 20
22.8229
 30
0.0
 10
-6.3389
 20
22.8605
 30
0.0
 10
-6.4151
 20
22.9141
 30
0.0
 10
-6.4649
 20
22.9842
 30
0.0
 10
-6.4649
 20
22.9842
 30
0.0
 10
-6.5143
 20
23.0538
 30
0.0
 10
-6.5392
 20
23.1375
 30
0.0
 10
-6.5392
 20
23.2349
 30
0.0
 10
-6.5392
 20
23.2349
 30
0.0
 10
-6.5392
 20
23.3821
 30
0.0
 10
-6.4865
 20
23.5054
 30
0.0
 10
-6.3807
 20
23.6056
 30
0.0
 10
-6.3807
 20
23.6056
 30
0.0
 10
-6.2749
 20
23.7057
 30
0.0
 10
-6.1347
 20
23.7561
 30
0.0
 10
-5.9593
 20
23.7561
 30
0.0
 10
-5.9593
 20
23.7561
 30
0.0
 10
-5.7829
 20
23.7561
 30
0.0
 10
-5.6408
 20
23.7048
 30
0.0
 10
-5.5331
 20
23.6023
 30
0.0
 10
-5.5331
 20
23.6023
 30
0.0
 10
-5.4259
 20
23.4997
 30
0.0
 10
-5.3723
 20
23.3751
 30
0.0
 10
-5.3723
 20
23.2278
 30
0.0
 10
-5.3723
 20
23.2278
 30
0.0
 10
-5.3723
 20
23.1342
 30
0.0
 10
-5.3967
 20
23.0529
 30
0.0
 10
-5.4456
 20
22.9833
 30
0.0
 10
-5.4456
 20
22.9833
 30
0.0
 10
-5.495
 20
22.9141
 30
0.0
 10
-5.5693
 20
22.8605
 30
0.0
 10
-5.6695
 20
22.8229
 30
0.0
 10
-5.6695
 20
22.8229
 30
0.0
 10
-5.5458
 20
22.7824
 30
0.0
 10
-5.4513
 20
22.7175
 30
0.0
 10
-5.3864
 20
22.6272
 30
0.0
 10
-5.3864
 20
22.6272
 30
0.0
 10
-5.3219
 20
22.5374
 30
0.0
 10
-5.2895
 20
22.4296
 30
0.0
 10
-5.2895
 20
22.305
 30
0.0
 10
-5.2895
 20
22.305
 30
0.0
 10
-5.2895
 20
22.1319
 30
0.0
 10
-5.3506
 20
21.987
 30
0.0
 10
-5.4724
 20
21.8694
 30
0.0
 10
-5.4724
 20
21.8694
 30
0.0
 10
-5.5947
 20
21.7519
 30
0.0
 10
-5.7556
 20
21.6931
 30
0.0
 10
-5.955
 20
21.6931
 30
0.0
 10
-5.955
 20
21.6931
 30
0.0
 10
-6.1545
 20
21.6931
 30
0.0
 10
-6.3149
 20
21.7519
 30
0.0
 10
-6.4372
 20
21.8699
 30
0.0
 10
-6.4372
 20
21.8699
 30
0.0
 10
-6.5595
 20
21.988
 30
0.0
 10
-6.6206
 20
22.1352
 30
0.0
 10
-6.6206
 20
22.3116
 30
0.0
 10
-6.6206
 20
22.3116
 30
0.0
 10
-6.6206
 20
22.4428
 30
0.0
 10
-6.5872
 20
22.5529
 30
0.0
 10
-6.5204
 20
22.6418
 30
0.0
 10
-6.5204
 20
22.6418
 30
0.0
 10
-6.4541
 20
22.7302
 30
0.0
 10
-6.3591
 20
22.7909
 30
0.0
 10
-6.2358
 20
22.8229
 30
0.0
  0
SPLINE
  5
87
330
1F
100
AcDbEntity
  8
DEFAULT_2
 62
   250
100
AcDbSpline
210
0.0
220
0.0
230
1.0
 70
    11
 71
     3
 72
    36
 73
    32
 74
     0
 42
0.0000000001
 43
0.0000000001
 40
0.0
 40
0.0
 40
0.0
 40
0.0
 40
0.1111111111111111
 40
0.1111111111111111
 40
0.1111111111111111
 40
0.1111111111111111
 40
0.2222222222222222
 40
0.2222222222222222
 40
0.2222222222222222
 40
0.2222222222222222
 40
0.3333333333333333
 40
0.3333333333333333
 40
0.3333333333333333
 40
0.3333333333333333
 40
0.4444444444444444
 40
0.4444444444444444
 40
0.4444444444444444
 40
0.4444444444444444
 40
0.5555555555555556
 40
0.5555555555555556
 40
0.5555555555555556
 40
0.5555555555555556
 40
0.6666666666666666
 40
0.6666666666666666
 40
0.6666666666666666
 40
0.6666666666666666
 40
0.7777777777777778
 40
0.7777777777777778
 40
0.7777777777777778
 40
0.7777777777777778
 40
1.0
 40
1.0
 40
1.0
 40
1.0
 10
-6.2857
 20
23.2434
 30
0.0
 10
-6.2857
 20
23.1479
 30
0.0
 10
-6.2547
 20
23.0698
 30
0.0
 10
-6.1935
 20
23.0091
 30
0.0
 10
-6.1935
 20
23.0091
 30
0.0
 10
-6.1319
 20
22.9485
 30
0.0
 10
-6.0519
 20
22.9179
 30
0.0
 10
-5.9536
 20
22.9179
 30
0.0
 10
-5.9536
 20
22.9179
 30
0.0
 10
-5.8581
 20
22.9179
 30
0.0
 10
-5.7796
 20
22.948
 30
0.0
 10
-5.7184
 20
23.0082
 30
0.0
 10
-5.7184
 20
23.0082
 30
0.0
 10
-5.6573
 20
23.0684
 30
0.0
 10
-5.6272
 20
23.1422
 30
0.0
 10
-5.6272
 20
23.2293
 30
0.0
 10
-5.6272
 20
23.2293
 30
0.0
 10
-5.6272
 20
23.3205
 30
0.0
 10
-5.6582
 20
23.3967
 30
0.0
 10
-5.7213
 20
23.4588
 30
0.0
 10
-5.7213
 20
23.4588
 30
0.0
 10
-5.7843
 20
23.5209
 30
0.0
 10
-5.8624
 20
23.5519
 30
0.0
 10
-5.9565
 20
23.5519
 30
0.0
 10
-5.9565
 20
23.5519
 30
0.0
 10
-6.051
 20
23.5519
 30
0.0
 10
-6.1295
 20
23.5214
 30
0.0
 10
-6.1921
 20
23.4611
 30
0.0
 10
-6.1921
 20
23.4611
 30
0.0
 10
-6.2547
 20
23.4005
 30
0.0
 10
-6.2857
 20
23.3276
 30
0.0
 10
-6.2857
 20
23.2434
 30
0.0
  0
SPLINE
  5
88
330
1F
100
AcDbEntity
  8
DEFAULT_2
 62
   250
100
AcDbSpline
210
0.0
220
0.0
230
1.0
 70
    11
 71
     3
 72
    40
 73
    36
 74
     0
 42
0.0000000001
 43
0.0000000001
 40
0.0
 40
0.0
 40
0.0
 40
0.0
 40
0.1
 40
0.1
 40
0.1
 40
0.1
 40
0.2
 40
0.2
 40
0.2
 40
0.2
 40
0.3
 40
0.3
 40
0.3
 40
0.3
 40
0.4
 40
0.4
 40
0.4
 40
0.4
 40
0.5
 40
0.5
 40
0.5
 40
0.5
 40
0.6
 40
0.6
 40
0.6
 40
0.6
 40
0.7
 40
0.7
 40
0.7
 40
0.7
 40
0.8
 40
0.8
 40
0.8
 40
0.8
 40
1.0
 40
1.0
 40
1.0
 40
1.0
 10
-6.3657
 20
22.3102
 30
0.0
 10
-6.3657
 20
22.2396
 30
0.0
 10
-6.3487
 20
22.171
 30
0.0
 10
-6.3153
 20
22.1051
 30
0.0
 10
-6.3153
 20
22.1051
 30
0.0
 10
-6.2819
 20
22.0388
 30
0.0
 10
-6.2321
 20
21.9875
 30
0.0
 10
-6.1658
 20
21.9513
 30
0.0
 10
-6.1658
 20
21.9513
 30
0.0
 10
-6.0994
 20
21.9151
 30
0.0
 10
-6.0284
 20
21.8967
 30
0.0
 10
-5.9522
 20
21.8967
 30
0.0
 10
-5.9522
 20
21.8967
 30
0.0
 10
-5.8337
 20
21.8967
 30
0.0
 10
-5.7359
 20
21.9348
 30
0.0
 10
-5.6587
 20
22.0115
 30
0.0
 10
-5.6587
 20
22.0115
 30
0.0
 10
-5.5816
 20
22.0877
 30
0.0
 10
-5.543
 20
22.1846
 30
0.0
 10
-5.543
 20
22.3022
 30
0.0
 10
-5.543
 20
22.3022
 30
0.0
 10
-5.543
 20
22.4217
 30
0.0
 10
-5.5825
 20
22.5204
 30
0.0
 10
-5.662
 20
22.5985
 30
0.0
 10
-5.662
 20
22.5985
 30
0.0
 10
-5.7415
 20
22.6766
 30
0.0
 10
-5.8412
 20
22.7156
 30
0.0
 10
-5.9607
 20
22.7156
 30
0.0
 10
-5.9607
 20
22.7156
 30
0.0
 10
-6.0773
 20
22.7156
 30
0.0
 10
-6.1738
 20
22.6771
 30
0.0
 10
-6.2504
 20
22.5999
 30
0.0
 10
-6.2504
 20
22.5999
 30
0.0
 10
-6.3271
 20
22.5223
 30
0.0
 10
-6.3657
 20
22.4259
 30
0.0
 10
-6.3657
 20
22.3102
 30
0.0
  0
SPLINE
  5
89
330
1F
100
AcDbEntity
  8
DEFAULT_2
 62
   250
100
AcDbSpline
210
0.0
220
0.0
230
1.0
 70
    11
 71
     3
 72
    52
 73
    48
 74
     0
 42
0.0000000001
 43
0.0000000001
 40
0.0
 40
0.0
 40
0.0
 40
0.0
 40
0.0769230769230769
 40
0.0769230769230769
 40
0.0769230769230769
 40
0.0769230769230769
 40
0.1538461538461539
 40
0.1538461538461539
 40
0.1538461538461539
 40
0.1538461538461539
 40
0.2307692307692308
 40
0.2307692307692308
 40
0.2307692307692308
 40
0.2307692307692308
 40
0.3076923076923077
 40
0.3076923076923077
 40
0.3076923076923077
 40
0.3076923076923077
 40
0.3846153846153846
 40
0.3846153846153846
 40
0.3846153846153846
 40
0.3846153846153846
 40
0.4615384615384616
 40
0.4615384615384616
 40
0.4615384615384616
 40
0.4615384615384616
 40
0.5384615384615384
 40
0.5384615384615384
 40
0.5384615384615384
 40
0.5384615384615384
 40
0.6153846153846154
 40
0.6153846153846154
 40
0.6153846153846154
 40
0.6153846153846154
 40
0.6923076923076923
 40
0.6923076923076923
 40
0.6923076923076923
 40
0.6923076923076923
 40
0.7692307692307693
 40
0.7692307692307693
 40
0.7692307692307693
 40
0.7692307692307693
 40
0.8461538461538461
 40
0.8461538461538461
 40
0.8461538461538461
 40
0.8461538461538461
 40
1.0
 40
1.0
 40
1.0
 40
1.0
 10
-5.0482
 20
22.7236
 30
0.0
 10
-5.0482
 20
22.9626
 30
0.0
 10
-5.0237
 20
23.155
 30
0.0
 10
-4.9743
 20
23.3003
 30
0.0
 10
-4.9743
 20
23.3003
 30
0.0
 10
-4.9254
 20
23.4461
 30
0.0
 10
-4.852
 20
23.5585
 30
0.0
 10
-4.7551
 20
23.6375
 30
0.0
 10
-4.7551
 20
23.6375
 30
0.0
 10
-4.6582
 20
23.7166
 30
0.0
 10
-4.5364
 20
23.7561
 30
0.0
 10
-4.3897
 20
23.7561
 30
0.0
 10
-4.3897
 20
23.7561
 30
0.0
 10
-4.281
 20
23.7561
 30
0.0
 10
-4.186
 20
23.734
 30
0.0
 10
-4.1042
 20
23.6902
 30
0.0
 10
-4.1042
 20
23.6902
 30
0.0
 10
-4.0223
 20
23.6469
 30
0.0
 10
-3.9551
 20
23.5839
 30
0.0
 10
-3.9014
 20
23.5016
 30
0.0
 10
-3.9014
 20
23.5016
 30
0.0
 10
-3.8483
 20
23.4193
 30
0.0
 10
-3.8064
 20
23.3191
 30
0.0
 10
-3.7763
 20
23.201
 30
0.0
 10
-3.7763
 20
23.201
 30
0.0
 10
-3.7457
 20
23.083
 30
0.0
 10
-3.7307
 20
22.924
 30
0.0
 10
-3.7307
 20
22.7236
 30
0.0
 10
-3.7307
 20
22.7236
 30
0.0
 10
-3.7307
 20
22.4866
 30
0.0
 10
-3.7552
 20
22.2956
 30
0.0
 10
-3.8036
 20
22.1498
 30
0.0
 10
-3.8036
 20
22.1498
 30
0.0
 10
-3.8525
 20
22.004
 30
0.0
 10
-3.9254
 20
21.8915
 30
0.0
 10
-4.0223
 20
21.8121
 30
0.0
 10
-4.0223
 20
21.8121
 30
0.0
 10
-4.1192
 20
21.7326
 30
0.0
 10
-4.2415
 20
21.6931
 30
0.0
 10
-4.3897
 20
21.6931
 30
0.0
 10
-4.3897
 20
21.6931
 30
0.0
 10
-4.5844
 20
21.6931
 30
0.0
 10
-4.7373
 20
21.7627
 30
0.0
 10
-4.8483
 20
21.9024
 30
0.0
 10
-4.8483
 20
21.9024
 30
0.0
 10
-4.9814
 20
22.0703
 30
0.0
 10
-5.0482
 20
22.3445
 30
0.0
 10
-5.0482
 20
22.7236
 30
0.0
  0
SPLINE
  5
8A
330
1F
100
AcDbEntity
  8
DEFAULT_2
 62
   250
100
AcDbSpline
210
0.0
220
0.0
230
1.0
 70
    11
 71
     3
 72
    36
 73
    32
 74
     0
 42
0.0000000001
 43
0.0000000001
 40
0.0
 40
0.0
 40
0.0
 40
0.0
 40
0.1111111111111111
 40
0.1111111111111111
 40
0.1111111111111111
 40
0.1111111111111111
 40
0.2222222222222222
 40
0.2222222222222222
 40
0.2222222222222222
 40
0.2222222222222222
 40
0.3333333333333333
 40
0.3333333333333333
 40
0.3333333333333333
 40
0.3333333333333333
 40
0.4444444444444444
 40
0.4444444444444444
 40
0.4444444444444444
 40
0.4444444444444444
 40
0.5555555555555556
 40
0.5555555555555556
 40
0.5555555555555556
 40
0.5555555555555556
 40
0.6666666666666666
 40
0.6666666666666666
 40
0.6666666666666666
 40
0.6666666666666666
 40
0.7777777777777778
 40
0.7777777777777778
 40
0.7777777777777778
 40
0.7777777777777778
 40
1.0
 40
1.0
 40
1.0
 40
1.0
 10
-4.7932
 20
22.7236
 30
0.0
 10
-4.7932
 20
22.392
 30
0.0
 10
-4.7542
 20
22.1714
 30
0.0
 10
-4.6766
 20
22.0614
 30
0.0
 10
-4.6766
 20
22.0614
 30
0.0
 10
-4.599
 20
21.9518
 30
0.0
 10
-4.5035
 20
21.8967
 30
0.0
 10
-4.3897
 20
21.8967
 30
0.0
 10
-4.3897
 20
21.8967
 30
0.0
 10
-4.2754
 20
21.8967
 30
0.0
 10
-4.1799
 20
21.9522
 30
0.0
 10
-4.1023
 20
22.0623
 30
0.0
 10
-4.1023
 20
22.0623
 30
0.0
 10
-4.0247
 20
22.1724
 30
0.0
 10
-3.9856
 20
22.393
 30
0.0
 10
-3.9856
 20
22.7236
 30
0.0
 10
-3.9856
 20
22.7236
 30
0.0
 10
-3.9856
 20
23.0562
 30
0.0
 10
-4.0247
 20
23.2772
 30
0.0
 10
-4.1023
 20
23.3864
 30
0.0
 10
-4.1023
 20
23.3864
 30
0.0
 10
-4.1799
 20
23.496
 30
0.0
 10
-4.2763
 20
23.5505
 30
0.0
 10
-4.392
 20
23.5505
 30
0.0
 10
-4.392
 20
23.5505
 30
0.0
 10
-4.5063
 20
23.5505
 30
0.0
 10
-4.5971
 20
23.5021
 30
0.0
 10
-4.6653
 20
23.4057
 30
0.0
 10
-4.6653
 20
23.4057
 30
0.0
 10
-4.7504
 20
23.2829
 30
0.0
 10
-4.7932
 20
23.0552
 30
0.0
 10
-4.7932
 20
22.7236
 30
0.0
  0
SPLINE
  5
8B
330
1F
100
AcDbEntity
  8
DEFAULT_2
 62
   250
100
AcDbSpline
210
0.0
220
0.0
230
1.0
 70
    24
 71
     3
 72
     8
 73
     4
 74
     0
 42
0.0000000001
 43
0.0000000001
 40
0.0
 40
0.0
 40
0.0
 40
0.0
 40
1.0
 40
1.0
 40
1.0
 40
1.0
 10
-16.4383
 20
21.4027
 30
0.0
 10
-16.4383
 20
21.4027
 30
0.0
 10
5.0838
 20
21.4027
 30
0.0
 10
5.0838
 20
21.4027
 30
0.0
  0
SPLINE
  5
8C
330
1F
100
AcDbEntity
  8
DEFAULT_2
 62
   250
100
AcDbSpline
210
0.0
220
0.0
230
1.0
 70
    11
 71
     3
 72
    20
 73
    16
 74
     0
 42
0.0000000001
 43
0.0000000001
 40
0.0
 40
0.0
 40
0.0
 40
0.0
 40
0.2
 40
0.2
 40
0.2
 40
0.2
 40
0.4
 40
0.4
 40
0.4
 40
0.4
 40
0.6
 40
0.6
 40
0.6
 40
0.6
 40
1.0
 40
1.0
 40
1.0
 40
1.0
 10
2.794
 20
21.8991
 30
0.0
 10
2.794
 20
21.8991
 30
0.0
 10
5.794
 20
21.4757
 30
0.0
 10
5.794
 20
21.4757
 30
0.0
 10
5.794
 20
21.4757
 30
0.0
 10
5.794
 20
21.4757
 30
0.0
 10
5.794
 20
21.3817
 30
0.0
 10
5.794
 20
21.3817
 30
0.0
 10
5.794
 20
21.3817
 30
0.0
 10
5.794
 20
21.3817
 30
0.0
 10
2.794
 20
20.9302
 30
0.0
 10
2.794
 20
20.9302
 30
0.0
 10
2.794
 20
20.9302
 30
0.0
 10
2.794
 20
20.9302
 30
0.0
 10
2.794
 20
21.8991
 30
0.0
 10
2.794
 20
21.8991
 30
0.0
  0
SPLINE
  5
8D
330
1F
100
AcDbEntity
  8
DEFAULT_2
 62
   250
100
AcDbSpline
210
0.0
220
0.0
230
1.0
 70
    11
 71
     3
 72
    20
 73
    16
 74
     0
 42
0.0000000001
 43
0.0000000001
 40
0.0
 40
0.0
 40
0.0
 40
0.0
 40
0.2
 40
0.2
 40
0.2
 40
0.2
 40
0.4
 40
0.4
 40
0.4
 40
0.4
 40
0.6
 40
0.6
 40
0.6
 40
0.6
 40
1.0
 40
1.0
 40
1.0
 40
1.0
 10
-14.148
 20
20.9662
 30
0.0
 10
-14.148
 20
20.9662
 30
0.0
 10
-17.148
 20
21.3895
 30
0.0
 10
-17.148
 20
21.3895
 30
0.0
 10
-17.148
 20
21.3895
 30
0.0
 10
-17.148
 20
21.3895
 30
0.0
 10
-17.148
 20
21.4836
 30
0.0
 10
-17.148
 20
21.4836
 30
0.0
 10
-17.148
 20
21.4836
 30
0.0
 10
-17.148
 20
21.4836
 30
0.0
 10
-14.148
 20
21.9351
 30
0.0
 10
-14.148
 20
21.9351
 30
0.0
 10
-14.148
 20
21.9351
 30
0.0
 10
-14.148
 20
21.9351
 30
0.0
 10
-14.148
 20
20.9662
 30
0.0
 10
-14.148
 20
20.9662
 30
0.0
  0
SPLINE
  5
8E
330
1F
100
AcDbEntity
  8
DEFAULT_2
 62
   250
100
AcDbSpline
210
0.0
220
0.0
230
1.0
 70
    11
 71
     3
 72
    40
 73
    36
 74
     0
 42
0.0000000001
 43
0.0000000001
 40
0.0
 40
0.0
 40
0.0
 40
0.0
 40
0.1
 40
0.1
 40
0.1
 40
0.1
 40
0.2
 40
0.2
 40
0.2
 40
0.2
 40
0.3
 40
0.3
 40
0.3
 40
0.3
 40
0.4
 40
0.4
 40
0.4
 40
0.4
 40
0.5
 40
0.5
 40
0.5
 40
0.5
 40
0.6
 40
0.6
 40
0.6
 40
0.6
 40
0.7
 40
0.7
 40
0.7
 40
0.7
 40
0.8
 40
0.8
 40
0.8
 40
0.8
 40
1.0
 40
1.0
 40
1.0
 40
1.0
 10
-0.5769
 20
-30.1339
 30
0.0
 10
-0.5769
 20
-30.1339
 30
0.0
 10
-0.8248
 20
-30.1339
 30
0.0
 10
-0.8248
 20
-30.1339
 30
0.0
 10
-0.8248
 20
-30.1339
 30
0.0
 10
-0.8248
 20
-30.1339
 30
0.0
 10
-0.8248
 20
-28.5535
 30
0.0
 10
-0.8248
 20
-28.5535
 30
0.0
 10
-0.8248
 20
-28.5535
 30
0.0
 10
-0.8846
 20
-28.6104
 30
0.0
 10
-0.9626
 20
-28.6673
 30
0.0
 10
-1.0595
 20
-28.7242
 30
0.0
 10
-1.0595
 20
-28.7242
 30
0.0
 10
-1.1569
 20
-28.7811
 30
0.0
 10
-1.2439
 20
-28.824
 30
0.0
 10
-1.3211
 20
-28.8522
 30
0.0
 10
-1.3211
 20
-28.8522
 30
0.0
 10
-1.3211
 20
-28.8522
 30
0.0
 10
-1.3211
 20
-28.6127
 30
0.0
 10
-1.3211
 20
-28.6127
 30
0.0
 10
-1.3211
 20
-28.6127
 30
0.0
 10
-1.1823
 20
-28.5474
 30
0.0
 10
-1.0609
 20
-28.4684
 30
0.0
 10
-0.957
 20
-28.3757
 30
0.0
 10
-0.957
 20
-28.3757
 30
0.0
 10
-0.8535
 20
-28.2826
 30
0.0
 10
-0.7797
 20
-28.1927
 30
0.0
 10
-0.7364
 20
-28.1052
 30
0.0
 10
-0.7364
 20
-28.1052
 30
0.0
 10
-0.7364
 20
-28.1052
 30
0.0
 10
-0.5769
 20
-28.1052
 30
0.0
 10
-0.5769
 20
-28.1052
 30
0.0
 10
-0.5769
 20
-28.1052
 30
0.0
 10
-0.5769
 20
-28.1052
 30
0.0
 10
-0.5769
 20
-30.1339
 30
0.0
 10
-0.5769
 20
-30.1339
 30
0.0
  0
SPLINE
  5
8F
330
1F
100
AcDbEntity
  8
DEFAULT_2
 62
   250
100
AcDbSpline
210
0.0
220
0.0
230
1.0
 70
    11
 71
     3
 72
    52
 73
    48
 74
     0
 42
0.0000000001
 43
0.0000000001
 40
0.0
 40
0.0
 40
0.0
 40
0.0
 40
0.0769230769230769
 40
0.0769230769230769
 40
0.0769230769230769
 40
0.0769230769230769
 40
0.1538461538461539
 40
0.1538461538461539
 40
0.1538461538461539
 40
0.1538461538461539
 40
0.2307692307692308
 40
0.2307692307692308
 40
0.2307692307692308
 40
0.2307692307692308
 40
0.3076923076923077
 40
0.3076923076923077
 40
0.3076923076923077
 40
0.3076923076923077
 40
0.3846153846153846
 40
0.3846153846153846
 40
0.3846153846153846
 40
0.3846153846153846
 40
0.4615384615384616
 40
0.4615384615384616
 40
0.4615384615384616
 40
0.4615384615384616
 40
0.5384615384615384
 40
0.5384615384615384
 40
0.5384615384615384
 40
0.5384615384615384
 40
0.6153846153846154
 40
0.6153846153846154
 40
0.6153846153846154
 40
0.6153846153846154
 40
0.6923076923076923
 40
0.6923076923076923
 40
0.6923076923076923
 40
0.6923076923076923
 40
0.7692307692307693
 40
0.7692307692307693
 40
0.7692307692307693
 40
0.7692307692307693
 40
0.8461538461538461
 40
0.8461538461538461
 40
0.8461538461538461
 40
0.8461538461538461
 40
1.0
 40
1.0
 40
1.0
 40
1.0
 10
0.0585
 20
-29.1377
 30
0.0
 10
0.0585
 20
-28.8987
 30
0.0
 10
0.083
 20
-28.7063
 30
0.0
 10
0.1324
 20
-28.561
 30
0.0
 10
0.1324
 20
-28.561
 30
0.0
 10
0.1813
 20
-28.4152
 30
0.0
 10
0.2547
 20
-28.3028
 30
0.0
 10
0.3516
 20
-28.2238
 30
0.0
 10
0.3516
 20
-28.2238
 30
0.0
 10
0.4485
 20
-28.1447
 30
0.0
 10
0.5703
 20
-28.1052
 30
0.0
 10
0.717
 20
-28.1052
 30
0.0
 10
0.717
 20
-28.1052
 30
0.0
 10
0.8257
 20
-28.1052
 30
0.0
 10
0.9207
 20
-28.1273
 30
0.0
 10
1.0025
 20
-28.1711
 30
0.0
 10
1.0025
 20
-28.1711
 30
0.0
 10
1.0844
 20
-28.2144
 30
0.0
 10
1.1516
 20
-28.2774
 30
0.0
 10
1.2053
 20
-28.3597
 30
0.0
 10
1.2053
 20
-28.3597
 30
0.0
 10
1.2584
 20
-28.442
 30
0.0
 10
1.3003
 20
-28.5422
 30
0.0
 10
1.3304
 20
-28.6603
 30
0.0
 10
1.3304
 20
-28.6603
 30
0.0
 10
1.361
 20
-28.7783
 30
0.0
 10
1.376
 20
-28.9373
 30
0.0
 10
1.376
 20
-29.1377
 30
0.0
 10
1.376
 20
-29.1377
 30
0.0
 10
1.376
 20
-29.3747
 30
0.0
 10
1.3515
 20
-29.5657
 30
0.0
 10
1.3031
 20
-29.7115
 30
0.0
 10
1.3031
 20
-29.7115
 30
0.0
 10
1.2542
 20
-29.8573
 30
0.0
 10
1.1813
 20
-29.9698
 30
0.0
 10
1.0844
 20
-30.0492
 30
0.0
 10
1.0844
 20
-30.0492
 30
0.0
 10
0.9875
 20
-30.1287
 30
0.0
 10
0.8652
 20
-30.1682
 30
0.0
 10
0.717
 20
-30.1682
 30
0.0
 10
0.717
 20
-30.1682
 30
0.0
 10
0.5223
 20
-30.1682
 30
0.0
 10
0.3694
 20
-30.0986
 30
0.0
 10
0.2584
 20
-29.9589
 30
0.0
 10
0.2584
 20
-29.9589
 30
0.0
 10
0.1253
 20
-29.791
 30
0.0
 10
0.0585
 20
-29.5168
 30
0.0
 10
0.0585
 20
-29.1377
 30
0.0
  0
SPLINE
  5
90
330
1F
100
AcDbEntity
  8
DEFAULT_2
 62
   250
100
AcDbSpline
210
0.0
220
0.0
230
1.0
 70
    11
 71
     3
 72
    36
 73
    32
 74
     0
 42
0.0000000001
 43
0.0000000001
 40
0.0
 40
0.0
 40
0.0
 40
0.0
 40
0.1111111111111111
 40
0.1111111111111111
 40
0.1111111111111111
 40
0.1111111111111111
 40
0.2222222222222222
 40
0.2222222222222222
 40
0.2222222222222222
 40
0.2222222222222222
 40
0.3333333333333333
 40
0.3333333333333333
 40
0.3333333333333333
 40
0.3333333333333333
 40
0.4444444444444444
 40
0.4444444444444444
 40
0.4444444444444444
 40
0.4444444444444444
 40
0.5555555555555556
 40
0.5555555555555556
 40
0.5555555555555556
 40
0.5555555555555556
 40
0.6666666666666666
 40
0.6666666666666666
 40
0.6666666666666666
 40
0.6666666666666666
 40
0.7777777777777778
 40
0.7777777777777778
 40
0.7777777777777778
 40
0.7777777777777778
 40
1.0
 40
1.0
 40
1.0
 40
1.0
 10
0.3135
 20
-29.1377
 30
0.0
 10
0.3135
 20
-29.4693
 30
0.0
 10
0.3525
 20
-29.6899
 30
0.0
 10
0.4301
 20
-29.7999
 30
0.0
 10
0.4301
 20
-29.7999
 30
0.0
 10
0.5077
 20
-29.9095
 30
0.0
 10
0.6032
 20
-29.9646
 30
0.0
 10
0.717
 20
-29.9646
 30
0.0
 10
0.717
 20
-29.9646
 30
0.0
 10
0.8313
 20
-29.9646
 30
0.0
 10
0.9268
 20
-29.9091
 30
0.0
 10
1.0044
 20
-29.799
 30
0.0
 10
1.0044
 20
-29.799
 30
0.0
 10
1.082
 20
-29.6889
 30
0.0
 10
1.1211
 20
-29.4683
 30
0.0
 10
1.1211
 20
-29.1377
 30
0.0
 10
1.1211
 20
-29.1377
 30
0.0
 10
1.1211
 20
-28.8051
 30
0.0
 10
1.082
 20
-28.5841
 30
0.0
 10
1.0044
 20
-28.4749
 30
0.0
 10
1.0044
 20
-28.4749
 30
0.0
 10
0.9268
 20
-28.3653
 30
0.0
 10
0.8304
 20
-28.3108
 30
0.0
 10
0.7147
 20
-28.3108
 30
0.0
 10
0.7147
 20
-28.3108
 30
0.0
 10
0.6004
 20
-28.3108
 30
0.0
 10
0.5096
 20
-28.3592
 30
0.0
 10
0.4414
 20
-28.4556
 30
0.0
 10
0.4414
 20
-28.4556
 30
0.0
 10
0.3563
 20
-28.5784
 30
0.0
 10
0.3135
 20
-28.8061
 30
0.0
 10
0.3135
 20
-29.1377
 30
0.0
  0
SPLINE
  5
91
330
1F
100
AcDbEntity
  8
DEFAULT_2
 62
   250
100
AcDbSpline
210
0.0
220
0.0
230
1.0
 70
    24
 71
     3
 72
     8
 73
     4
 74
     0
 42
0.0000000001
 43
0.0000000001
 40
0.0
 40
0.0
 40
0.0
 40
0.0
 40
1.0
 40
1.0
 40
1.0
 40
1.0
 10
-11.8099
 20
-30.5207
 30
0.0
 10
-11.8099
 20
-30.5207
 30
0.0
 10
1.8813
 20
-30.5207
 30
0.0
 10
1.8813
 20
-30.5207
 30
0.0
  0
SPLINE
  5
92
330
1F
100
AcDbEntity
  8
DEFAULT_2
 62
   250
100
AcDbSpline
210
0.0
220
0.0
230
1.0
 70
    11
 71
     3
 72
    20
 73
    16
 74
     0
 42
0.0000000001
 43
0.0000000001
 40
0.0
 40
0.0
 40
0.0
 40
0.0
 40
0.2
 40
0.2
 40
0.2
 40
0.2
 40
0.4
 40
0.4
 40
0.4
 40
0.4
 40
0.6
 40
0.6
 40
0.6
 40
0.6
 40
1.0
 40
1.0
 40
1.0
 40
1.0
 10
-9.4423
 20
-30.02
 30
0.0
 10
-9.4423
 20
-30.02
 30
0.0
 10
-6.4423
 20
-30.4433
 30
0.0
 10
-6.4423
 20
-30.4433
 30
0.0
 10
-6.4423
 20
-30.4433
 30
0.0
 10
-6.4423
 20
-30.4433
 30
0.0
 10
-6.4423
 20
-30.5374
 30
0.0
 10
-6.4423
 20
-30.5374
 30
0.0
 10
-6.4423
 20
-30.5374
 30
0.0
 10
-6.4423
 20
-30.5374
 30
0.0
 10
-9.4423
 20
-30.9888
 30
0.0
 10
-9.4423
 20
-30.9888
 30
0.0
 10
-9.4423
 20
-30.9888
 30
0.0
 10
-9.4423
 20
-30.9888
 30
0.0
 10
-9.4423
 20
-30.02
 30
0.0
 10
-9.4423
 20
-30.02
 30
0.0
  0
SPLINE
  5
93
330
1F
100
AcDbEntity
  8
DEFAULT_2
 62
   250
100
AcDbSpline
210
0.0
220
0.0
230
1.0
 70
    11
 71
     3
 72
    20
 73
    16
 74
     0
 42
0.0000000001
 43
0.0000000001
 40
0.0
 40
0.0
 40
0.0
 40
0.0
 40
0.2
 40
0.2
 40
0.2
 40
0.2
 40
0.4
 40
0.4
 40
0.4
 40
0.4
 40
0.6
 40
0.6
 40
0.6
 40
0.6
 40
1.0
 40
1.0
 40
1.0
 40
1.0
 10
-1.8712
 20
-30.9727
 30
0.0
 10
-1.8712
 20
-30.9727
 30
0.0
 10
-4.8712
 20
-30.5493
 30
0.0
 10
-4.8712
 20
-30.5493
 30
0.0
 10
-4.8712
 20
-30.5493
 30
0.0
 10
-4.8712
 20
-30.5493
 30
0.0
 10
-4.8712
 20
-30.4553
 30
0.0
 10
-4.8712
 20
-30.4553
 30
0.0
 10
-4.8712
 20
-30.4553
 30
0.0
 10
-4.8712
 20
-30.4553
 30
0.0
 10
-1.8712
 20
-30.0038
 30
0.0
 10
-1.8712
 20
-30.0038
 30
0.0
 10
-1.8712
 20
-30.0038
 30
0.0
 10
-1.8712
 20
-30.0038
 30
0.0
 10
-1.8712
 20
-30.9727
 30
0.0
 10
-1.8712
 20
-30.9727
 30
0.0
  0
SPLINE
  5
94
330
1F
100
AcDbEntity
  8
DEFAULT_2
 62
   250
100
AcDbSpline
210
0.0
220
0.0
230
1.0
 70
    11
 71
     3
 72
    92
 73
    88
 74
     0
 42
0.0000000001
 43
0.0000000001
 40
0.0
 40
0.0
 40
0.0
 40
0.0
 40
0.0434782608695652
 40
0.0434782608695652
 40
0.0434782608695652
 40
0.0434782608695652
 40
0.0869565217391304
 40
0.0869565217391304
 40
0.0869565217391304
 40
0.0869565217391304
 40
0.1304347826086956
 40
0.1304347826086956
 40
0.1304347826086956
 40
0.1304347826086956
 40
0.1739130434782609
 40
0.1739130434782609
 40
0.1739130434782609
 40
0.1739130434782609
 40
0.2173913043478261
 40
0.2173913043478261
 40
0.2173913043478261
 40
0.2173913043478261
 40
0.2608695652173913
 40
0.2608695652173913
 40
0.2608695652173913
 40
0.2608695652173913
 40
0.3043478260869565
 40
0.3043478260869565
 40
0.3043478260869565
 40
0.3043478260869565
 40
0.3478260869565217
 40
0.3478260869565217
 40
0.3478260869565217
 40
0.3478260869565217
 40
0.391304347826087
 40
0.391304347826087
 40
0.391304347826087
 40
0.391304347826087
 40
0.4347826086956522
 40
0.4347826086956522
 40
0.4347826086956522
 40
0.4347826086956522
 40
0.4782608695652174
 40
0.4782608695652174
 40
0.4782608695652174
 40
0.4782608695652174
 40
0.5217391304347826
 40
0.5217391304347826
 40
0.5217391304347826
 40
0.5217391304347826
 40
0.5652173913043478
 40
0.5652173913043478
 40
0.5652173913043478
 40
0.5652173913043478
 40
0.6086956521739131
 40
0.6086956521739131
 40
0.6086956521739131
 40
0.6086956521739131
 40
0.6521739130434783
 40
0.6521739130434783
 40
0.6521739130434783
 40
0.6521739130434783
 40
0.6956521739130435
 40
0.6956521739130435
 40
0.6956521739130435
 40
0.6956521739130435
 40
0.7391304347826086
 40
0.7391304347826086
 40
0.7391304347826086
 40
0.7391304347826086
 40
0.782608695652174
 40
0.782608695652174
 40
0.782608695652174
 40
0.782608695652174
 40
0.8260869565217391
 40
0.8260869565217391
 40
0.8260869565217391
 40
0.8260869565217391
 40
0.8695652173913043
 40
0.8695652173913043
 40
0.8695652173913043
 40
0.8695652173913043
 40
0.9130434782608695
 40
0.9130434782608695
 40
0.9130434782608695
 40
0.9130434782608695
 40
1.0
 40
1.0
 40
1.0
 40
1.0
 10
25.6878
 20
22.4074
 30
0.0
 10
25.6878
 20
22.4074
 30
0.0
 10
25.9484
 20
22.4295
 30
0.0
 10
25.9484
 20
22.4295
 30
0.0
 10
25.9484
 20
22.4295
 30
0.0
 10
25.9677
 20
22.3025
 30
0.0
 10
26.0124
 20
22.2074
 30
0.0
 10
26.0824
 20
22.1435
 30
0.0
 10
26.0824
 20
22.1435
 30
0.0
 10
26.153
 20
22.0795
 30
0.0
 10
26.2377
 20
22.0475
 30
0.0
 10
26.3369
 20
22.0475
 30
0.0
 10
26.3369
 20
22.0475
 30
0.0
 10
26.4564
 20
22.0475
 30
0.0
 10
26.5575
 20
22.0927
 30
0.0
 10
26.6398
 20
22.1825
 30
0.0
 10
26.6398
 20
22.1825
 30
0.0
 10
26.7226
 20
22.2728
 30
0.0
 10
26.764
 20
22.3923
 30
0.0
 10
26.764
 20
22.5409
 30
0.0
 10
26.764
 20
22.5409
 30
0.0
 10
26.764
 20
22.6825
 30
0.0
 10
26.7245
 20
22.794
 30
0.0
 10
26.645
 20
22.8758
 30
0.0
 10
26.645
 20
22.8758
 30
0.0
 10
26.5655
 20
22.9577
 30
0.0
 10
26.4616
 20
22.9986
 30
0.0
 10
26.3327
 20
22.9986
 30
0.0
 10
26.3327
 20
22.9986
 30
0.0
 10
26.2527
 20
22.9986
 30
0.0
 10
26.1807
 20
22.9803
 30
0.0
 10
26.1163
 20
22.944
 30
0.0
 10
26.1163
 20
22.944
 30
0.0
 10
26.0519
 20
22.9078
 30
0.0
 10
26.0016
 20
22.8608
 30
0.0
 10
25.9649
 20
22.8029
 30
0.0
 10
25.9649
 20
22.8029
 30
0.0
 10
25.9649
 20
22.8029
 30
0.0
 10
25.732
 20
22.833
 30
0.0
 10
25.732
 20
22.833
 30
0.0
 10
25.732
 20
22.833
 30
0.0
 10
25.732
 20
22.833
 30
0.0
 10
25.9277
 20
23.8707
 30
0.0
 10
25.9277
 20
23.8707
 30
0.0
 10
25.9277
 20
23.8707
 30
0.0
 10
25.9277
 20
23.8707
 30
0.0
 10
26.9324
 20
23.8707
 30
0.0
 10
26.9324
 20
23.8707
 30
0.0
 10
26.9324
 20
23.8707
 30
0.0
 10
26.9324
 20
23.8707
 30
0.0
 10
26.9324
 20
23.6336
 30
0.0
 10
26.9324
 20
23.6336
 30
0.0
 10
26.9324
 20
23.6336
 30
0.0
 10
26.9324
 20
23.6336
 30
0.0
 10
26.1262
 20
23.6336
 30
0.0
 10
26.1262
 20
23.6336
 30
0.0
 10
26.1262
 20
23.6336
 30
0.0
 10
26.1262
 20
23.6336
 30
0.0
 10
26.0171
 20
23.0908
 30
0.0
 10
26.0171
 20
23.0908
 30
0.0
 10
26.0171
 20
23.0908
 30
0.0
 10
26.1384
 20
23.1755
 30
0.0
 10
26.2659
 20
23.2178
 30
0.0
 10
26.399
 20
23.2178
 30
0.0
 10
26.399
 20
23.2178
 30
0.0
 10
26.5754
 20
23.2178
 30
0.0
 10
26.724
 20
23.1566
 30
0.0
 10
26.8454
 20
23.0343
 30
0.0
 10
26.8454
 20
23.0343
 30
0.0
 10
26.9667
 20
22.9121
 30
0.0
 10
27.0274
 20
22.755
 30
0.0
 10
27.0274
 20
22.563
 30
0.0
 10
27.0274
 20
22.563
 30
0.0
 10
27.0274
 20
22.3801
 30
0.0
 10
26.9738
 20
22.222
 30
0.0
 10
26.8675
 20
22.0889
 30
0.0
 10
26.8675
 20
22.0889
 30
0.0
 10
26.7377
 20
21.9257
 30
0.0
 10
26.5608
 20
21.8439
 30
0.0
 10
26.3369
 20
21.8439
 30
0.0
 10
26.3369
 20
21.8439
 30
0.0
 10
26.153
 20
21.8439
 30
0.0
 10
26.003
 20
21.8951
 30
0.0
 10
25.8868
 20
21.9981
 30
0.0
 10
25.8868
 20
21.9981
 30
0.0
 10
25.7706
 20
22.1012
 30
0.0
 10
25.7043
 20
22.2375
 30
0.0
 10
25.6878
 20
22.4074
 30
0.0
  0
SPLINE
  5
95
330
1F
100
AcDbEntity
  8
DEFAULT_2
 62
   250
100
AcDbSpline
210
0.0
220
0.0
230
1.0
 70
    24
 71
     3
 72
     8
 73
     4
 74
     0
 42
0.0000000001
 43
0.0000000001
 40
0.0
 40
0.0
 40
0.0
 40
0.0
 40
1.0
 40
1.0
 40
1.0
 40
1.0
 10
25.6867
 20
21.4027
 30
0.0
 10
25.6867
 20
21.4027
 30
0.0
 10
35.6919
 20
21.4027
 30
0.0
 10
35.6919
 20
21.4027
 30
0.0
  0
SPLINE
  5
96
330
1F
100
AcDbEntity
  8
DEFAULT_2
 62
   250
100
AcDbSpline
210
0.0
220
0.0
230
1.0
 70
    11
 71
     3
 72
    20
 73
    16
 74
     0
 42
0.0000000001
 43
0.0000000001
 40
0.0
 40
0.0
 40
0.0
 40
0.0
 40
0.2
 40
0.2
 40
0.2
 40
0.2
 40
0.4
 40
0.4
 40
0.4
 40
0.4
 40
0.6
 40
0.6
 40
0.6
 40
0.6
 40
1.0
 40
1.0
 40
1.0
 40
1.0
 10
27.5731
 20
21.9001
 30
0.0
 10
27.5731
 20
21.9001
 30
0.0
 10
30.5731
 20
21.4767
 30
0.0
 10
30.5731
 20
21.4767
 30
0.0
 10
30.5731
 20
21.4767
 30
0.0
 10
30.5731
 20
21.4767
 30
0.0
 10
30.5731
 20
21.3827
 30
0.0
 10
30.5731
 20
21.3827
 30
0.0
 10
30.5731
 20
21.3827
 30
0.0
 10
30.5731
 20
21.3827
 30
0.0
 10
27.5731
 20
20.9312
 30
0.0
 10
27.5731
 20
20.9312
 30
0.0
 10
27.5731
 20
20.9312
 30
0.0
 10
27.5731
 20
20.9312
 30
0.0
 10
27.5731
 20
21.9001
 30
0.0
 10
27.5731
 20
21.9001
 30
0.0
  0
SPLINE
  5
97
330
1F
100
AcDbEntity
  8
DEFAULT_2
 62
   250
100
AcDbSpline
210
0.0
220
0.0
230
1.0
 70
    11
 71
     3
 72
    20
 73
    16
 74
     0
 42
0.0000000001
 43
0.0000000001
 40
0.0
 40
0.0
 40
0.0
 40
0.0
 40
0.2
 40
0.2
 40
0.2
 40
0.2
 40
0.4
 40
0.4
 40
0.4
 40
0.4
 40
0.6
 40
0.6
 40
0.6
 40
0.6
 40
1.0
 40
1.0
 40
1.0
 40
1.0
 10
34.4849
 20
20.9507
 30
0.0
 10
34.4849
 20
20.9507
 30
0.0
 10
31.4849
 20
21.374
 30
0.0
 10
31.4849
 20
21.374
 30
0.0
 10
31.4849
 20
21.374
 30
0.0
 10
31.4849
 20
21.374
 30
0.0
 10
31.4849
 20
21.4681
 30
0.0
 10
31.4849
 20
21.4681
 30
0.0
 10
31.4849
 20
21.4681
 30
0.0
 10
31.4849
 20
21.4681
 30
0.0
 10
34.4849
 20
21.9196
 30
0.0
 10
34.4849
 20
21.9196
 30
0.0
 10
34.4849
 20
21.9196
 30
0.0
 10
34.4849
 20
21.9196
 30
0.0
 10
34.4849
 20
20.9507
 30
0.0
 10
34.4849
 20
20.9507
 30
0.0
  0
SPLINE
  5
98
330
1F
100
AcDbEntity
  8
DEFAULT_2
 62
   250
100
AcDbSpline
210
0.0
220
0.0
230
1.0
 70
    24
 71
     3
 72
     8
 73
     4
 74
     0
 42
0.0000000001
 43
0.0000000001
 40
0.0
 40
0.0
 40
0.0
 40
0.0
 40
1.0
 40
1.0
 40
1.0
 40
1.0
 10
-23.8759
 20
-4.0128
 30
0.0
 10
-23.8759
 20
-4.0128
 30
0.0
 10
-23.8759
 20
7.0978
 30
0.0
 10
-23.8759
 20
7.0978
 30
0.0
  0
SPLINE
  5
99
330
1F
100
AcDbEntity
  8
DEFAULT_2
 62
   250
100
AcDbSpline
210
0.0
220
0.0
230
1.0
 70
    11
 71
     3
 72
    20
 73
    16
 74
     0
 42
0.0000000001
 43
0.0000000001
 40
0.0
 40
0.0
 40
0.0
 40
0.0
 40
0.2
 40
0.2
 40
0.2
 40
0.2
 40
0.4
 40
0.4
 40
0.4
 40
0.4
 40
0.6
 40
0.6
 40
0.6
 40
0.6
 40
1.0
 40
1.0
 40
1.0
 40
1.0
 10
-23.3901
 20
5.876
 30
0.0
 10
-23.3901
 20
5.876
 30
0.0
 10
-23.8134
 20
2.8761
 30
0.0
 10
-23.8134
 20
2.8761
 30
0.0
 10
-23.8134
 20
2.8761
 30
0.0
 10
-23.8134
 20
2.8761
 30
0.0
 10
-23.9074
 20
2.8761
 30
0.0
 10
-23.9074
 20
2.8761
 30
0.0
 10
-23.9074
 20
2.8761
 30
0.0
 10
-23.9074
 20
2.8761
 30
0.0
 10
-24.3589
 20
5.876
 30
0.0
 10
-24.3589
 20
5.876
 30
0.0
 10
-24.3589
 20
5.876
 30
0.0
 10
-24.3589
 20
5.876
 30
0.0
 10
-23.3901
 20
5.876
 30
0.0
 10
-23.3901
 20
5.876
 30
0.0
  0
SPLINE
  5
9A
330
1F
100
AcDbEntity
  8
DEFAULT_2
 62
   250
100
AcDbSpline
210
0.0
220
0.0
230
1.0
 70
    11
 71
     3
 72
    20
 73
    16
 74
     0
 42
0.0000000001
 43
0.0000000001
 40
0.0
 40
0.0
 40
0.0
 40
0.0
 40
0.2
 40
0.2
 40
0.2
 40
0.2
 40
0.4
 40
0.4
 40
0.4
 40
0.4
 40
0.6
 40
0.6
 40
0.6
 40
0.6
 40
1.0
 40
1.0
 40
1.0
 40
1.0
 10
-24.3414
 20
-2.8578
 30
0.0
 10
-24.3414
 20
-2.8578
 30
0.0
 10
-23.918
 20
0.1423
 30
0.0
 10
-23.918
 20
0.1423
 30
0.0
 10
-23.918
 20
0.1423
 30
0.0
 10
-23.918
 20
0.1423
 30
0.0
 10
-23.824
 20
0.1423
 30
0.0
 10
-23.824
 20
0.1423
 30
0.0
 10
-23.824
 20
0.1423
 30
0.0
 10
-23.824
 20
0.1423
 30
0.0
 10
-23.3725
 20
-2.8578
 30
0.0
 10
-23.3725
 20
-2.8578
 30
0.0
 10
-23.3725
 20
-2.8578
 30
0.0
 10
-23.3725
 20
-2.8578
 30
0.0
 10
-24.3414
 20
-2.8578
 30
0.0
 10
-24.3414
 20
-2.8578
 30
0.0
  0
SPLINE
  5
9B
330
1F
100
AcDbEntity
  8
DEFAULT_2
 62
   250
100
AcDbSpline
210
0.0
220
0.0
230
1.0
 70
    11
 71
     3
 72
    92
 73
    88
 74
     0
 42
0.0000000001
 43
0.0000000001
 40
0.0
 40
0.0
 40
0.0
 40
0.0
 40
0.0434782608695652
 40
0.0434782608695652
 40
0.0434782608695652
 40
0.0434782608695652
 40
0.0869565217391304
 40
0.0869565217391304
 40
0.0869565217391304
 40
0.0869565217391304
 40
0.1304347826086956
 40
0.1304347826086956
 40
0.1304347826086956
 40
0.1304347826086956
 40
0.1739130434782609
 40
0.1739130434782609
 40
0.1739130434782609
 40
0.1739130434782609
 40
0.2173913043478261
 40
0.2173913043478261
 40
0.2173913043478261
 40
0.2173913043478261
 40
0.2608695652173913
 40
0.2608695652173913
 40
0.2608695652173913
 40
0.2608695652173913
 40
0.3043478260869565
 40
0.3043478260869565
 40
0.3043478260869565
 40
0.3043478260869565
 40
0.3478260869565217
 40
0.3478260869565217
 40
0.3478260869565217
 40
0.3478260869565217
 40
0.391304347826087
 40
0.391304347826087
 40
0.391304347826087
 40
0.391304347826087
 40
0.4347826086956522
 40
0.4347826086956522
 40
0.4347826086956522
 40
0.4347826086956522
 40
0.4782608695652174
 40
0.4782608695652174
 40
0.4782608695652174
 40
0.4782608695652174
 40
0.5217391304347826
 40
0.5217391304347826
 40
0.5217391304347826
 40
0.5217391304347826
 40
0.5652173913043478
 40
0.5652173913043478
 40
0.5652173913043478
 40
0.5652173913043478
 40
0.6086956521739131
 40
0.6086956521739131
 40
0.6086956521739131
 40
0.6086956521739131
 40
0.6521739130434783
 40
0.6521739130434783
 40
0.6521739130434783
 40
0.6521739130434783
 40
0.6956521739130435
 40
0.6956521739130435
 40
0.6956521739130435
 40
0.6956521739130435
 40
0.7391304347826086
 40
0.7391304347826086
 40
0.7391304347826086
 40
0.7391304347826086
 40
0.782608695652174
 40
0.782608695652174
 40
0.782608695652174
 40
0.782608695652174
 40
0.8260869565217391
 40
0.8260869565217391
 40
0.8260869565217391
 40
0.8260869565217391
 40
0.8695652173913043
 40
0.8695652173913043
 40
0.8695652173913043
 40
0.8695652173913043
 40
0.9130434782608695
 40
0.9130434782608695
 40
0.9130434782608695
 40
0.9130434782608695
 40
1.0
 40
1.0
 40
1.0
 40
1.0
 10
-25.0685
 20
1.427
 30
0.0
 10
-25.0685
 20
1.427
 30
0.0
 10
-24.83
 20
1.427
 30
0.0
 10
-24.83
 20
1.427
 30
0.0
 10
-24.83
 20
1.427
 30
0.0
 10
-24.83
 20
1.427
 30
0.0
 10
-24.83
 20
0.0916
 30
0.0
 10
-24.83
 20
0.0916
 30
0.0
 10
-24.83
 20
0.0916
 30
0.0
 10
-24.8897
 20
0.0897
 30
0.0
 10
-24.9471
 20
0.0991
 30
0.0
 10
-25.0021
 20
0.1203
 30
0.0
 10
-25.0021
 20
0.1203
 30
0.0
 10
-25.0934
 20
0.1542
 30
0.0
 10
-25.1828
 20
0.2087
 30
0.0
 10
-25.2712
 20
0.2835
 30
0.0
 10
-25.2712
 20
0.2835
 30
0.0
 10
-25.3592
 20
0.3588
 30
0.0
 10
-25.4612
 20
0.467
 30
0.0
 10
-25.5769
 20
0.6081
 30
0.0
 10
-25.5769
 20
0.6081
 30
0.0
 10
-25.7571
 20
0.8277
 30
0.0
 10
-25.8996
 20
0.9764
 30
0.0
 10
-26.005
 20
1.0535
 30
0.0
 10
-26.005
 20
1.0535
 30
0.0
 10
-26.1098
 20
1.1306
 30
0.0
 10
-26.2096
 20
1.1692
 30
0.0
 10
-26.3032
 20
1.1692
 30
0.0
 10
-26.3032
 20
1.1692
 30
0.0
 10
-26.4015
 20
1.1692
 30
0.0
 10
-26.4843
 20
1.1339
 30
0.0
 10
-26.552
 20
1.0638
 30
0.0
 10
-26.552
 20
1.0638
 30
0.0
 10
-26.6192
 20
0.9933
 30
0.0
 10
-26.6531
 20
0.9016
 30
0.0
 10
-26.6531
 20
0.7887
 30
0.0
 10
-26.6531
 20
0.7887
 30
0.0
 10
-26.6531
 20
0.6692
 30
0.0
 10
-26.6174
 20
0.5737
 30
0.0
 10
-26.5454
 20
0.5022
 30
0.0
 10
-26.5454
 20
0.5022
 30
0.0
 10
-26.4739
 20
0.4303
 30
0.0
 10
-26.3747
 20
0.394
 30
0.0
 10
-26.2481
 20
0.3931
 30
0.0
 10
-26.2481
 20
0.3931
 30
0.0
 10
-26.2481
 20
0.3931
 30
0.0
 10
-26.274
 20
0.1382
 30
0.0
 10
-26.274
 20
0.1382
 30
0.0
 10
-26.274
 20
0.1382
 30
0.0
 10
-26.4645
 20
0.1556
 30
0.0
 10
-26.6094
 20
0.2214
 30
0.0
 10
-26.7091
 20
0.3352
 30
0.0
 10
-26.7091
 20
0.3352
 30
0.0
 10
-26.8088
 20
0.4491
 30
0.0
 10
-26.8587
 20
0.6024
 30
0.0
 10
-26.8587
 20
0.7943
 30
0.0
 10
-26.8587
 20
0.7943
 30
0.0
 10
-26.8587
 20
0.9881
 30
0.0
 10
-26.8046
 20
1.1415
 30
0.0
 10
-26.6973
 20
1.2543
 30
0.0
 10
-26.6973
 20
1.2543
 30
0.0
 10
-26.5896
 20
1.3677
 30
0.0
 10
-26.4565
 20
1.4241
 30
0.0
 10
-26.2975
 20
1.4241
 30
0.0
 10
-26.2975
 20
1.4241
 30
0.0
 10
-26.2166
 20
1.4241
 30
0.0
 10
-26.1371
 20
1.4077
 30
0.0
 10
-26.0591
 20
1.3743
 30
0.0
 10
-26.0591
 20
1.3743
 30
0.0
 10
-25.981
 20
1.3414
 30
0.0
 10
-25.8987
 20
1.2863
 30
0.0
 10
-25.8126
 20
1.2097
 30
0.0
 10
-25.8126
 20
1.2097
 30
0.0
 10
-25.726
 20
1.133
 30
0.0
 10
-25.6075
 20
1.0055
 30
0.0
 10
-25.457
 20
0.8273
 30
0.0
 10
-25.457
 20
0.8273
 30
0.0
 10
-25.3319
 20
0.6786
 30
0.0
 10
-25.2472
 20
0.5831
 30
0.0
 10
-25.2025
 20
0.5408
 30
0.0
 10
-25.2025
 20
0.5408
 30
0.0
 10
-25.1583
 20
0.4985
 30
0.0
 10
-25.1136
 20
0.4637
 30
0.0
 10
-25.0685
 20
0.4359
 30
0.0
 10
-25.0685
 20
0.4359
 30
0.0
 10
-25.0685
 20
0.4359
 30
0.0
 10
-25.0685
 20
1.427
 30
0.0
 10
-25.0685
 20
1.427
 30
0.0
  0
SPLINE
  5
9C
330
1F
100
AcDbEntity
  8
DEFAULT_2
 62
   250
100
AcDbSpline
210
0.0
220
0.0
230
1.0
 70
    11
 71
     3
 72
    52
 73
    48
 74
     0
 42
0.0000000001
 43
0.0000000001
 40
0.0
 40
0.0
 40
0.0
 40
0.0
 40
0.0769230769230769
 40
0.0769230769230769
 40
0.0769230769230769
 40
0.0769230769230769
 40
0.1538461538461539
 40
0.1538461538461539
 40
0.1538461538461539
 40
0.1538461538461539
 40
0.2307692307692308
 40
0.2307692307692308
 40
0.2307692307692308
 40
0.2307692307692308
 40
0.3076923076923077
 40
0.3076923076923077
 40
0.3076923076923077
 40
0.3076923076923077
 40
0.3846153846153846
 40
0.3846153846153846
 40
0.3846153846153846
 40
0.3846153846153846
 40
0.4615384615384616
 40
0.4615384615384616
 40
0.4615384615384616
 40
0.4615384615384616
 40
0.5384615384615384
 40
0.5384615384615384
 40
0.5384615384615384
 40
0.5384615384615384
 40
0.6153846153846154
 40
0.6153846153846154
 40
0.6153846153846154
 40
0.6153846153846154
 40
0.6923076923076923
 40
0.6923076923076923
 40
0.6923076923076923
 40
0.6923076923076923
 40
0.7692307692307693
 40
0.7692307692307693
 40
0.7692307692307693
 40
0.7692307692307693
 40
0.8461538461538461
 40
0.8461538461538461
 40
0.8461538461538461
 40
0.8461538461538461
 40
1.0
 40
1.0
 40
1.0
 40
1.0
 10
-25.8262
 20
1.6927
 30
0.0
 10
-26.0652
 20
1.6927
 30
0.0
 10
-26.2576
 20
1.7172
 30
0.0
 10
-26.4029
 20
1.7666
 30
0.0
 10
-26.4029
 20
1.7666
 30
0.0
 10
-26.5487
 20
1.8155
 30
0.0
 10
-26.6611
 20
1.8889
 30
0.0
 10
-26.7401
 20
1.9858
 30
0.0
 10
-26.7401
 20
1.9858
 30
0.0
 10
-26.8192
 20
2.0827
 30
0.0
 10
-26.8587
 20
2.2045
 30
0.0
 10
-26.8587
 20
2.3512
 30
0.0
 10
-26.8587
 20
2.3512
 30
0.0
 10
-26.8587
 20
2.4599
 30
0.0
 10
-26.8366
 20
2.5549
 30
0.0
 10
-26.7928
 20
2.6367
 30
0.0
 10
-26.7928
 20
2.6367
 30
0.0
 10
-26.7495
 20
2.7186
 30
0.0
 10
-26.6865
 20
2.7858
 30
0.0
 10
-26.6042
 20
2.8395
 30
0.0
 10
-26.6042
 20
2.8395
 30
0.0
 10
-26.5219
 20
2.8926
 30
0.0
 10
-26.4217
 20
2.9345
 30
0.0
 10
-26.3036
 20
2.9646
 30
0.0
 10
-26.3036
 20
2.9646
 30
0.0
 10
-26.1856
 20
2.9952
 30
0.0
 10
-26.0266
 20
3.0102
 30
0.0
 10
-25.8262
 20
3.0102
 30
0.0
 10
-25.8262
 20
3.0102
 30
0.0
 10
-25.5892
 20
3.0102
 30
0.0
 10
-25.3982
 20
2.9857
 30
0.0
 10
-25.2524
 20
2.9373
 30
0.0
 10
-25.2524
 20
2.9373
 30
0.0
 10
-25.1066
 20
2.8884
 30
0.0
 10
-24.9941
 20
2.8155
 30
0.0
 10
-24.9147
 20
2.7186
 30
0.0
 10
-24.9147
 20
2.7186
 30
0.0
 10
-24.8352
 20
2.6217
 30
0.0
 10
-24.7957
 20
2.4994
 30
0.0
 10
-24.7957
 20
2.3512
 30
0.0
 10
-24.7957
 20
2.3512
 30
0.0
 10
-24.7957
 20
2.1565
 30
0.0
 10
-24.8653
 20
2.0036
 30
0.0
 10
-25.005
 20
1.8926
 30
0.0
 10
-25.005
 20
1.8926
 30
0.0
 10
-25.1729
 20
1.7595
 30
0.0
 10
-25.4471
 20
1.6927
 30
0.0
 10
-25.8262
 20
1.6927
 30
0.0
  0
SPLINE
  5
9D
330
1F
100
AcDbEntity
  8
DEFAULT_2
 62
   250
100
AcDbSpline
210
0.0
220
0.0
230
1.0
 70
    11
 71
     3
 72
    36
 73
    32
 74
     0
 42
0.0000000001
 43
0.0000000001
 40
0.0
 40
0.0
 40
0.0
 40
0.0
 40
0.1111111111111111
 40
0.1111111111111111
 40
0.1111111111111111
 40
0.1111111111111111
 40
0.2222222222222222
 40
0.2222222222222222
 40
0.2222222222222222
 40
0.2222222222222222
 40
0.3333333333333333
 40
0.3333333333333333
 40
0.3333333333333333
 40
0.3333333333333333
 40
0.4444444444444444
 40
0.4444444444444444
 40
0.4444444444444444
 40
0.4444444444444444
 40
0.5555555555555556
 40
0.5555555555555556
 40
0.5555555555555556
 40
0.5555555555555556
 40
0.6666666666666666
 40
0.6666666666666666
 40
0.6666666666666666
 40
0.6666666666666666
 40
0.7777777777777778
 40
0.7777777777777778
 40
0.7777777777777778
 40
0.7777777777777778
 40
1.0
 40
1.0
 40
1.0
 40
1.0
 10
-25.8262
 20
1.9477
 30
0.0
 10
-25.4946
 20
1.9477
 30
0.0
 10
-25.274
 20
1.9867
 30
0.0
 10
-25.164
 20
2.0643
 30
0.0
 10
-25.164
 20
2.0643
 30
0.0
 10
-25.0544
 20
2.1419
 30
0.0
 10
-24.9993
 20
2.2374
 30
0.0
 10
-24.9993
 20
2.3512
 30
0.0
 10
-24.9993
 20
2.3512
 30
0.0
 10
-24.9993
 20
2.4655
 30
0.0
 10
-25.0548
 20
2.561
 30
0.0
 10
-25.1649
 20
2.6386
 30
0.0
 10
-25.1649
 20
2.6386
 30
0.0
 10
-25.275
 20
2.7162
 30
0.0
 10
-25.4956
 20
2.7553
 30
0.0
 10
-25.8262
 20
2.7553
 30
0.0
 10
-25.8262
 20
2.7553
 30
0.0
 10
-26.1588
 20
2.7553
 30
0.0
 10
-26.3798
 20
2.7162
 30
0.0
 10
-26.489
 20
2.6386
 30
0.0
 10
-26.489
 20
2.6386
 30
0.0
 10
-26.5986
 20
2.561
 30
0.0
 10
-26.6531
 20
2.4646
 30
0.0
 10
-26.6531
 20
2.3489
 30
0.0
 10
-26.6531
 20
2.3489
 30
0.0
 10
-26.6531
 20
2.2346
 30
0.0
 10
-26.6047
 20
2.1438
 30
0.0
 10
-26.5083
 20
2.0756
 30
0.0
 10
-26.5083
 20
2.0756
 30
0.0
 10
-26.3855
 20
1.9905
 30
0.0
 10
-26.1578
 20
1.9477
 30
0.0
 10
-25.8262
 20
1.9477
 30
0.0
  0
ENDSEC
  0
SECTION
  2
OBJECTS
  0
DICTIONARY
  5
C
330
0
100
AcDbDictionary
  3
ACAD_GROUP
350
D
  3
ACAD_LAYOUT
350
1A
  3
ACAD_MATERIAL
350
3B
  3
ACAD_MLEADERSTYLE
350
C0
  3
ACAD_MLINESTYLE
350
17
  3
ACAD_PLOTSETTINGS
350
19
  3
ACAD_VISUALSTYLE
350
2A
  3
ACDBHEADERROUNDTRIPXREC
350
9E
  3
ACDBVARIABLEDICTIONARY
350
BE
  0
DICTIONARY
  5
D
102
{ACAD_REACTORS
330
C
102
}
330
C
100
AcDbDictionary
  0
DICTIONARY
  5
1A
102
{ACAD_REACTORS
330
C
102
}
330
C
100
AcDbDictionary
  0
DICTIONARY
  5
3B
102
{ACAD_REACTORS
330
C
102
}
330
C
100
AcDbDictionary
  3
BYBLOCK
350
3D
  3
BYLAYER
350
3C
  3
GLOBAL
350
3E
  0
DICTIONARY
  5
C0
102
{ACAD_REACTORS
330
C
102
}
330
C
100
AcDbDictionary
  0
DICTIONARY
  5
17
102
{ACAD_REACTORS
330
C
102
}
330
C
100
AcDbDictionary
  3
STANDARD
350
18
  0
DICTIONARY
  5
19
102
{ACAD_REACTORS
330
C
102
}
330
C
100
AcDbDictionary
  0
DICTIONARY
  5
2A
102
{ACAD_REACTORS
330
C
102
}
330
C
100
AcDbDictionary
  3
2DWIREFRAME
350
2F
  3
3D_HIDDEN
350
31
  3
3DWIREFRAME
350
30
  3
BASIC
350
32
  3
BRIGHTEN
350
36
  3
COLORCHANGE
350
3A
  3
CONCEPTUAL
350
34
  3
DIM
350
35
  3
FACEPATTERN
350
39
  3
FLAT
350
2B
  3
FLATWITHEDGES
350
2C
  3
GOURAUD
350
2D
  3
GOURAUDWITHEDGES
350
2E
  3
LINEPATTERN
350
38
  3
REALISTIC
350
33
  3
THICKEN
350
37
  0
DICTIONARY
  5
9E
102
{ACAD_REACTORS
330
C
102
}
330
C
100
AcDbDictionary
  3
CEPSNTYPE
350
A7
  3
DIMSTYLEDATA
350
BD
  3
FINGERPRINTGUID
350
A8
  3
HYPERLINKBASE
350
A1
  3
INSUNITS
350
A6
  3
LAYOUTDICT
350
A3
  3
LWETCUNION
350
A5
  3
PLOTSETDICT
350
A4
  3
PSVPSCALE
350
AA
  3
PUCSBASE
350
AD
  3
PUCSORGBACK
350
B3
  3
PUCSORGBOTTOM
350
AF
  3
PUCSORGFRONT
350
B2
  3
PUCSORGLEFT
350
B0
  3
PUCSORGRIGHT
350
B1
  3
PUCSORGTOP
350
AE
  3
PUCSORTHOREF
350
AB
  3
PUCSORTHOVIEW
350
AC
  3
STYLESHEET
350
A2
  3
TSTACKALIGN
350
9F
  3
TSTACKSIZE
350
A0
  3
UCSBASE
350
B6
  3
UCSORGBACK
350
BC
  3
UCSORGBOTTOM
350
B8
  3
UCSORGFRONT
350
BB
  3
UCSORGLEFT
350
B9
  3
UCSORGRIGHT
350
BA
  3
UCSORGTOP
350
B7
  3
UCSORTHOREF
350
B4
  3
UCSORTHOVIEW
350
B5
  3
VERSIONGUID
350
A9
  0
DICTIONARY
  5
BE
102
{ACAD_REACTORS
330
C
102
}
330
C
100
AcDbDictionary
  3
DIMASSOC
350
C1
  3
HIDETEXT
350
C2
  0
MATERIAL
  5
3D
102
{ACAD_REACTORS
330
3B
102
}
102
{ACAD_XDICTIONARY
360
C5
102
}
330
3B
100
AcDbMaterial
  1
ByBlock
  0
MATERIAL
  5
3C
102
{ACAD_REACTORS
330
3B
102
}
102
{ACAD_XDICTIONARY
360
C3
102
}
330
3B
100
AcDbMaterial
  1
ByLayer
  0
MATERIAL
  5
3E
102
{ACAD_REACTORS
330
3B
102
}
102
{ACAD_XDICTIONARY
360
C7
102
}
330
3B
100
AcDbMaterial
  1
Global
  0
MLINESTYLE
  5
18
102
{ACAD_REACTORS
330
17
102
}
330
17
100
AcDbMlineStyle
  2
Standard
 70
     0
  3

 62
   256
 51
90.0
 52
90.0
 71
     2
 49
0.5
 62
   256
  6
BYLAYER
 49
-0.5
 62
   256
  6
BYLAYER
  0
ACAD_PROXY_OBJECT
  5
2F
102
{ACAD_REACTORS
330
2A
102
}
330
2A
100
AcDbProxyObject
 90
      499
 91
      501
 93
      436
310
42CC9915DA5C99599C985B595049028333333333333E3BF0000000000000FB0107901411070040501600405405064090741402480A0340
1001
ACAD
1000
AcDbSavedByObjectVersion
1070
     0
  0
ACAD_PROXY_OBJECT
  5
31
102
{ACAD_REACTORS
330
2A
102
}
330
2A
100
AcDbProxyObject
 90
      499
 91
      501
 93
      500
310
424CD108121A5919195B90640502408333333333333E3BF0000000000000FB01079024090700405020000000000001110200405405064090740C02480A0340
1001
ACAD
1000
AcDbSavedByObjectVersion
1070
     0
  0
ACAD_PROXY_OBJECT
  5
30
102
{ACAD_REACTORS
330
2A
102
}
330
2A
100
AcDbProxyObject
 90
      499
 91
      501
 93
      436
310
42CCD915DA5C99599C985B595059028333333333333E3BF0000000000000FB0107901411070040501600405405064090741402480A0340
1001
ACAD
1000
AcDbSavedByObjectVersion
1070
     0
  0
ACAD_PROXY_OBJECT
  5
32
102
{ACAD_REACTORS
330
2A
102
}
330
2A
100
AcDbProxyObject
 90
      499
 91
      501
 93
      388
310
4150985CDA58D07406404333333333333E3BF0000000000000FB0107A41107004050150841D405064090741402480A0350
1001
ACAD
1000
AcDbSavedByObjectVersion
1070
     0
  0
ACAD_PROXY_OBJECT
  5
36
102
{ACAD_REACTORS
330
2A
102
}
330
2A
100
AcDbProxyObject
 90
      499
 91
      501
 93
      428
310
42109C9A59DA1D195B90C409028333333333333E3BF0000000000000FB010790141107004050150841D405064090741402480A029950
1001
ACAD
1000
AcDbSavedByObjectVersion
1070
     0
  0
ACAD_PROXY_OBJECT
  5
3A
102
{ACAD_REACTORS
330
2A
102
}
330
2A
100
AcDbProxyObject
 90
      499
 91
      501
 93
      452
310
42D0DBDB1BDC90DA185B99D95104090240C333333333333E3BF0000000000000FB0108901411070040501508421405064090741402480A0350
1001
ACAD
1000
AcDbSavedByObjectVersion
1070
     0
  0
ACAD_PROXY_OBJECT
  5
34
102
{ACAD_REACTORS
330
2A
102
}
330
2A
100
AcDbProxyObject
 90
      499
 91
      501
 93
      500
310
4290DBDB98D95C1D1D585B10940D028333333333333E3BF0000000000000FB0107902409070040501000000000000111010841D405064090740C02480A0340
1001
ACAD
1000
AcDbSavedByObjectVersion
1070
     0
  0
ACAD_PROXY_OBJECT
  5
35
102
{ACAD_REACTORS
330
2A
102
}
330
2A
100
AcDbProxyObject
 90
      499
 91
      501
 93
      412
310
40D11A5B50B409028333333333333E3BF0000000000000FB010790141107004050150841D405064090741402480A02677FFFFFD0
1001
ACAD
1000
AcDbSavedByObjectVersion
1070
     0
  0
ACAD_PROXY_OBJECT
  5
39
102
{ACAD_REACTORS
330
2A
102
}
330
2A
100
AcDbProxyObject
 90
      499
 91
      501
 93
      444
310
42D19858D95C185D1D195C9B90F409028333333333333E3BF0000000000000FB010790141107004050150841D405064090741402480A0350
1001
ACAD
1000
AcDbSavedByObjectVersion
1070
     0
  0
ACAD_PROXY_OBJECT
  5
2B
102
{ACAD_REACTORS
330
2A
102
}
330
2A
100
AcDbProxyObject
 90
      499
 91
      501
 93
      388
310
41119B185D240901404333333333333E3BF0000000000000F9010740A41107004050150841D405064090741402480A1B50
1001
ACAD
1000
AcDbSavedByObjectVersion
1070
     0
  0
ACAD_PROXY_OBJECT
  5
2C
102
{ACAD_REACTORS
330
2A
102
}
330
2A
100
AcDbProxyObject
 90
      499
 91
      501
 93
      476
310
43519B185D15DA5D1A115919D95CD0140901404333333333333E3BF0000000000000F9010740901411070040501600405405064090741402480A1B50
1001
ACAD
1000
AcDbSavedByObjectVersion
1070
     0
  0
ACAD_PROXY_OBJECT
  5
2D
102
{ACAD_REACTORS
330
2A
102
}
330
2A
100
AcDbProxyObject
 90
      499
 91
      501
 93
      412
310
41D1DBDD5C985D5910240902404333333333333E3BF0000000000000F9010740A411070040501641D405064090741402480A1B50
1001
ACAD
1000
AcDbSavedByObjectVersion
1070
     0
  0
ACAD_PROXY_OBJECT
  5
2E
102
{ACAD_REACTORS
330
2A
102
}
330
2A
100
AcDbProxyObject
 90
      499
 91
      501
 93
      500
310
4411DBDD5C985D5915DA5D1A115919D95CD0340902404333333333333E3BF0000000000000F9010740901411070040501600405405064090741402480A1B50
1001
ACAD
1000
AcDbSavedByObjectVersion
1070
     0
  0
ACAD_PROXY_OBJECT
  5
38
102
{ACAD_REACTORS
330
2A
102
}
330
2A
100
AcDbProxyObject
 90
      499
 91
      501
 93
      444
310
42D31A5B995C185D1D195C9B90E409028333333333333E3BF0000000000000FB010790141107004050750841D405064090741402483A0350
1001
ACAD
1000
AcDbSavedByObjectVersion
1070
     0
  0
ACAD_PROXY_OBJECT
  5
33
102
{ACAD_REACTORS
330
2A
102
}
330
2A
100
AcDbProxyObject
 90
      499
 91
      501
 93
      420
310
425499585B1A5CDD1A58D08409028333333333333E3BF0000000000000FB01079019070040501508421405064090741402480A1B40
1001
ACAD
1000
AcDbSavedByObjectVersion
1070
     0
  0
ACAD_PROXY_OBJECT
  5
37
102
{ACAD_REACTORS
330
2A
102
}
330
2A
100
AcDbProxyObject
 90
      499
 91
      501
 93
      412
310
41D51A1A58DAD95B90D409028333333333333E3BF0000000000000FB010790141107004050150C41D405064090741402480A0350
1001
ACAD
1000
AcDbSavedByObjectVersion
1070
     0
  0
XRECORD
  5
A7
102
{ACAD_REACTORS
330
9E
102
}
330
9E
100
AcDbXrecord
 90
        0
  0
XRECORD
  5
BD
102
{ACAD_REACTORS
330
9E
102
}
330
9E
100
AcDbXrecord
1000
DSTYLE
1002
{
1070
   340
340
11
1002
}
  0
XRECORD
  5
A8
102
{ACAD_REACTORS
330
9E
102
}
330
9E
100
AcDbXrecord
  1
{4B36147A-8036-4FE0-80AD-F0D02568FC77}
  0
XRECORD
  5
A1
102
{ACAD_REACTORS
330
9E
102
}
330
9E
100
AcDbXrecord
  1

  0
XRECORD
  5
A6
102
{ACAD_REACTORS
330
9E
102
}
330
9E
100
AcDbXrecord
 90
        4
  0
XRECORD
  5
A3
102
{ACAD_REACTORS
330
9E
102
}
330
9E
100
AcDbXrecord
340
1A
  0
XRECORD
  5
A5
102
{ACAD_REACTORS
330
9E
102
}
330
9E
100
AcDbXrecord
 90
    10781
  0
XRECORD
  5
A4
102
{ACAD_REACTORS
330
9E
102
}
330
9E
100
AcDbXrecord
340
19
  0
XRECORD
  5
AA
102
{ACAD_REACTORS
330
9E
102
}
330
9E
100
AcDbXrecord
 40
0.0
  0
XRECORD
  5
AD
102
{ACAD_REACTORS
330
9E
102
}
330
9E
100
AcDbXrecord
340
0
  0
XRECORD
  5
B3
102
{ACAD_REACTORS
330
9E
102
}
330
9E
100
AcDbXrecord
 10
0.0
 20
0.0
 30
0.0
  0
XRECORD
  5
AF
102
{ACAD_REACTORS
330
9E
102
}
330
9E
100
AcDbXrecord
 10
0.0
 20
0.0
 30
0.0
  0
XRECORD
  5
B2
102
{ACAD_REACTORS
330
9E
102
}
330
9E
100
AcDbXrecord
 10
0.0
 20
0.0
 30
0.0
  0
XRECORD
  5
B0
102
{ACAD_REACTORS
330
9E
102
}
330
9E
100
AcDbXrecord
 10
0.0
 20
0.0
 30
0.0
  0
XRECORD
  5
B1
102
{ACAD_REACTORS
330
9E
102
}
330
9E
100
AcDbXrecord
 10
0.0
 20
0.0
 30
0.0
  0
XRECORD
  5
AE
102
{ACAD_REACTORS
330
9E
102
}
330
9E
100
AcDbXrecord
 10
0.0
 20
0.0
 30
0.0
  0
XRECORD
  5
AB
102
{ACAD_REACTORS
330
9E
102
}
330
9E
100
AcDbXrecord
340
0
  0
XRECORD
  5
AC
102
{ACAD_REACTORS
330
9E
102
}
330
9E
100
AcDbXrecord
 70
     0
  0
XRECORD
  5
A2
102
{ACAD_REACTORS
330
9E
102
}
330
9E
100
AcDbXrecord
  1

  0
XRECORD
  5
9F
102
{ACAD_REACTORS
330
9E
102
}
330
9E
100
AcDbXrecord
 90
        1
  0
XRECORD
  5
A0
102
{ACAD_REACTORS
330
9E
102
}
330
9E
100
AcDbXrecord
 90
       70
  0
XRECORD
  5
B6
102
{ACAD_REACTORS
330
9E
102
}
330
9E
100
AcDbXrecord
340
0
  0
XRECORD
  5
BC
102
{ACAD_REACTORS
330
9E
102
}
330
9E
100
AcDbXrecord
 10
0.0
 20
0.0
 30
0.0
  0
XRECORD
  5
B8
102
{ACAD_REACTORS
330
9E
102
}
330
9E
100
AcDbXrecord
 10
0.0
 20
0.0
 30
0.0
  0
XRECORD
  5
BB
102
{ACAD_REACTORS
330
9E
102
}
330
9E
100
AcDbXrecord
 10
0.0
 20
0.0
 30
0.0
  0
XRECORD
  5
B9
102
{ACAD_REACTORS
330
9E
102
}
330
9E
100
AcDbXrecord
 10
0.0
 20
0.0
 30
0.0
  0
XRECORD
  5
BA
102
{ACAD_REACTORS
330
9E
102
}
330
9E
100
AcDbXrecord
 10
0.0
 20
0.0
 30
0.0
  0
XRECORD
  5
B7
102
{ACAD_REACTORS
330
9E
102
}
330
9E
100
AcDbXrecord
 10
0.0
 20
0.0
 30
0.0
  0
XRECORD
  5
B4
102
{ACAD_REACTORS
330
9E
102
}
330
9E
100
AcDbXrecord
340
0
  0
XRECORD
  5
B5
102
{ACAD_REACTORS
330
9E
102
}
330
9E
100
AcDbXrecord
 70
     0
  0
XRECORD
  5
A9
102
{ACAD_REACTORS
330
9E
102
}
330
9E
100
AcDbXrecord
  1
{FAEB1C32-E019-11D5-929B-00C0DF256EC4}
  0
DICTIONARYVAR
  5
C1
102
{ACAD_REACTORS
330
BE
102
}
330
BE
100
DictionaryVariables
280
     0
  1
2
  0
DICTIONARYVAR
  5
C2
102
{ACAD_REACTORS
330
BE
102
}
330
BE
100
DictionaryVariables
280
     0
  1
1
  0
DICTIONARY
  5
C5
330
3D
100
AcDbDictionary
280
     1
  3
ACAD_XREC_ROUNDTRIP
360
C6
  0
DICTIONARY
  5
C3
330
3C
100
AcDbDictionary
280
     1
  3
ACAD_XREC_ROUNDTRIP
360
C4
  0
DICTIONARY
  5
C7
330
3E
100
AcDbDictionary
280
     1
  3
ACAD_XREC_ROUNDTRIP
360
C8
  0
XRECORD
  5
C6
102
{ACAD_REACTORS
330
C5
102
}
330
C5
100
AcDbXrecord
102
MATERIAL
148
0.0
149
0.0
149
0.0
 93
        0
 94
      127
282
     0
 72
     1
 77
     1
171
     1
175
     1
179
     1
273
     0
  0
XRECORD
  5
C4
102
{ACAD_REACTORS
330
C3
102
}
330
C3
100
AcDbXrecord
102
MATERIAL
148
0.0
149
0.0
149
0.0
 93
        0
 94
      127
282
     0
 72
     1
 77
     1
171
     1
175
     1
179
     1
273
     0
  0
XRECORD
  5
C8
102
{ACAD_REACTORS
330
C7
102
}
330
C7
100
AcDbXrecord
102
MATERIAL
148
0.0
149
0.0
149
0.0
 93
        0
 94
      127
282
     0
 72
     1
 77
     1
171
     1
175
     1
179
     1
273
     0
  0
ENDSEC
  0
EOF
