  0
SECTION
  2
HEADER
  9
$ACADVER
  1
AC1014
  9
$ACADMAINTVER
 70
     9
  9
$DWGCODEPAGE
  3
ANSI_1250
  9
$INSBASE
 10
0.0
 20
0.0
 30
0.0
  9
$EXTMIN
 10
-56.9446
 20
-38.1098
 30
0.0
  9
$EXTMAX
 10
57.0855
 20
38.1097
 30
0.0
  9
$LIMMIN
 10
0.0
 20
0.0
  9
$LIMMAX
 10
12.0
 20
9.0
  9
$ORTHOMODE
 70
     0
  9
$REGENMODE
 70
     1
  9
$FILLMODE
 70
     1
  9
$QTEXTMODE
 70
     0
  9
$MIRRTEXT
 70
     1
  9
$DRAGMODE
 70
     2
  9
$LTSCALE
 40
1.0
  9
$OSMODE
 70
    37
  9
$ATTMODE
 70
     1
  9
$TEXTSIZE
 40
0.2
  9
$TRACEWID
 40
0.05
  9
$TEXTSTYLE
  7
STANDARD
  9
$CLAYER
  8
0
  9
$CELTYPE
  6
BYLAYER
  9
$CECOLOR
 62
   256
  9
$CELTSCALE
 40
1.0
  9
$DELOBJ
 70
     1
  9
$DISPSILH
 70
     0
  9
$DIMSCALE
 40
1.0
  9
$DIMASZ
 40
0.18
  9
$DIMEXO
 40
0.0625
  9
$DIMDLI
 40
0.38
  9
$DIMRND
 40
0.0
  9
$DIMDLE
 40
0.0
  9
$DIMEXE
 40
0.18
  9
$DIMTP
 40
0.0
  9
$DIMTM
 40
0.0
  9
$DIMTXT
 40
0.18
  9
$DIMCEN
 40
0.09
  9
$DIMTSZ
 40
0.0
  9
$DIMTOL
 70
     0
  9
$DIMLIM
 70
     0
  9
$DIMTIH
 70
     1
  9
$DIMTOH
 70
     1
  9
$DIMSE1
 70
     0
  9
$DIMSE2
 70
     0
  9
$DIMTAD
 70
     0
  9
$DIMZIN
 70
     0
  9
$DIMBLK
  1

  9
$DIMASO
 70
     1
  9
$DIMSHO
 70
     1
  9
$DIMPOST
  1

  9
$DIMAPOST
  1

  9
$DIMALT
 70
     0
  9
$DIMALTD
 70
     2
  9
$DIMALTF
 40
25.4
  9
$DIMLFAC
 40
1.0
  9
$DIMTOFL
 70
     0
  9
$DIMTVP
 40
0.0
  9
$DIMTIX
 70
     0
  9
$DIMSOXD
 70
     0
  9
$DIMSAH
 70
     0
  9
$DIMBLK1
  1

  9
$DIMBLK2
  1

  9
$DIMSTYLE
  2
STANDARD
  9
$DIMCLRD
 70
     0
  9
$DIMCLRE
 70
     0
  9
$DIMCLRT
 70
     0
  9
$DIMTFAC
 40
1.0
  9
$DIMGAP
 40
0.09
  9
$DIMJUST
 70
     0
  9
$DIMSD1
 70
     0
  9
$DIMSD2
 70
     0
  9
$DIMTOLJ
 70
     1
  9
$DIMTZIN
 70
     0
  9
$DIMALTZ
 70
     0
  9
$DIMALTTZ
 70
     0
  9
$DIMFIT
 70
     3
  9
$DIMUPT
 70
     0
  9
$DIMUNIT
 70
     2
  9
$DIMDEC
 70
     4
  9
$DIMTDEC
 70
     4
  9
$DIMALTU
 70
     2
  9
$DIMALTTD
 70
     2
  9
$DIMTXSTY
  7
STANDARD
  9
$DIMAUNIT
 70
     0
  9
$LUNITS
 70
     2
  9
$LUPREC
 70
     4
  9
$SKETCHINC
 40
0.1
  9
$FILLETRAD
 40
0.5
  9
$AUNITS
 70
     0
  9
$AUPREC
 70
     0
  9
$MENU
  1
.
  9
$ELEVATION
 40
0.0
  9
$PELEVATION
 40
0.0
  9
$THICKNESS
 40
0.0
  9
$LIMCHECK
 70
     0
  9
$CHAMFERA
 40
0.5
  9
$CHAMFERB
 40
0.5
  9
$CHAMFERC
 40
1.0
  9
$CHAMFERD
 40
0.0
  9
$SKPOLY
 70
     0
  9
$TDCREATE
 40
2456272.423620984
  9
$TDUPDATE
 40
2456272.423620996
  9
$TDINDWG
 40
0.0000000116
  9
$TDUSRTIMER
 40
0.0000000116
  9
$USRTIMER
 70
     1
  9
$ANGBASE
 50
0.0
  9
$ANGDIR
 70
     0
  9
$PDMODE
 70
     0
  9
$PDSIZE
 40
0.0
  9
$PLINEWID
 40
0.0
  9
$COORDS
 70
     1
  9
$SPLFRAME
 70
     0
  9
$SPLINETYPE
 70
     6
  9
$SPLINESEGS
 70
     8
  9
$ATTDIA
 70
     0
  9
$ATTREQ
 70
     1
  9
$HANDLING
 70
     1
  9
$HANDSEED
  5
19A
  9
$SURFTAB1
 70
     6
  9
$SURFTAB2
 70
     6
  9
$SURFTYPE
 70
     6
  9
$SURFU
 70
     6
  9
$SURFV
 70
     6
  9
$UCSNAME
  2

  9
$UCSORG
 10
0.0
 20
0.0
 30
0.0
  9
$UCSXDIR
 10
1.0
 20
0.0
 30
0.0
  9
$UCSYDIR
 10
0.0
 20
1.0
 30
0.0
  9
$PUCSNAME
  2

  9
$PUCSORG
 10
0.0
 20
0.0
 30
0.0
  9
$PUCSXDIR
 10
1.0
 20
0.0
 30
0.0
  9
$PUCSYDIR
 10
0.0
 20
1.0
 30
0.0
  9
$USERI1
 70
     0
  9
$USERI2
 70
     0
  9
$USERI3
 70
     0
  9
$USERI4
 70
     0
  9
$USERI5
 70
     0
  9
$USERR1
 40
0.0
  9
$USERR2
 40
0.0
  9
$USERR3
 40
0.0
  9
$USERR4
 40
0.0
  9
$USERR5
 40
0.0
  9
$WORLDVIEW
 70
     1
  9
$SHADEDGE
 70
     3
  9
$SHADEDIF
 70
    70
  9
$TILEMODE
 70
     1
  9
$MAXACTVP
 70
    64
  9
$PINSBASE
 10
0.0
 20
0.0
 30
0.0
  9
$PLIMCHECK
 70
     0
  9
$PEXTMIN
 10
1.000000000000000E+20
 20
1.000000000000000E+20
 30
1.000000000000000E+20
  9
$PEXTMAX
 10
-1.000000000000000E+20
 20
-1.000000000000000E+20
 30
-1.000000000000000E+20
  9
$PLIMMIN
 10
0.0
 20
0.0
  9
$PLIMMAX
 10
12.0
 20
9.0
  9
$UNITMODE
 70
     0
  9
$VISRETAIN
 70
     1
  9
$PLINEGEN
 70
     0
  9
$PSLTSCALE
 70
     1
  9
$TREEDEPTH
 70
  3020
  9
$PICKSTYLE
 70
     1
  9
$CMLSTYLE
  2
STANDARD
  9
$CMLJUST
 70
     0
  9
$CMLSCALE
 40
1.0
  9
$PROXYGRAPHICS
 70
     1
  9
$MEASUREMENT
 70
     0
  0
ENDSEC
  0
SECTION
  2
CLASSES
  0
CLASS
  1
ACDBDICTIONARYWDFLT
  2
AcDbDictionaryWithDefault
  3
ObjectDBX Classes
 90
        0
280
     0
281
     0
  0
CLASS
  1
VISUALSTYLE
  2
AcDbVisualStyle
  3
ObjectDBX Classes
 90
     4095
280
     0
281
     0
  0
CLASS
  1
MATERIAL
  2
AcDbMaterial
  3
ObjectDBX Classes
 90
     1153
280
     0
281
     0
  0
CLASS
  1
DICTIONARYVAR
  2
AcDbDictionaryVar
  3
ObjectDBX Classes
 90
        0
280
     0
281
     0
  0
CLASS
  1
XRECORD
  2
AcDbXrecord
  3
AutoCAD 2000
 90
        0
280
     0
281
     0
  0
CLASS
  1
LWPOLYLINE
  2
AcDbPolyline
  3
AutoCAD 2000
 90
        0
280
     0
281
     1
  0
CLASS
  1
HATCH
  2
AcDbHatch
  3
AutoCAD 2000
 90
        0
280
     0
281
     1
  0
CLASS
  1
ACDBPLACEHOLDER
  2
AcDbPlaceHolder
  3
ObjectDBX Classes
 90
        0
280
     0
281
     0
  0
CLASS
  1
LAYOUT
  2
AcDbLayout
  3
ObjectDBX Classes
 90
        0
280
     0
281
     0
  0
ENDSEC
  0
SECTION
  2
TABLES
  0
TABLE
  2
VPORT
  5
8
330
0
100
AcDbSymbolTable
 70
     1
  0
VPORT
  5
29
330
8
100
AcDbSymbolTableRecord
100
AcDbViewportTableRecord
  2
*ACTIVE
 70
     0
 10
0.0
 20
0.0
 11
1.0
 21
1.0
 12
10.42990654205607
 22
4.5
 13
0.0
 23
0.0
 14
0.5
 24
0.5
 15
0.5
 25
0.5
 16
0.0
 26
0.0
 36
1.0
 17
0.0
 27
0.0
 37
0.0
 40
9.0
 41
1.972972972850329
 42
50.0
 43
0.0
 44
0.0
 50
0.0
 51
0.0
 71
     0
 72
   100
 73
     1
 74
     3
 75
     0
 76
     0
 77
     0
 78
     0
  0
ENDTAB
  0
TABLE
  2
LTYPE
  5
5
330
0
100
AcDbSymbolTable
 70
     4
  0
LTYPE
  5
14
330
5
100
AcDbSymbolTableRecord
100
AcDbLinetypeTableRecord
  2
BYBLOCK
 70
     0
  3

 72
    65
 73
     0
 40
0.0
  0
LTYPE
  5
15
330
5
100
AcDbSymbolTableRecord
100
AcDbLinetypeTableRecord
  2
BYLAYER
 70
     0
  3

 72
    65
 73
     0
 40
0.0
  0
LTYPE
  5
16
330
5
100
AcDbSymbolTableRecord
100
AcDbLinetypeTableRecord
  2
CONTINUOUS
 70
     0
  3
Solid line
 72
    65
 73
     0
 40
0.0
  0
LTYPE
  5
54
330
5
100
AcDbSymbolTableRecord
100
AcDbLinetypeTableRecord
  2
NEW_LINE1
 70
     0
  3

 72
    65
 73
     4
 40
1.2
 49
0.5
 74
     4
 75
     0
340
0
 46
1.0
 50
0.0
 44
0.0
 45
0.0
 49
-0.3
 74
     4
 75
     0
340
0
 46
1.0
 50
0.0
 44
0.0
 45
0.0
 49
0.1
 74
     4
 75
     0
340
0
 46
1.0
 50
0.0
 44
0.0
 45
0.0
 49
-0.3
 74
     4
 75
     0
340
0
 46
1.0
 50
0.0
 44
0.0
 45
0.0
  0
LTYPE
  5
D2
330
5
100
AcDbSymbolTableRecord
100
AcDbLinetypeTableRecord
  2
NEW_LINE2
 70
     0
  3

 72
    65
 73
     2
 40
0.6
 49
0.5
 74
     4
 75
     0
340
0
 46
1.0
 50
0.0
 44
0.0
 45
0.0
 49
-0.1
 74
     4
 75
     0
340
0
 46
1.0
 50
0.0
 44
0.0
 45
0.0
  0
LTYPE
  5
F4
330
5
100
AcDbSymbolTableRecord
100
AcDbLinetypeTableRecord
  2
NEW_LINE3
 70
     0
  3

 72
    65
 73
     2
 40
0.6
 49
0.5
 74
     4
 75
     0
340
0
 46
1.0
 50
0.0
 44
0.0
 45
0.0
 49
-0.1
 74
     4
 75
     0
340
0
 46
1.0
 50
0.0
 44
0.0
 45
0.0
  0
ENDTAB
  0
TABLE
  2
LAYER
  5
2
330
0
100
AcDbSymbolTable
 70
     2
  0
LAYER
  5
10
330
2
100
AcDbSymbolTableRecord
100
AcDbLayerTableRecord
  2
0
 70
     0
 62
     7
  6
CONTINUOUS
  0
LAYER
  5
40
330
2
100
AcDbSymbolTableRecord
100
AcDbLayerTableRecord
  2
AXIS
 70
     0
 62
     7
  6
CONTINUOUS
  0
ENDTAB
  0
TABLE
  2
STYLE
  5
3
330
0
100
AcDbSymbolTable
 70
     1
  0
STYLE
  5
11
330
3
100
AcDbSymbolTableRecord
100
AcDbTextStyleTableRecord
  2
STANDARD
 70
     0
 40
0.0
 41
1.0
 50
0.0
 71
     0
 42
0.2
  3
txt
  4

  0
ENDTAB
  0
TABLE
  2
VIEW
  5
6
330
0
100
AcDbSymbolTable
 70
     0
  0
ENDTAB
  0
TABLE
  2
UCS
  5
7
330
0
100
AcDbSymbolTable
 70
     0
  0
ENDTAB
  0
TABLE
  2
APPID
  5
9
330
0
100
AcDbSymbolTable
 70
     2
  0
APPID
  5
12
330
9
100
AcDbSymbolTableRecord
100
AcDbRegAppTableRecord
  2
ACAD
 70
     0
  0
APPID
  5
3F
330
9
100
AcDbSymbolTableRecord
100
AcDbRegAppTableRecord
  2
ODA
 70
     0
  0
ENDTAB
  0
TABLE
  2
DIMSTYLE
  5
A
330
0
100
AcDbSymbolTable
 70
     1
  0
DIMSTYLE
105
27
330
A
100
AcDbSymbolTableRecord
100
AcDbDimStyleTableRecord
  2
STANDARD
 70
     0
  3

  4

  5

  6

  7

 40
1.0
 41
0.18
 42
0.0625
 43
0.38
 44
0.18
 45
0.0
 46
0.0
 47
0.0
 48
0.0
140
0.18
141
0.09
142
0.0
143
25.4
144
1.0
145
0.0
146
1.0
147
0.09
 71
     0
 72
     0
 73
     1
 74
     1
 75
     0
 76
     0
 77
     0
 78
     0
170
     0
171
     2
172
     0
173
     0
174
     0
175
     0
176
     0
177
     0
178
     0
270
     2
271
     4
272
     4
273
     2
274
     2
340
11
275
     0
280
     0
281
     0
282
     0
283
     1
284
     0
285
     0
286
     0
287
     3
288
     0
  0
ENDTAB
  0
TABLE
  2
BLOCK_RECORD
  5
1
330
0
100
AcDbSymbolTable
 70
     1
  0
BLOCK_RECORD
  5
1F
330
1
100
AcDbSymbolTableRecord
100
AcDbBlockTableRecord
  2
*MODEL_SPACE
  0
BLOCK_RECORD
  5
1B
330
1
100
AcDbSymbolTableRecord
100
AcDbBlockTableRecord
  2
*PAPER_SPACE
  0
ENDTAB
  0
ENDSEC
  0
SECTION
  2
BLOCKS
  0
BLOCK
  5
20
330
1F
100
AcDbEntity
  8
0
100
AcDbBlockBegin
  2
*MODEL_SPACE
 70
     0
 10
0.0
 20
0.0
 30
0.0
  3
*MODEL_SPACE
  1

  0
ENDBLK
  5
21
330
1F
100
AcDbEntity
  8
0
100
AcDbBlockEnd
  0
BLOCK
  5
1C
330
1B
100
AcDbEntity
 67
     1
  8
0
100
AcDbBlockBegin
  2
*PAPER_SPACE
 70
     0
 10
0.0
 20
0.0
 30
0.0
  3
*PAPER_SPACE
  1

  0
ENDBLK
  5
1D
330
1B
100
AcDbEntity
 67
     1
  8
0
100
AcDbBlockEnd
  0
ENDSEC
  0
SECTION
  2
ENTITIES
  0
SPLINE
  5
41
330
1F
100
AcDbEntity
  8
AXIS
 62
   250
100
AcDbSpline
210
0.0
220
0.0
230
1.0
 70
    24
 71
     3
 72
     8
 73
     4
 74
     0
 42
0.0000000001
 43
0.0000000001
 40
0.0
 40
0.0
 40
0.0
 40
0.0
 40
1.0
 40
1.0
 40
1.0
 40
1.0
 10
-37.8337
 20
35.2538
 30
0.0
 10
-37.8337
 20
35.2538
 30
0.0
 10
-52.7657
 20
35.2538
 30
0.0
 10
-52.7657
 20
35.2538
 30
0.0
  0
SPLINE
  5
42
330
1F
100
AcDbEntity
  8
AXIS
 62
   250
100
AcDbSpline
210
0.0
220
0.0
230
1.0
 70
    11
 71
     3
 72
    20
 73
    16
 74
     0
 42
0.0000000001
 43
0.0000000001
 40
0.0
 40
0.0
 40
0.0
 40
0.0
 40
0.2
 40
0.2
 40
0.2
 40
0.2
 40
0.4
 40
0.4
 40
0.4
 40
0.4
 40
0.6
 40
0.6
 40
0.6
 40
0.6
 40
1.0
 40
1.0
 40
1.0
 40
1.0
 10
-51.7279
 20
35.7402
 30
0.0
 10
-51.7279
 20
35.7402
 30
0.0
 10
-48.7281
 20
35.3168
 30
0.0
 10
-48.7281
 20
35.3168
 30
0.0
 10
-48.7281
 20
35.3168
 30
0.0
 10
-48.7281
 20
35.3168
 30
0.0
 10
-48.7281
 20
35.2228
 30
0.0
 10
-48.7281
 20
35.2228
 30
0.0
 10
-48.7281
 20
35.2228
 30
0.0
 10
-48.7281
 20
35.2228
 30
0.0
 10
-51.7279
 20
34.7713
 30
0.0
 10
-51.7279
 20
34.7713
 30
0.0
 10
-51.7279
 20
34.7713
 30
0.0
 10
-51.7279
 20
34.7713
 30
0.0
 10
-51.7279
 20
35.7402
 30
0.0
 10
-51.7279
 20
35.7402
 30
0.0
  0
SPLINE
  5
43
330
1F
100
AcDbEntity
  8
AXIS
 62
   250
100
AcDbSpline
210
0.0
220
0.0
230
1.0
 70
    11
 71
     3
 72
    20
 73
    16
 74
     0
 42
0.0000000001
 43
0.0000000001
 40
0.0
 40
0.0
 40
0.0
 40
0.0
 40
0.2
 40
0.2
 40
0.2
 40
0.2
 40
0.4
 40
0.4
 40
0.4
 40
0.4
 40
0.6
 40
0.6
 40
0.6
 40
0.6
 40
1.0
 40
1.0
 40
1.0
 40
1.0
 10
-39.1039
 20
34.7921
 30
0.0
 10
-39.1039
 20
34.7921
 30
0.0
 10
-42.1039
 20
35.2155
 30
0.0
 10
-42.1039
 20
35.2155
 30
0.0
 10
-42.1039
 20
35.2155
 30
0.0
 10
-42.1039
 20
35.2155
 30
0.0
 10
-42.1039
 20
35.3096
 30
0.0
 10
-42.1039
 20
35.3096
 30
0.0
 10
-42.1039
 20
35.3096
 30
0.0
 10
-42.1039
 20
35.3096
 30
0.0
 10
-39.1039
 20
35.7611
 30
0.0
 10
-39.1039
 20
35.7611
 30
0.0
 10
-39.1039
 20
35.7611
 30
0.0
 10
-39.1039
 20
35.7611
 30
0.0
 10
-39.1039
 20
34.7921
 30
0.0
 10
-39.1039
 20
34.7921
 30
0.0
  0
SPLINE
  5
44
330
1F
100
AcDbEntity
  8
AXIS
 62
   250
100
AcDbSpline
210
0.0
220
0.0
230
1.0
 70
    11
 71
     3
 72
    92
 73
    88
 74
     0
 42
0.0000000001
 43
0.0000000001
 40
0.0
 40
0.0
 40
0.0
 40
0.0
 40
0.0434782608695652
 40
0.0434782608695652
 40
0.0434782608695652
 40
0.0434782608695652
 40
0.0869565217391304
 40
0.0869565217391304
 40
0.0869565217391304
 40
0.0869565217391304
 40
0.1304347826086956
 40
0.1304347826086956
 40
0.1304347826086956
 40
0.1304347826086956
 40
0.1739130434782609
 40
0.1739130434782609
 40
0.1739130434782609
 40
0.1739130434782609
 40
0.2173913043478261
 40
0.2173913043478261
 40
0.2173913043478261
 40
0.2173913043478261
 40
0.2608695652173913
 40
0.2608695652173913
 40
0.2608695652173913
 40
0.2608695652173913
 40
0.3043478260869565
 40
0.3043478260869565
 40
0.3043478260869565
 40
0.3043478260869565
 40
0.3478260869565217
 40
0.3478260869565217
 40
0.3478260869565217
 40
0.3478260869565217
 40
0.391304347826087
 40
0.391304347826087
 40
0.391304347826087
 40
0.391304347826087
 40
0.4347826086956522
 40
0.4347826086956522
 40
0.4347826086956522
 40
0.4347826086956522
 40
0.4782608695652174
 40
0.4782608695652174
 40
0.4782608695652174
 40
0.4782608695652174
 40
0.5217391304347826
 40
0.5217391304347826
 40
0.5217391304347826
 40
0.5217391304347826
 40
0.5652173913043478
 40
0.5652173913043478
 40
0.5652173913043478
 40
0.5652173913043478
 40
0.6086956521739131
 40
0.6086956521739131
 40
0.6086956521739131
 40
0.6086956521739131
 40
0.6521739130434783
 40
0.6521739130434783
 40
0.6521739130434783
 40
0.6521739130434783
 40
0.6956521739130435
 40
0.6956521739130435
 40
0.6956521739130435
 40
0.6956521739130435
 40
0.7391304347826086
 40
0.7391304347826086
 40
0.7391304347826086
 40
0.7391304347826086
 40
0.782608695652174
 40
0.782608695652174
 40
0.782608695652174
 40
0.782608695652174
 40
0.8260869565217391
 40
0.8260869565217391
 40
0.8260869565217391
 40
0.8260869565217391
 40
0.8695652173913043
 40
0.8695652173913043
 40
0.8695652173913043
 40
0.8695652173913043
 40
0.9130434782608695
 40
0.9130434782608695
 40
0.9130434782608695
 40
0.9130434782608695
 40
1.0
 40
1.0
 40
1.0
 40
1.0
 10
-45.6068
 20
36.3195
 30
0.0
 10
-45.6068
 20
36.3195
 30
0.0
 10
-45.6068
 20
36.081
 30
0.0
 10
-45.6068
 20
36.081
 30
0.0
 10
-45.6068
 20
36.081
 30
0.0
 10
-45.6068
 20
36.081
 30
0.0
 10
-46.9422
 20
36.081
 30
0.0
 10
-46.9422
 20
36.081
 30
0.0
 10
-46.9422
 20
36.081
 30
0.0
 10
-46.9441
 20
36.1407
 30
0.0
 10
-46.9347
 20
36.1981
 30
0.0
 10
-46.9135
 20
36.2532
 30
0.0
 10
-46.9135
 20
36.2532
 30
0.0
 10
-46.8796
 20
36.3444
 30
0.0
 10
-46.8251
 20
36.4338
 30
0.0
 10
-46.7503
 20
36.5222
 30
0.0
 10
-46.7503
 20
36.5222
 30
0.0
 10
-46.675
 20
36.6102
 30
0.0
 10
-46.5668
 20
36.7122
 30
0.0
 10
-46.4257
 20
36.8279
 30
0.0
 10
-46.4257
 20
36.8279
 30
0.0
 10
-46.2061
 20
37.0081
 30
0.0
 10
-46.0574
 20
37.1506
 30
0.0
 10
-45.9803
 20
37.256
 30
0.0
 10
-45.9803
 20
37.256
 30
0.0
 10
-45.9032
 20
37.3609
 30
0.0
 10
-45.8646
 20
37.4606
 30
0.0
 10
-45.8646
 20
37.5542
 30
0.0
 10
-45.8646
 20
37.5542
 30
0.0
 10
-45.8646
 20
37.6525
 30
0.0
 10
-45.8999
 20
37.7353
 30
0.0
 10
-45.9699
 20
37.803
 30
0.0
 10
-45.9699
 20
37.803
 30
0.0
 10
-46.0405
 20
37.8703
 30
0.0
 10
-46.1322
 20
37.9041
 30
0.0
 10
-46.2451
 20
37.9041
 30
0.0
 10
-46.2451
 20
37.9041
 30
0.0
 10
-46.3646
 20
37.9041
 30
0.0
 10
-46.4601
 20
37.8684
 30
0.0
 10
-46.5316
 20
37.7964
 30
0.0
 10
-46.5316
 20
37.7964
 30
0.0
 10
-46.6035
 20
37.7249
 30
0.0
 10
-46.6397
 20
37.6257
 30
0.0
 10
-46.6407
 20
37.4992
 30
0.0
 10
-46.6407
 20
37.4992
 30
0.0
 10
-46.6407
 20
37.4992
 30
0.0
 10
-46.8956
 20
37.525
 30
0.0
 10
-46.8956
 20
37.525
 30
0.0
 10
-46.8956
 20
37.525
 30
0.0
 10
-46.8782
 20
37.7155
 30
0.0
 10
-46.8124
 20
37.8604
 30
0.0
 10
-46.6985
 20
37.9601
 30
0.0
 10
-46.6985
 20
37.9601
 30
0.0
 10
-46.5847
 20
38.0598
 30
0.0
 10
-46.4314
 20
38.1097
 30
0.0
 10
-46.2395
 20
38.1097
 30
0.0
 10
-46.2395
 20
38.1097
 30
0.0
 10
-46.0457
 20
38.1097
 30
0.0
 10
-45.8923
 20
38.0556
 30
0.0
 10
-45.7794
 20
37.9484
 30
0.0
 10
-45.7794
 20
37.9484
 30
0.0
 10
-45.6661
 20
37.8406
 30
0.0
 10
-45.6096
 20
37.7075
 30
0.0
 10
-45.6096
 20
37.5485
 30
0.0
 10
-45.6096
 20
37.5485
 30
0.0
 10
-45.6096
 20
37.4676
 30
0.0
 10
-45.6261
 20
37.3881
 30
0.0
 10
-45.6595
 20
37.3101
 30
0.0
 10
-45.6595
 20
37.3101
 30
0.0
 10
-45.6924
 20
37.232
 30
0.0
 10
-45.7475
 20
37.1497
 30
0.0
 10
-45.8241
 20
37.0636
 30
0.0
 10
-45.8241
 20
37.0636
 30
0.0
 10
-45.9008
 20
36.977
 30
0.0
 10
-46.0283
 20
36.8585
 30
0.0
 10
-46.2065
 20
36.708
 30
0.0
 10
-46.2065
 20
36.708
 30
0.0
 10
-46.3552
 20
36.5829
 30
0.0
 10
-46.4507
 20
36.4982
 30
0.0
 10
-46.493
 20
36.4535
 30
0.0
 10
-46.493
 20
36.4535
 30
0.0
 10
-46.5353
 20
36.4093
 30
0.0
 10
-46.5701
 20
36.3646
 30
0.0
 10
-46.5979
 20
36.3195
 30
0.0
 10
-46.5979
 20
36.3195
 30
0.0
 10
-46.5979
 20
36.3195
 30
0.0
 10
-45.6068
 20
36.3195
 30
0.0
 10
-45.6068
 20
36.3195
 30
0.0
  0
SPLINE
  5
45
330
1F
100
AcDbEntity
  8
AXIS
 62
   250
100
AcDbSpline
210
0.0
220
0.0
230
1.0
 70
    11
 71
     3
 72
    52
 73
    48
 74
     0
 42
0.0000000001
 43
0.0000000001
 40
0.0
 40
0.0
 40
0.0
 40
0.0
 40
0.0769230769230769
 40
0.0769230769230769
 40
0.0769230769230769
 40
0.0769230769230769
 40
0.1538461538461539
 40
0.1538461538461539
 40
0.1538461538461539
 40
0.1538461538461539
 40
0.2307692307692308
 40
0.2307692307692308
 40
0.2307692307692308
 40
0.2307692307692308
 40
0.3076923076923077
 40
0.3076923076923077
 40
0.3076923076923077
 40
0.3076923076923077
 40
0.3846153846153846
 40
0.3846153846153846
 40
0.3846153846153846
 40
0.3846153846153846
 40
0.4615384615384616
 40
0.4615384615384616
 40
0.4615384615384616
 40
0.4615384615384616
 40
0.5384615384615384
 40
0.5384615384615384
 40
0.5384615384615384
 40
0.5384615384615384
 40
0.6153846153846154
 40
0.6153846153846154
 40
0.6153846153846154
 40
0.6153846153846154
 40
0.6923076923076923
 40
0.6923076923076923
 40
0.6923076923076923
 40
0.6923076923076923
 40
0.7692307692307693
 40
0.7692307692307693
 40
0.7692307692307693
 40
0.7692307692307693
 40
0.8461538461538461
 40
0.8461538461538461
 40
0.8461538461538461
 40
0.8461538461538461
 40
1.0
 40
1.0
 40
1.0
 40
1.0
 10
-45.3411
 20
37.0772
 30
0.0
 10
-45.3411
 20
37.3162
 30
0.0
 10
-45.3166
 20
37.5086
 30
0.0
 10
-45.2672
 20
37.6539
 30
0.0
 10
-45.2672
 20
37.6539
 30
0.0
 10
-45.2183
 20
37.7997
 30
0.0
 10
-45.1449
 20
37.9121
 30
0.0
 10
-45.048
 20
37.9912
 30
0.0
 10
-45.048
 20
37.9912
 30
0.0
 10
-44.9511
 20
38.0702
 30
0.0
 10
-44.8293
 20
38.1097
 30
0.0
 10
-44.6826
 20
38.1097
 30
0.0
 10
-44.6826
 20
38.1097
 30
0.0
 10
-44.5739
 20
38.1097
 30
0.0
 10
-44.4789
 20
38.0876
 30
0.0
 10
-44.3971
 20
38.0438
 30
0.0
 10
-44.3971
 20
38.0438
 30
0.0
 10
-44.3152
 20
38.0006
 30
0.0
 10
-44.2479
 20
37.9375
 30
0.0
 10
-44.1943
 20
37.8552
 30
0.0
 10
-44.1943
 20
37.8552
 30
0.0
 10
-44.1412
 20
37.7729
 30
0.0
 10
-44.0993
 20
37.6727
 30
0.0
 10
-44.0692
 20
37.5547
 30
0.0
 10
-44.0692
 20
37.5547
 30
0.0
 10
-44.0386
 20
37.4366
 30
0.0
 10
-44.0236
 20
37.2776
 30
0.0
 10
-44.0236
 20
37.0772
 30
0.0
 10
-44.0236
 20
37.0772
 30
0.0
 10
-44.0236
 20
36.8402
 30
0.0
 10
-44.048
 20
36.6492
 30
0.0
 10
-44.0965
 20
36.5034
 30
0.0
 10
-44.0965
 20
36.5034
 30
0.0
 10
-44.1454
 20
36.3576
 30
0.0
 10
-44.2183
 20
36.2452
 30
0.0
 10
-44.3152
 20
36.1657
 30
0.0
 10
-44.3152
 20
36.1657
 30
0.0
 10
-44.4121
 20
36.0862
 30
0.0
 10
-44.5344
 20
36.0467
 30
0.0
 10
-44.6826
 20
36.0467
 30
0.0
 10
-44.6826
 20
36.0467
 30
0.0
 10
-44.8773
 20
36.0467
 30
0.0
 10
-45.0302
 20
36.1163
 30
0.0
 10
-45.1412
 20
36.256
 30
0.0
 10
-45.1412
 20
36.256
 30
0.0
 10
-45.2743
 20
36.4239
 30
0.0
 10
-45.3411
 20
36.6981
 30
0.0
 10
-45.3411
 20
37.0772
 30
0.0
  0
SPLINE
  5
46
330
1F
100
AcDbEntity
  8
AXIS
 62
   250
100
AcDbSpline
210
0.0
220
0.0
230
1.0
 70
    11
 71
     3
 72
    36
 73
    32
 74
     0
 42
0.0000000001
 43
0.0000000001
 40
0.0
 40
0.0
 40
0.0
 40
0.0
 40
0.1111111111111111
 40
0.1111111111111111
 40
0.1111111111111111
 40
0.1111111111111111
 40
0.2222222222222222
 40
0.2222222222222222
 40
0.2222222222222222
 40
0.2222222222222222
 40
0.3333333333333333
 40
0.3333333333333333
 40
0.3333333333333333
 40
0.3333333333333333
 40
0.4444444444444444
 40
0.4444444444444444
 40
0.4444444444444444
 40
0.4444444444444444
 40
0.5555555555555556
 40
0.5555555555555556
 40
0.5555555555555556
 40
0.5555555555555556
 40
0.6666666666666666
 40
0.6666666666666666
 40
0.6666666666666666
 40
0.6666666666666666
 40
0.7777777777777778
 40
0.7777777777777778
 40
0.7777777777777778
 40
0.7777777777777778
 40
1.0
 40
1.0
 40
1.0
 40
1.0
 10
-45.0861
 20
37.0772
 30
0.0
 10
-45.0861
 20
36.7456
 30
0.0
 10
-45.0471
 20
36.525
 30
0.0
 10
-44.9695
 20
36.415
 30
0.0
 10
-44.9695
 20
36.415
 30
0.0
 10
-44.8919
 20
36.3054
 30
0.0
 10
-44.7964
 20
36.2503
 30
0.0
 10
-44.6826
 20
36.2503
 30
0.0
 10
-44.6826
 20
36.2503
 30
0.0
 10
-44.5683
 20
36.2503
 30
0.0
 10
-44.4728
 20
36.3058
 30
0.0
 10
-44.3952
 20
36.4159
 30
0.0
 10
-44.3952
 20
36.4159
 30
0.0
 10
-44.3176
 20
36.526
 30
0.0
 10
-44.2785
 20
36.7466
 30
0.0
 10
-44.2785
 20
37.0772
 30
0.0
 10
-44.2785
 20
37.0772
 30
0.0
 10
-44.2785
 20
37.4098
 30
0.0
 10
-44.3176
 20
37.6309
 30
0.0
 10
-44.3952
 20
37.74
 30
0.0
 10
-44.3952
 20
37.74
 30
0.0
 10
-44.4728
 20
37.8496
 30
0.0
 10
-44.5692
 20
37.9041
 30
0.0
 10
-44.6849
 20
37.9041
 30
0.0
 10
-44.6849
 20
37.9041
 30
0.0
 10
-44.7992
 20
37.9041
 30
0.0
 10
-44.89
 20
37.8557
 30
0.0
 10
-44.9582
 20
37.7593
 30
0.0
 10
-44.9582
 20
37.7593
 30
0.0
 10
-45.0433
 20
37.6365
 30
0.0
 10
-45.0861
 20
37.4088
 30
0.0
 10
-45.0861
 20
37.0772
 30
0.0
  0
SPLINE
  5
47
330
1F
100
AcDbEntity
  8
AXIS
 62
   250
100
AcDbSpline
210
0.0
220
0.0
230
1.0
 70
    24
 71
     3
 72
     8
 73
     4
 74
     0
 42
0.0000000001
 43
0.0000000001
 40
0.0
 40
0.0
 40
0.0
 40
0.0
 40
1.0
 40
1.0
 40
1.0
 40
1.0
 10
-48.6687
 20
30.6487
 30
0.0
 10
-48.6687
 20
30.6487
 30
0.0
 10
-48.6687
 20
36.1603
 30
0.0
 10
-48.6687
 20
36.1603
 30
0.0
  0
SPLINE
  5
48
330
1F
100
AcDbEntity
  8
AXIS
 62
   250
100
AcDbSpline
210
0.0
220
0.0
230
1.0
 70
    24
 71
     3
 72
     8
 73
     4
 74
     0
 42
0.0000000001
 43
0.0000000001
 40
0.0
 40
0.0
 40
0.0
 40
0.0
 40
1.0
 40
1.0
 40
1.0
 40
1.0
 10
-42.2042
 20
26.9427
 30
0.0
 10
-42.2042
 20
26.9427
 30
0.0
 10
-42.2042
 20
36.0853
 30
0.0
 10
-42.2042
 20
36.0853
 30
0.0
  0
SPLINE
  5
49
330
1F
100
AcDbEntity
  8
AXIS
 62
   250
100
AcDbSpline
210
0.0
220
0.0
230
1.0
 70
    24
 71
     3
 72
     8
 73
     4
 74
     0
 42
0.0000000001
 43
0.0000000001
 40
0.0
 40
0.0
 40
0.0
 40
0.0
 40
1.0
 40
1.0
 40
1.0
 40
1.0
 10
55.1194
 20
35.2392
 30
0.0
 10
55.1194
 20
35.2392
 30
0.0
 10
-10.8266
 20
35.2392
 30
0.0
 10
-10.8266
 20
35.2392
 30
0.0
  0
SPLINE
  5
4A
330
1F
100
AcDbEntity
  8
AXIS
 62
   250
100
AcDbSpline
210
0.0
220
0.0
230
1.0
 70
    11
 71
     3
 72
    20
 73
    16
 74
     0
 42
0.0000000001
 43
0.0000000001
 40
0.0
 40
0.0
 40
0.0
 40
0.0
 40
0.2
 40
0.2
 40
0.2
 40
0.2
 40
0.4
 40
0.4
 40
0.4
 40
0.4
 40
0.6
 40
0.6
 40
0.6
 40
0.6
 40
1.0
 40
1.0
 40
1.0
 40
1.0
 10
-8.4954
 20
34.7499
 30
0.0
 10
-8.4954
 20
34.7499
 30
0.0
 10
-11.4954
 20
35.1733
 30
0.0
 10
-11.4954
 20
35.1733
 30
0.0
 10
-11.4954
 20
35.1733
 30
0.0
 10
-11.4954
 20
35.1733
 30
0.0
 10
-11.4954
 20
35.2674
 30
0.0
 10
-11.4954
 20
35.2674
 30
0.0
 10
-11.4954
 20
35.2674
 30
0.0
 10
-11.4954
 20
35.2674
 30
0.0
 10
-8.4954
 20
35.7189
 30
0.0
 10
-8.4954
 20
35.7189
 30
0.0
 10
-8.4954
 20
35.7189
 30
0.0
 10
-8.4954
 20
35.7189
 30
0.0
 10
-8.4954
 20
34.7499
 30
0.0
 10
-8.4954
 20
34.7499
 30
0.0
  0
SPLINE
  5
4B
330
1F
100
AcDbEntity
  8
AXIS
 62
   250
100
AcDbSpline
210
0.0
220
0.0
230
1.0
 70
    11
 71
     3
 72
    20
 73
    16
 74
     0
 42
0.0000000001
 43
0.0000000001
 40
0.0
 40
0.0
 40
0.0
 40
0.0
 40
0.2
 40
0.2
 40
0.2
 40
0.2
 40
0.4
 40
0.4
 40
0.4
 40
0.4
 40
0.6
 40
0.6
 40
0.6
 40
0.6
 40
1.0
 40
1.0
 40
1.0
 40
1.0
 10
53.7707
 20
34.73
 30
0.0
 10
53.7707
 20
34.73
 30
0.0
 10
56.7707
 20
35.1534
 30
0.0
 10
56.7707
 20
35.1534
 30
0.0
 10
56.7707
 20
35.1534
 30
0.0
 10
56.7707
 20
35.1534
 30
0.0
 10
56.7707
 20
35.2475
 30
0.0
 10
56.7707
 20
35.2475
 30
0.0
 10
56.7707
 20
35.2475
 30
0.0
 10
56.7707
 20
35.2475
 30
0.0
 10
53.7707
 20
35.699
 30
0.0
 10
53.7707
 20
35.699
 30
0.0
 10
53.7707
 20
35.699
 30
0.0
 10
53.7707
 20
35.699
 30
0.0
 10
53.7707
 20
34.73
 30
0.0
 10
53.7707
 20
34.73
 30
0.0
  0
SPLINE
  5
4C
330
1F
100
AcDbEntity
  8
AXIS
 62
   250
100
AcDbSpline
210
0.0
220
0.0
230
1.0
 70
    11
 71
     3
 72
    92
 73
    88
 74
     0
 42
0.0000000001
 43
0.0000000001
 40
0.0
 40
0.0
 40
0.0
 40
0.0
 40
0.0434782608695652
 40
0.0434782608695652
 40
0.0434782608695652
 40
0.0434782608695652
 40
0.0869565217391304
 40
0.0869565217391304
 40
0.0869565217391304
 40
0.0869565217391304
 40
0.1304347826086956
 40
0.1304347826086956
 40
0.1304347826086956
 40
0.1304347826086956
 40
0.1739130434782609
 40
0.1739130434782609
 40
0.1739130434782609
 40
0.1739130434782609
 40
0.2173913043478261
 40
0.2173913043478261
 40
0.2173913043478261
 40
0.2173913043478261
 40
0.2608695652173913
 40
0.2608695652173913
 40
0.2608695652173913
 40
0.2608695652173913
 40
0.3043478260869565
 40
0.3043478260869565
 40
0.3043478260869565
 40
0.3043478260869565
 40
0.3478260869565217
 40
0.3478260869565217
 40
0.3478260869565217
 40
0.3478260869565217
 40
0.391304347826087
 40
0.391304347826087
 40
0.391304347826087
 40
0.391304347826087
 40
0.4347826086956522
 40
0.4347826086956522
 40
0.4347826086956522
 40
0.4347826086956522
 40
0.4782608695652174
 40
0.4782608695652174
 40
0.4782608695652174
 40
0.4782608695652174
 40
0.5217391304347826
 40
0.5217391304347826
 40
0.5217391304347826
 40
0.5217391304347826
 40
0.5652173913043478
 40
0.5652173913043478
 40
0.5652173913043478
 40
0.5652173913043478
 40
0.6086956521739131
 40
0.6086956521739131
 40
0.6086956521739131
 40
0.6086956521739131
 40
0.6521739130434783
 40
0.6521739130434783
 40
0.6521739130434783
 40
0.6521739130434783
 40
0.6956521739130435
 40
0.6956521739130435
 40
0.6956521739130435
 40
0.6956521739130435
 40
0.7391304347826086
 40
0.7391304347826086
 40
0.7391304347826086
 40
0.7391304347826086
 40
0.782608695652174
 40
0.782608695652174
 40
0.782608695652174
 40
0.782608695652174
 40
0.8260869565217391
 40
0.8260869565217391
 40
0.8260869565217391
 40
0.8260869565217391
 40
0.8695652173913043
 40
0.8695652173913043
 40
0.8695652173913043
 40
0.8695652173913043
 40
0.9130434782608695
 40
0.9130434782608695
 40
0.9130434782608695
 40
0.9130434782608695
 40
1.0
 40
1.0
 40
1.0
 40
1.0
 10
21.0796
 20
35.9056
 30
0.0
 10
21.0796
 20
35.9056
 30
0.0
 10
21.0796
 20
35.6671
 30
0.0
 10
21.0796
 20
35.6671
 30
0.0
 10
21.0796
 20
35.6671
 30
0.0
 10
21.0796
 20
35.6671
 30
0.0
 10
19.7442
 20
35.6671
 30
0.0
 10
19.7442
 20
35.6671
 30
0.0
 10
19.7442
 20
35.6671
 30
0.0
 10
19.7423
 20
35.7268
 30
0.0
 10
19.7517
 20
35.7842
 30
0.0
 10
19.7729
 20
35.8393
 30
0.0
 10
19.7729
 20
35.8393
 30
0.0
 10
19.8068
 20
35.9305
 30
0.0
 10
19.8613
 20
36.0199
 30
0.0
 10
19.9361
 20
36.1083
 30
0.0
 10
19.9361
 20
36.1083
 30
0.0
 10
20.0114
 20
36.1963
 30
0.0
 10
20.1196
 20
36.2983
 30
0.0
 10
20.2607
 20
36.414
 30
0.0
 10
20.2607
 20
36.414
 30
0.0
 10
20.4803
 20
36.5942
 30
0.0
 10
20.629
 20
36.7367
 30
0.0
 10
20.7061
 20
36.8421
 30
0.0
 10
20.7061
 20
36.8421
 30
0.0
 10
20.7832
 20
36.947
 30
0.0
 10
20.8218
 20
37.0467
 30
0.0
 10
20.8218
 20
37.1403
 30
0.0
 10
20.8218
 20
37.1403
 30
0.0
 10
20.8218
 20
37.2386
 30
0.0
 10
20.7865
 20
37.3214
 30
0.0
 10
20.7165
 20
37.3891
 30
0.0
 10
20.7165
 20
37.3891
 30
0.0
 10
20.6459
 20
37.4564
 30
0.0
 10
20.5542
 20
37.4902
 30
0.0
 10
20.4413
 20
37.4902
 30
0.0
 10
20.4413
 20
37.4902
 30
0.0
 10
20.3218
 20
37.4902
 30
0.0
 10
20.2263
 20
37.4545
 30
0.0
 10
20.1548
 20
37.3825
 30
0.0
 10
20.1548
 20
37.3825
 30
0.0
 10
20.0829
 20
37.311
 30
0.0
 10
20.0467
 20
37.2118
 30
0.0
 10
20.0457
 20
37.0853
 30
0.0
 10
20.0457
 20
37.0853
 30
0.0
 10
20.0457
 20
37.0853
 30
0.0
 10
19.7908
 20
37.1111
 30
0.0
 10
19.7908
 20
37.1111
 30
0.0
 10
19.7908
 20
37.1111
 30
0.0
 10
19.8082
 20
37.3016
 30
0.0
 10
19.874
 20
37.4465
 30
0.0
 10
19.9879
 20
37.5462
 30
0.0
 10
19.9879
 20
37.5462
 30
0.0
 10
20.1017
 20
37.6459
 30
0.0
 10
20.255
 20
37.6958
 30
0.0
 10
20.4469
 20
37.6958
 30
0.0
 10
20.4469
 20
37.6958
 30
0.0
 10
20.6407
 20
37.6958
 30
0.0
 10
20.7941
 20
37.6417
 30
0.0
 10
20.907
 20
37.5345
 30
0.0
 10
20.907
 20
37.5345
 30
0.0
 10
21.0203
 20
37.4267
 30
0.0
 10
21.0768
 20
37.2936
 30
0.0
 10
21.0768
 20
37.1346
 30
0.0
 10
21.0768
 20
37.1346
 30
0.0
 10
21.0768
 20
37.0537
 30
0.0
 10
21.0603
 20
36.9742
 30
0.0
 10
21.0269
 20
36.8962
 30
0.0
 10
21.0269
 20
36.8962
 30
0.0
 10
20.994
 20
36.8181
 30
0.0
 10
20.9389
 20
36.7358
 30
0.0
 10
20.8623
 20
36.6497
 30
0.0
 10
20.8623
 20
36.6497
 30
0.0
 10
20.7856
 20
36.5631
 30
0.0
 10
20.6581
 20
36.4446
 30
0.0
 10
20.4799
 20
36.2941
 30
0.0
 10
20.4799
 20
36.2941
 30
0.0
 10
20.3312
 20
36.169
 30
0.0
 10
20.2357
 20
36.0843
 30
0.0
 10
20.1934
 20
36.0396
 30
0.0
 10
20.1934
 20
36.0396
 30
0.0
 10
20.1511
 20
35.9954
 30
0.0
 10
20.1163
 20
35.9507
 30
0.0
 10
20.0885
 20
35.9056
 30
0.0
 10
20.0885
 20
35.9056
 30
0.0
 10
20.0885
 20
35.9056
 30
0.0
 10
21.0796
 20
35.9056
 30
0.0
 10
21.0796
 20
35.9056
 30
0.0
  0
SPLINE
  5
4D
330
1F
100
AcDbEntity
  8
AXIS
 62
   250
100
AcDbSpline
210
0.0
220
0.0
230
1.0
 70
    11
 71
     3
 72
    52
 73
    48
 74
     0
 42
0.0000000001
 43
0.0000000001
 40
0.0
 40
0.0
 40
0.0
 40
0.0
 40
0.0769230769230769
 40
0.0769230769230769
 40
0.0769230769230769
 40
0.0769230769230769
 40
0.1538461538461539
 40
0.1538461538461539
 40
0.1538461538461539
 40
0.1538461538461539
 40
0.2307692307692308
 40
0.2307692307692308
 40
0.2307692307692308
 40
0.2307692307692308
 40
0.3076923076923077
 40
0.3076923076923077
 40
0.3076923076923077
 40
0.3076923076923077
 40
0.3846153846153846
 40
0.3846153846153846
 40
0.3846153846153846
 40
0.3846153846153846
 40
0.4615384615384616
 40
0.4615384615384616
 40
0.4615384615384616
 40
0.4615384615384616
 40
0.5384615384615384
 40
0.5384615384615384
 40
0.5384615384615384
 40
0.5384615384615384
 40
0.6153846153846154
 40
0.6153846153846154
 40
0.6153846153846154
 40
0.6153846153846154
 40
0.6923076923076923
 40
0.6923076923076923
 40
0.6923076923076923
 40
0.6923076923076923
 40
0.7692307692307693
 40
0.7692307692307693
 40
0.7692307692307693
 40
0.7692307692307693
 40
0.8461538461538461
 40
0.8461538461538461
 40
0.8461538461538461
 40
0.8461538461538461
 40
1.0
 40
1.0
 40
1.0
 40
1.0
 10
21.3453
 20
36.6633
 30
0.0
 10
21.3453
 20
36.9023
 30
0.0
 10
21.3698
 20
37.0947
 30
0.0
 10
21.4192
 20
37.24
 30
0.0
 10
21.4192
 20
37.24
 30
0.0
 10
21.4681
 20
37.3858
 30
0.0
 10
21.5415
 20
37.4982
 30
0.0
 10
21.6384
 20
37.5773
 30
0.0
 10
21.6384
 20
37.5773
 30
0.0
 10
21.7353
 20
37.6563
 30
0.0
 10
21.8571
 20
37.6958
 30
0.0
 10
22.0038
 20
37.6958
 30
0.0
 10
22.0038
 20
37.6958
 30
0.0
 10
22.1125
 20
37.6958
 30
0.0
 10
22.2075
 20
37.6737
 30
0.0
 10
22.2893
 20
37.6299
 30
0.0
 10
22.2893
 20
37.6299
 30
0.0
 10
22.3712
 20
37.5867
 30
0.0
 10
22.4385
 20
37.5236
 30
0.0
 10
22.4921
 20
37.4413
 30
0.0
 10
22.4921
 20
37.4413
 30
0.0
 10
22.5452
 20
37.359
 30
0.0
 10
22.5871
 20
37.2588
 30
0.0
 10
22.6172
 20
37.1408
 30
0.0
 10
22.6172
 20
37.1408
 30
0.0
 10
22.6478
 20
37.0227
 30
0.0
 10
22.6628
 20
36.8637
 30
0.0
 10
22.6628
 20
36.6633
 30
0.0
 10
22.6628
 20
36.6633
 30
0.0
 10
22.6628
 20
36.4263
 30
0.0
 10
22.6384
 20
36.2353
 30
0.0
 10
22.5899
 20
36.0895
 30
0.0
 10
22.5899
 20
36.0895
 30
0.0
 10
22.541
 20
35.9437
 30
0.0
 10
22.4681
 20
35.8313
 30
0.0
 10
22.3712
 20
35.7518
 30
0.0
 10
22.3712
 20
35.7518
 30
0.0
 10
22.2743
 20
35.6723
 30
0.0
 10
22.152
 20
35.6328
 30
0.0
 10
22.0038
 20
35.6328
 30
0.0
 10
22.0038
 20
35.6328
 30
0.0
 10
21.8091
 20
35.6328
 30
0.0
 10
21.6562
 20
35.7024
 30
0.0
 10
21.5452
 20
35.8421
 30
0.0
 10
21.5452
 20
35.8421
 30
0.0
 10
21.4121
 20
36.01
 30
0.0
 10
21.3453
 20
36.2842
 30
0.0
 10
21.3453
 20
36.6633
 30
0.0
  0
SPLINE
  5
4E
330
1F
100
AcDbEntity
  8
AXIS
 62
   250
100
AcDbSpline
210
0.0
220
0.0
230
1.0
 70
    11
 71
     3
 72
    36
 73
    32
 74
     0
 42
0.0000000001
 43
0.0000000001
 40
0.0
 40
0.0
 40
0.0
 40
0.0
 40
0.1111111111111111
 40
0.1111111111111111
 40
0.1111111111111111
 40
0.1111111111111111
 40
0.2222222222222222
 40
0.2222222222222222
 40
0.2222222222222222
 40
0.2222222222222222
 40
0.3333333333333333
 40
0.3333333333333333
 40
0.3333333333333333
 40
0.3333333333333333
 40
0.4444444444444444
 40
0.4444444444444444
 40
0.4444444444444444
 40
0.4444444444444444
 40
0.5555555555555556
 40
0.5555555555555556
 40
0.5555555555555556
 40
0.5555555555555556
 40
0.6666666666666666
 40
0.6666666666666666
 40
0.6666666666666666
 40
0.6666666666666666
 40
0.7777777777777778
 40
0.7777777777777778
 40
0.7777777777777778
 40
0.7777777777777778
 40
1.0
 40
1.0
 40
1.0
 40
1.0
 10
21.6003
 20
36.6633
 30
0.0
 10
21.6003
 20
36.3317
 30
0.0
 10
21.6393
 20
36.1111
 30
0.0
 10
21.7169
 20
36.0011
 30
0.0
 10
21.7169
 20
36.0011
 30
0.0
 10
21.7945
 20
35.8915
 30
0.0
 10
21.89
 20
35.8364
 30
0.0
 10
22.0038
 20
35.8364
 30
0.0
 10
22.0038
 20
35.8364
 30
0.0
 10
22.1181
 20
35.8364
 30
0.0
 10
22.2136
 20
35.8919
 30
0.0
 10
22.2912
 20
36.002
 30
0.0
 10
22.2912
 20
36.002
 30
0.0
 10
22.3688
 20
36.1121
 30
0.0
 10
22.4079
 20
36.3327
 30
0.0
 10
22.4079
 20
36.6633
 30
0.0
 10
22.4079
 20
36.6633
 30
0.0
 10
22.4079
 20
36.9959
 30
0.0
 10
22.3688
 20
37.217
 30
0.0
 10
22.2912
 20
37.3261
 30
0.0
 10
22.2912
 20
37.3261
 30
0.0
 10
22.2136
 20
37.4357
 30
0.0
 10
22.1172
 20
37.4902
 30
0.0
 10
22.0015
 20
37.4902
 30
0.0
 10
22.0015
 20
37.4902
 30
0.0
 10
21.8872
 20
37.4902
 30
0.0
 10
21.7964
 20
37.4418
 30
0.0
 10
21.7282
 20
37.3454
 30
0.0
 10
21.7282
 20
37.3454
 30
0.0
 10
21.6431
 20
37.2226
 30
0.0
 10
21.6003
 20
36.9949
 30
0.0
 10
21.6003
 20
36.6633
 30
0.0
  0
SPLINE
  5
4F
330
1F
100
AcDbEntity
  8
AXIS
 62
   250
100
AcDbSpline
210
0.0
220
0.0
230
1.0
 70
    11
 71
     3
 72
    52
 73
    48
 74
     0
 42
0.0000000001
 43
0.0000000001
 40
0.0
 40
0.0
 40
0.0
 40
0.0
 40
0.0769230769230769
 40
0.0769230769230769
 40
0.0769230769230769
 40
0.0769230769230769
 40
0.1538461538461539
 40
0.1538461538461539
 40
0.1538461538461539
 40
0.1538461538461539
 40
0.2307692307692308
 40
0.2307692307692308
 40
0.2307692307692308
 40
0.2307692307692308
 40
0.3076923076923077
 40
0.3076923076923077
 40
0.3076923076923077
 40
0.3076923076923077
 40
0.3846153846153846
 40
0.3846153846153846
 40
0.3846153846153846
 40
0.3846153846153846
 40
0.4615384615384616
 40
0.4615384615384616
 40
0.4615384615384616
 40
0.4615384615384616
 40
0.5384615384615384
 40
0.5384615384615384
 40
0.5384615384615384
 40
0.5384615384615384
 40
0.6153846153846154
 40
0.6153846153846154
 40
0.6153846153846154
 40
0.6153846153846154
 40
0.6923076923076923
 40
0.6923076923076923
 40
0.6923076923076923
 40
0.6923076923076923
 40
0.7692307692307693
 40
0.7692307692307693
 40
0.7692307692307693
 40
0.7692307692307693
 40
0.8461538461538461
 40
0.8461538461538461
 40
0.8461538461538461
 40
0.8461538461538461
 40
1.0
 40
1.0
 40
1.0
 40
1.0
 10
22.9149
 20
36.6633
 30
0.0
 10
22.9149
 20
36.9023
 30
0.0
 10
22.9394
 20
37.0947
 30
0.0
 10
22.9888
 20
37.24
 30
0.0
 10
22.9888
 20
37.24
 30
0.0
 10
23.0377
 20
37.3858
 30
0.0
 10
23.1111
 20
37.4982
 30
0.0
 10
23.208
 20
37.5773
 30
0.0
 10
23.208
 20
37.5773
 30
0.0
 10
23.3049
 20
37.6563
 30
0.0
 10
23.4267
 20
37.6958
 30
0.0
 10
23.5734
 20
37.6958
 30
0.0
 10
23.5734
 20
37.6958
 30
0.0
 10
23.6821
 20
37.6958
 30
0.0
 10
23.7771
 20
37.6737
 30
0.0
 10
23.8589
 20
37.6299
 30
0.0
 10
23.8589
 20
37.6299
 30
0.0
 10
23.9408
 20
37.5867
 30
0.0
 10
24.0081
 20
37.5236
 30
0.0
 10
24.0617
 20
37.4413
 30
0.0
 10
24.0617
 20
37.4413
 30
0.0
 10
24.1148
 20
37.359
 30
0.0
 10
24.1567
 20
37.2588
 30
0.0
 10
24.1868
 20
37.1408
 30
0.0
 10
24.1868
 20
37.1408
 30
0.0
 10
24.2174
 20
37.0227
 30
0.0
 10
24.2324
 20
36.8637
 30
0.0
 10
24.2324
 20
36.6633
 30
0.0
 10
24.2324
 20
36.6633
 30
0.0
 10
24.2324
 20
36.4263
 30
0.0
 10
24.208
 20
36.2353
 30
0.0
 10
24.1595
 20
36.0895
 30
0.0
 10
24.1595
 20
36.0895
 30
0.0
 10
24.1106
 20
35.9437
 30
0.0
 10
24.0377
 20
35.8313
 30
0.0
 10
23.9408
 20
35.7518
 30
0.0
 10
23.9408
 20
35.7518
 30
0.0
 10
23.8439
 20
35.6723
 30
0.0
 10
23.7216
 20
35.6328
 30
0.0
 10
23.5734
 20
35.6328
 30
0.0
 10
23.5734
 20
35.6328
 30
0.0
 10
23.3787
 20
35.6328
 30
0.0
 10
23.2258
 20
35.7024
 30
0.0
 10
23.1148
 20
35.8421
 30
0.0
 10
23.1148
 20
35.8421
 30
0.0
 10
22.9817
 20
36.01
 30
0.0
 10
22.9149
 20
36.2842
 30
0.0
 10
22.9149
 20
36.6633
 30
0.0
  0
SPLINE
  5
50
330
1F
100
AcDbEntity
  8
AXIS
 62
   250
100
AcDbSpline
210
0.0
220
0.0
230
1.0
 70
    11
 71
     3
 72
    36
 73
    32
 74
     0
 42
0.0000000001
 43
0.0000000001
 40
0.0
 40
0.0
 40
0.0
 40
0.0
 40
0.1111111111111111
 40
0.1111111111111111
 40
0.1111111111111111
 40
0.1111111111111111
 40
0.2222222222222222
 40
0.2222222222222222
 40
0.2222222222222222
 40
0.2222222222222222
 40
0.3333333333333333
 40
0.3333333333333333
 40
0.3333333333333333
 40
0.3333333333333333
 40
0.4444444444444444
 40
0.4444444444444444
 40
0.4444444444444444
 40
0.4444444444444444
 40
0.5555555555555556
 40
0.5555555555555556
 40
0.5555555555555556
 40
0.5555555555555556
 40
0.6666666666666666
 40
0.6666666666666666
 40
0.6666666666666666
 40
0.6666666666666666
 40
0.7777777777777778
 40
0.7777777777777778
 40
0.7777777777777778
 40
0.7777777777777778
 40
1.0
 40
1.0
 40
1.0
 40
1.0
 10
23.1699
 20
36.6633
 30
0.0
 10
23.1699
 20
36.3317
 30
0.0
 10
23.2089
 20
36.1111
 30
0.0
 10
23.2865
 20
36.0011
 30
0.0
 10
23.2865
 20
36.0011
 30
0.0
 10
23.3641
 20
35.8915
 30
0.0
 10
23.4596
 20
35.8364
 30
0.0
 10
23.5734
 20
35.8364
 30
0.0
 10
23.5734
 20
35.8364
 30
0.0
 10
23.6877
 20
35.8364
 30
0.0
 10
23.7832
 20
35.8919
 30
0.0
 10
23.8608
 20
36.002
 30
0.0
 10
23.8608
 20
36.002
 30
0.0
 10
23.9384
 20
36.1121
 30
0.0
 10
23.9775
 20
36.3327
 30
0.0
 10
23.9775
 20
36.6633
 30
0.0
 10
23.9775
 20
36.6633
 30
0.0
 10
23.9775
 20
36.9959
 30
0.0
 10
23.9384
 20
37.217
 30
0.0
 10
23.8608
 20
37.3261
 30
0.0
 10
23.8608
 20
37.3261
 30
0.0
 10
23.7832
 20
37.4357
 30
0.0
 10
23.6868
 20
37.4902
 30
0.0
 10
23.5711
 20
37.4902
 30
0.0
 10
23.5711
 20
37.4902
 30
0.0
 10
23.4568
 20
37.4902
 30
0.0
 10
23.366
 20
37.4418
 30
0.0
 10
23.2978
 20
37.3454
 30
0.0
 10
23.2978
 20
37.3454
 30
0.0
 10
23.2127
 20
37.2226
 30
0.0
 10
23.1699
 20
36.9949
 30
0.0
 10
23.1699
 20
36.6633
 30
0.0
  0
SPLINE
  5
51
330
1F
100
AcDbEntity
  8
AXIS
 62
   250
100
AcDbSpline
210
0.0
220
0.0
230
1.0
 70
    24
 71
     3
 72
     8
 73
     4
 74
     0
 42
0.0000000001
 43
0.0000000001
 40
0.0
 40
0.0
 40
0.0
 40
0.0
 40
1.0
 40
1.0
 40
1.0
 40
1.0
 10
-11.5685
 20
28.7283
 30
0.0
 10
-11.5685
 20
28.7283
 30
0.0
 10
-11.5685
 20
36.015
 30
0.0
 10
-11.5685
 20
36.015
 30
0.0
  0
SPLINE
  5
52
330
1F
100
AcDbEntity
  8
AXIS
 62
   250
100
AcDbSpline
210
0.0
220
0.0
230
1.0
 70
    24
 71
     3
 72
     8
 73
     4
 74
     0
 42
0.0000000001
 43
0.0000000001
 40
0.0
 40
0.0
 40
0.0
 40
0.0
 40
1.0
 40
1.0
 40
1.0
 40
1.0
 10
56.866
 20
29.3765
 30
0.0
 10
56.866
 20
29.3765
 30
0.0
 10
56.866
 20
35.6699
 30
0.0
 10
56.866
 20
35.6699
 30
0.0
  0
SPLINE
  5
53
330
1F
100
AcDbEntity
  8
AXIS
  6
NEW_LINE1
 62
   250
100
AcDbSpline
210
0.0
220
0.0
230
1.0
 70
    24
 71
     3
 72
     8
 73
     4
 74
     0
 42
0.0000000001
 43
0.0000000001
 40
0.0
 40
0.0
 40
0.0
 40
0.0
 40
1.0
 40
1.0
 40
1.0
 40
1.0
 10
22.5366
 20
-38.1098
 30
0.0
 10
22.5366
 20
-38.1098
 30
0.0
 10
22.5366
 20
32.4397
 30
0.0
 10
22.5366
 20
32.4397
 30
0.0
  0
SPLINE
  5
55
330
1F
100
AcDbEntity
  8
AXIS
 62
   250
100
AcDbSpline
210
0.0
220
0.0
230
1.0
 70
    24
 71
     3
 72
     8
 73
     4
 74
     0
 42
0.0000000001
 43
0.0000000001
 40
0.0
 40
0.0
 40
0.0
 40
0.0
 40
1.0
 40
1.0
 40
1.0
 40
1.0
 10
-46.5375
 20
-32.1886
 30
0.0
 10
-46.5375
 20
-32.1886
 30
0.0
 10
-43.0032
 20
-32.1886
 30
0.0
 10
-43.0032
 20
-32.1886
 30
0.0
  0
SPLINE
  5
56
330
1F
100
AcDbEntity
  8
AXIS
 62
   250
100
AcDbSpline
210
0.0
220
0.0
230
1.0
 70
    24
 71
     3
 72
     8
 73
     4
 74
     0
 42
0.0000000001
 43
0.0000000001
 40
0.0
 40
0.0
 40
0.0
 40
0.0
 40
1.0
 40
1.0
 40
1.0
 40
1.0
 10
-50.4252
 20
-31.0597
 30
0.0
 10
-50.4252
 20
-31.0597
 30
0.0
 10
-50.5135
 20
-31.0597
 30
0.0
 10
-50.5135
 20
-31.0597
 30
0.0
  0
SPLINE
  5
57
330
1F
100
AcDbEntity
  8
AXIS
 62
   250
100
AcDbSpline
210
0.0
220
0.0
230
1.0
 70
    24
 71
     3
 72
     8
 73
     4
 74
     0
 42
0.0000000001
 43
0.0000000001
 40
0.0
 40
0.0
 40
0.0
 40
0.0
 40
1.0
 40
1.0
 40
1.0
 40
1.0
 10
-49.7183
 20
-31.0597
 30
0.0
 10
-49.7183
 20
-31.0597
 30
0.0
 10
-48.658
 20
-31.0597
 30
0.0
 10
-48.658
 20
-31.0597
 30
0.0
  0
SPLINE
  5
58
330
1F
100
AcDbEntity
  8
AXIS
 62
   250
100
AcDbSpline
210
0.0
220
0.0
230
1.0
 70
    24
 71
     3
 72
     8
 73
     4
 74
     0
 42
0.0000000001
 43
0.0000000001
 40
0.0
 40
0.0
 40
0.0
 40
0.0
 40
1.0
 40
1.0
 40
1.0
 40
1.0
 10
-48.658
 20
-25.7915
 30
0.0
 10
-48.658
 20
-25.7915
 30
0.0
 10
-49.7183
 20
-25.7915
 30
0.0
 10
-49.7183
 20
-25.7915
 30
0.0
  0
SPLINE
  5
59
330
1F
100
AcDbEntity
  8
AXIS
 62
   250
100
AcDbSpline
210
0.0
220
0.0
230
1.0
 70
    24
 71
     3
 72
     8
 73
     4
 74
     0
 42
0.0000000001
 43
0.0000000001
 40
0.0
 40
0.0
 40
0.0
 40
0.0
 40
1.0
 40
1.0
 40
1.0
 40
1.0
 10
-50.4252
 20
-25.4152
 30
0.0
 10
-50.4252
 20
-25.4152
 30
0.0
 10
-50.5135
 20
-25.4152
 30
0.0
 10
-50.5135
 20
-25.4152
 30
0.0
  0
SPLINE
  5
5A
330
1F
100
AcDbEntity
  8
AXIS
 62
   250
100
AcDbSpline
210
0.0
220
0.0
230
1.0
 70
    24
 71
     3
 72
     8
 73
     4
 74
     0
 42
0.0000000001
 43
0.0000000001
 40
0.0
 40
0.0
 40
0.0
 40
0.0
 40
1.0
 40
1.0
 40
1.0
 40
1.0
 10
-50.5135
 20
-31.0597
 30
0.0
 10
-50.5135
 20
-31.0597
 30
0.0
 10
-50.5135
 20
-25.4152
 30
0.0
 10
-50.5135
 20
-25.4152
 30
0.0
  0
SPLINE
  5
5B
330
1F
100
AcDbEntity
  8
AXIS
 62
   250
100
AcDbSpline
210
0.0
220
0.0
230
1.0
 70
    24
 71
     3
 72
     8
 73
     4
 74
     0
 42
0.0000000001
 43
0.0000000001
 40
0.0
 40
0.0
 40
0.0
 40
0.0
 40
1.0
 40
1.0
 40
1.0
 40
1.0
 10
-43.0032
 20
-32.1886
 30
0.0
 10
-43.0032
 20
-32.1886
 30
0.0
 10
-43.0032
 20
25.8936
 30
0.0
 10
-43.0032
 20
25.8936
 30
0.0
  0
SPLINE
  5
5C
330
1F
100
AcDbEntity
  8
AXIS
 62
   250
100
AcDbSpline
210
0.0
220
0.0
230
1.0
 70
    24
 71
     3
 72
     8
 73
     4
 74
     0
 42
0.0000000001
 43
0.0000000001
 40
0.0
 40
0.0
 40
0.0
 40
0.0
 40
1.0
 40
1.0
 40
1.0
 40
1.0
 10
-46.5375
 20
25.8936
 30
0.0
 10
-46.5375
 20
25.8936
 30
0.0
 10
-43.0032
 20
25.8936
 30
0.0
 10
-43.0032
 20
25.8936
 30
0.0
  0
SPLINE
  5
5D
330
1F
100
AcDbEntity
  8
AXIS
 62
   250
100
AcDbSpline
210
0.0
220
0.0
230
1.0
 70
    24
 71
     3
 72
     8
 73
     4
 74
     0
 42
0.0000000001
 43
0.0000000001
 40
0.0
 40
0.0
 40
0.0
 40
0.0
 40
1.0
 40
1.0
 40
1.0
 40
1.0
 10
-46.7142
 20
-37.4567
 30
0.0
 10
-46.7142
 20
-37.4567
 30
0.0
 10
-46.5375
 20
-37.4567
 30
0.0
 10
-46.5375
 20
-37.4567
 30
0.0
  0
SPLINE
  5
5E
330
1F
100
AcDbEntity
  8
AXIS
 62
   250
100
AcDbSpline
210
0.0
220
0.0
230
1.0
 70
    24
 71
     3
 72
     8
 73
     4
 74
     0
 42
0.0000000001
 43
0.0000000001
 40
0.0
 40
0.0
 40
0.0
 40
0.0
 40
1.0
 40
1.0
 40
1.0
 40
1.0
 10
-50.4252
 20
-31.0597
 30
0.0
 10
-50.4252
 20
-31.0597
 30
0.0
 10
-49.7183
 20
-31.0597
 30
0.0
 10
-49.7183
 20
-31.0597
 30
0.0
  0
SPLINE
  5
5F
330
1F
100
AcDbEntity
  8
AXIS
 62
   250
100
AcDbSpline
210
0.0
220
0.0
230
1.0
 70
    24
 71
     3
 72
     8
 73
     4
 74
     0
 42
0.0000000001
 43
0.0000000001
 40
0.0
 40
0.0
 40
0.0
 40
0.0
 40
1.0
 40
1.0
 40
1.0
 40
1.0
 10
-50.4252
 20
-25.4152
 30
0.0
 10
-50.4252
 20
-25.4152
 30
0.0
 10
-49.7183
 20
-25.4152
 30
0.0
 10
-49.7183
 20
-25.4152
 30
0.0
  0
SPLINE
  5
60
330
1F
100
AcDbEntity
  8
AXIS
 62
   250
100
AcDbSpline
210
0.0
220
0.0
230
1.0
 70
    24
 71
     3
 72
     8
 73
     4
 74
     0
 42
0.0000000001
 43
0.0000000001
 40
0.0
 40
0.0
 40
0.0
 40
0.0
 40
1.0
 40
1.0
 40
1.0
 40
1.0
 10
-49.7183
 20
-31.0597
 30
0.0
 10
-49.7183
 20
-31.0597
 30
0.0
 10
-49.7183
 20
-25.4152
 30
0.0
 10
-49.7183
 20
-25.4152
 30
0.0
  0
SPLINE
  5
61
330
1F
100
AcDbEntity
  8
AXIS
 62
   250
100
AcDbSpline
210
0.0
220
0.0
230
1.0
 70
    24
 71
     3
 72
     8
 73
     4
 74
     0
 42
0.0000000001
 43
0.0000000001
 40
0.0
 40
0.0
 40
0.0
 40
0.0
 40
1.0
 40
1.0
 40
1.0
 40
1.0
 10
-48.658
 20
-35.3871
 30
0.0
 10
-48.658
 20
-35.3871
 30
0.0
 10
-48.658
 20
29.0921
 30
0.0
 10
-48.658
 20
29.0921
 30
0.0
  0
SPLINE
  5
62
330
1F
100
AcDbEntity
  8
AXIS
 62
   250
100
AcDbSpline
210
0.0
220
0.0
230
1.0
 70
    24
 71
     3
 72
     8
 73
     4
 74
     0
 42
0.0000000001
 43
0.0000000001
 40
0.0
 40
0.0
 40
0.0
 40
0.0
 40
1.0
 40
1.0
 40
1.0
 40
1.0
 10
-46.5375
 20
31.1618
 30
0.0
 10
-46.5375
 20
31.1618
 30
0.0
 10
-46.5375
 20
-37.4567
 30
0.0
 10
-46.5375
 20
-37.4567
 30
0.0
  0
SPLINE
  5
63
330
1F
100
AcDbEntity
  8
AXIS
 62
   250
100
AcDbSpline
210
0.0
220
0.0
230
1.0
 70
    24
 71
     3
 72
     8
 73
     4
 74
     0
 42
0.0000000001
 43
0.0000000001
 40
0.0
 40
0.0
 40
0.0
 40
0.0
 40
1.0
 40
1.0
 40
1.0
 40
1.0
 10
-46.7142
 20
21.0188
 30
0.0
 10
-46.7142
 20
21.0188
 30
0.0
 10
-46.5375
 20
21.0188
 30
0.0
 10
-46.5375
 20
21.0188
 30
0.0
  0
SPLINE
  5
64
330
1F
100
AcDbEntity
  8
AXIS
 62
   250
100
AcDbSpline
210
0.0
220
0.0
230
1.0
 70
    24
 71
     3
 72
     8
 73
     4
 74
     0
 42
0.0000000001
 43
0.0000000001
 40
0.0
 40
0.0
 40
0.0
 40
0.0
 40
1.0
 40
1.0
 40
1.0
 40
1.0
 10
-5.7812
 20
-31.0862
 30
0.0
 10
-5.7812
 20
-31.0862
 30
0.0
 10
-5.7812
 20
-27.2181
 30
0.0
 10
-5.7812
 20
-27.2181
 30
0.0
  0
SPLINE
  5
65
330
1F
100
AcDbEntity
  8
AXIS
 62
   250
100
AcDbSpline
210
0.0
220
0.0
230
1.0
 70
    24
 71
     3
 72
     8
 73
     4
 74
     0
 42
0.0000000001
 43
0.0000000001
 40
0.0
 40
0.0
 40
0.0
 40
0.0
 40
1.0
 40
1.0
 40
1.0
 40
1.0
 10
-5.7812
 20
-26.2028
 30
0.0
 10
-5.7812
 20
-26.2028
 30
0.0
 10
-5.7812
 20
-22.3347
 30
0.0
 10
-5.7812
 20
-22.3347
 30
0.0
  0
SPLINE
  5
66
330
1F
100
AcDbEntity
  8
AXIS
 62
   250
100
AcDbSpline
210
0.0
220
0.0
230
1.0
 70
    24
 71
     3
 72
     8
 73
     4
 74
     0
 42
0.0000000001
 43
0.0000000001
 40
0.0
 40
0.0
 40
0.0
 40
0.0
 40
1.0
 40
1.0
 40
1.0
 40
1.0
 10
-5.7812
 20
-21.3194
 30
0.0
 10
-5.7812
 20
-21.3194
 30
0.0
 10
-5.7812
 20
-17.4513
 30
0.0
 10
-5.7812
 20
-17.4513
 30
0.0
  0
SPLINE
  5
67
330
1F
100
AcDbEntity
  8
AXIS
 62
   250
100
AcDbSpline
210
0.0
220
0.0
230
1.0
 70
    24
 71
     3
 72
     8
 73
     4
 74
     0
 42
0.0000000001
 43
0.0000000001
 40
0.0
 40
0.0
 40
0.0
 40
0.0
 40
1.0
 40
1.0
 40
1.0
 40
1.0
 10
-5.7812
 20
-16.436
 30
0.0
 10
-5.7812
 20
-16.436
 30
0.0
 10
-5.7812
 20
-12.5679
 30
0.0
 10
-5.7812
 20
-12.5679
 30
0.0
  0
SPLINE
  5
68
330
1F
100
AcDbEntity
  8
AXIS
 62
   250
100
AcDbSpline
210
0.0
220
0.0
230
1.0
 70
    24
 71
     3
 72
     8
 73
     4
 74
     0
 42
0.0000000001
 43
0.0000000001
 40
0.0
 40
0.0
 40
0.0
 40
0.0
 40
1.0
 40
1.0
 40
1.0
 40
1.0
 10
-5.7812
 20
-11.5526
 30
0.0
 10
-5.7812
 20
-11.5526
 30
0.0
 10
-5.7812
 20
-7.6845
 30
0.0
 10
-5.7812
 20
-7.6845
 30
0.0
  0
SPLINE
  5
69
330
1F
100
AcDbEntity
  8
AXIS
 62
   250
100
AcDbSpline
210
0.0
220
0.0
230
1.0
 70
    24
 71
     3
 72
     8
 73
     4
 74
     0
 42
0.0000000001
 43
0.0000000001
 40
0.0
 40
0.0
 40
0.0
 40
0.0
 40
1.0
 40
1.0
 40
1.0
 40
1.0
 10
-5.7812
 20
-6.6692
 30
0.0
 10
-5.7812
 20
-6.6692
 30
0.0
 10
-5.7812
 20
-2.8011
 30
0.0
 10
-5.7812
 20
-2.8011
 30
0.0
  0
SPLINE
  5
6A
330
1F
100
AcDbEntity
  8
AXIS
 62
   250
100
AcDbSpline
210
0.0
220
0.0
230
1.0
 70
    24
 71
     3
 72
     8
 73
     4
 74
     0
 42
0.0000000001
 43
0.0000000001
 40
0.0
 40
0.0
 40
0.0
 40
0.0
 40
1.0
 40
1.0
 40
1.0
 40
1.0
 10
-5.7812
 20
-1.7858
 30
0.0
 10
-5.7812
 20
-1.7858
 30
0.0
 10
-5.7812
 20
2.0823
 30
0.0
 10
-5.7812
 20
2.0823
 30
0.0
  0
SPLINE
  5
6B
330
1F
100
AcDbEntity
  8
AXIS
 62
   250
100
AcDbSpline
210
0.0
220
0.0
230
1.0
 70
    24
 71
     3
 72
     8
 73
     4
 74
     0
 42
0.0000000001
 43
0.0000000001
 40
0.0
 40
0.0
 40
0.0
 40
0.0
 40
1.0
 40
1.0
 40
1.0
 40
1.0
 10
-5.7812
 20
3.0976
 30
0.0
 10
-5.7812
 20
3.0976
 30
0.0
 10
-5.7812
 20
6.9657
 30
0.0
 10
-5.7812
 20
6.9657
 30
0.0
  0
SPLINE
  5
6C
330
1F
100
AcDbEntity
  8
AXIS
 62
   250
100
AcDbSpline
210
0.0
220
0.0
230
1.0
 70
    24
 71
     3
 72
     8
 73
     4
 74
     0
 42
0.0000000001
 43
0.0000000001
 40
0.0
 40
0.0
 40
0.0
 40
0.0
 40
1.0
 40
1.0
 40
1.0
 40
1.0
 10
-5.7812
 20
7.981
 30
0.0
 10
-5.7812
 20
7.981
 30
0.0
 10
-5.7812
 20
11.8491
 30
0.0
 10
-5.7812
 20
11.8491
 30
0.0
  0
SPLINE
  5
6D
330
1F
100
AcDbEntity
  8
AXIS
 62
   250
100
AcDbSpline
210
0.0
220
0.0
230
1.0
 70
    24
 71
     3
 72
     8
 73
     4
 74
     0
 42
0.0000000001
 43
0.0000000001
 40
0.0
 40
0.0
 40
0.0
 40
0.0
 40
1.0
 40
1.0
 40
1.0
 40
1.0
 10
-5.7812
 20
12.8644
 30
0.0
 10
-5.7812
 20
12.8644
 30
0.0
 10
-5.7812
 20
16.7325
 30
0.0
 10
-5.7812
 20
16.7325
 30
0.0
  0
SPLINE
  5
6E
330
1F
100
AcDbEntity
  8
AXIS
 62
   250
100
AcDbSpline
210
0.0
220
0.0
230
1.0
 70
    24
 71
     3
 72
     8
 73
     4
 74
     0
 42
0.0000000001
 43
0.0000000001
 40
0.0
 40
0.0
 40
0.0
 40
0.0
 40
1.0
 40
1.0
 40
1.0
 40
1.0
 10
-5.7812
 20
17.7478
 30
0.0
 10
-5.7812
 20
17.7478
 30
0.0
 10
-5.7812
 20
21.6159
 30
0.0
 10
-5.7812
 20
21.6159
 30
0.0
  0
SPLINE
  5
6F
330
1F
100
AcDbEntity
  8
AXIS
 62
   250
100
AcDbSpline
210
0.0
220
0.0
230
1.0
 70
    24
 71
     3
 72
     8
 73
     4
 74
     0
 42
0.0000000001
 43
0.0000000001
 40
0.0
 40
0.0
 40
0.0
 40
0.0
 40
1.0
 40
1.0
 40
1.0
 40
1.0
 10
-5.7812
 20
22.6312
 30
0.0
 10
-5.7812
 20
22.6312
 30
0.0
 10
-5.7812
 20
25.1288
 30
0.0
 10
-5.7812
 20
25.1288
 30
0.0
  0
SPLINE
  5
70
330
1F
100
AcDbEntity
  8
AXIS
 62
   250
100
AcDbSpline
210
0.0
220
0.0
230
1.0
 70
    24
 71
     3
 72
     8
 73
     4
 74
     0
 42
0.0000000001
 43
0.0000000001
 40
0.0
 40
0.0
 40
0.0
 40
0.0
 40
1.0
 40
1.0
 40
1.0
 40
1.0
 10
22.8124
 20
-31.0862
 30
0.0
 10
22.8124
 20
-31.0862
 30
0.0
 10
-5.7812
 20
-31.0862
 30
0.0
 10
-5.7812
 20
-31.0862
 30
0.0
  0
SPLINE
  5
71
330
1F
100
AcDbEntity
  8
AXIS
 62
   250
100
AcDbSpline
210
0.0
220
0.0
230
1.0
 70
    24
 71
     3
 72
     8
 73
     4
 74
     0
 42
0.0000000001
 43
0.0000000001
 40
0.0
 40
0.0
 40
0.0
 40
0.0
 40
1.0
 40
1.0
 40
1.0
 40
1.0
 10
18.229
 20
-29.1521
 30
0.0
 10
18.229
 20
-29.1521
 30
0.0
 10
17.5228
 20
-29.1521
 30
0.0
 10
17.5228
 20
-29.1521
 30
0.0
  0
SPLINE
  5
72
330
1F
100
AcDbEntity
  8
AXIS
 62
   250
100
AcDbSpline
210
0.0
220
0.0
230
1.0
 70
    24
 71
     3
 72
     8
 73
     4
 74
     0
 42
0.0000000001
 43
0.0000000001
 40
0.0
 40
0.0
 40
0.0
 40
0.0
 40
1.0
 40
1.0
 40
1.0
 40
1.0
 10
22.7792
 20
-27.8374
 30
0.0
 10
22.7792
 20
-27.8374
 30
0.0
 10
18.229
 20
-27.8374
 30
0.0
 10
18.229
 20
-27.8374
 30
0.0
  0
SPLINE
  5
73
330
1F
100
AcDbEntity
  8
AXIS
 62
   250
100
AcDbSpline
210
0.0
220
0.0
230
1.0
 70
    24
 71
     3
 72
     8
 73
     4
 74
     0
 42
0.0000000001
 43
0.0000000001
 40
0.0
 40
0.0
 40
0.0
 40
0.0
 40
1.0
 40
1.0
 40
1.0
 40
1.0
 10
17.5228
 20
-27.8374
 30
0.0
 10
17.5228
 20
-27.8374
 30
0.0
 10
-5.7812
 20
-27.8374
 30
0.0
 10
-5.7812
 20
-27.8374
 30
0.0
  0
SPLINE
  5
74
330
1F
100
AcDbEntity
  8
AXIS
 62
   250
100
AcDbSpline
210
0.0
220
0.0
230
1.0
 70
    24
 71
     3
 72
     8
 73
     4
 74
     0
 42
0.0000000001
 43
0.0000000001
 40
0.0
 40
0.0
 40
0.0
 40
0.0
 40
1.0
 40
1.0
 40
1.0
 40
1.0
 10
22.7462
 20
-27.2181
 30
0.0
 10
22.7462
 20
-27.2181
 30
0.0
 10
-5.7812
 20
-27.2181
 30
0.0
 10
-5.7812
 20
-27.2181
 30
0.0
  0
SPLINE
  5
75
330
1F
100
AcDbEntity
  8
AXIS
 62
   250
100
AcDbSpline
210
0.0
220
0.0
230
1.0
 70
    24
 71
     3
 72
     8
 73
     4
 74
     0
 42
0.0000000001
 43
0.0000000001
 40
0.0
 40
0.0
 40
0.0
 40
0.0
 40
1.0
 40
1.0
 40
1.0
 40
1.0
 10
22.7131
 20
-26.2028
 30
0.0
 10
22.7131
 20
-26.2028
 30
0.0
 10
-5.7812
 20
-26.2028
 30
0.0
 10
-5.7812
 20
-26.2028
 30
0.0
  0
SPLINE
  5
76
330
1F
100
AcDbEntity
  8
AXIS
 62
   250
100
AcDbSpline
210
0.0
220
0.0
230
1.0
 70
    24
 71
     3
 72
     8
 73
     4
 74
     0
 42
0.0000000001
 43
0.0000000001
 40
0.0
 40
0.0
 40
0.0
 40
0.0
 40
1.0
 40
1.0
 40
1.0
 40
1.0
 10
18.229
 20
-24.2687
 30
0.0
 10
18.229
 20
-24.2687
 30
0.0
 10
17.5228
 20
-24.2687
 30
0.0
 10
17.5228
 20
-24.2687
 30
0.0
  0
SPLINE
  5
77
330
1F
100
AcDbEntity
  8
AXIS
 62
   250
100
AcDbSpline
210
0.0
220
0.0
230
1.0
 70
    24
 71
     3
 72
     8
 73
     4
 74
     0
 42
0.0000000001
 43
0.0000000001
 40
0.0
 40
0.0
 40
0.0
 40
0.0
 40
1.0
 40
1.0
 40
1.0
 40
1.0
 10
22.8785
 20
-22.954
 30
0.0
 10
22.8785
 20
-22.954
 30
0.0
 10
18.2289
 20
-22.954
 30
0.0
 10
18.2289
 20
-22.954
 30
0.0
  0
SPLINE
  5
78
330
1F
100
AcDbEntity
  8
AXIS
 62
   250
100
AcDbSpline
210
0.0
220
0.0
230
1.0
 70
    24
 71
     3
 72
     8
 73
     4
 74
     0
 42
0.0000000001
 43
0.0000000001
 40
0.0
 40
0.0
 40
0.0
 40
0.0
 40
1.0
 40
1.0
 40
1.0
 40
1.0
 10
17.5228
 20
-22.954
 30
0.0
 10
17.5228
 20
-22.954
 30
0.0
 10
-5.7812
 20
-22.954
 30
0.0
 10
-5.7812
 20
-22.954
 30
0.0
  0
SPLINE
  5
79
330
1F
100
AcDbEntity
  8
AXIS
 62
   250
100
AcDbSpline
210
0.0
220
0.0
230
1.0
 70
    24
 71
     3
 72
     8
 73
     4
 74
     0
 42
0.0000000001
 43
0.0000000001
 40
0.0
 40
0.0
 40
0.0
 40
0.0
 40
1.0
 40
1.0
 40
1.0
 40
1.0
 10
22.8455
 20
-22.3347
 30
0.0
 10
22.8455
 20
-22.3347
 30
0.0
 10
-5.7812
 20
-22.3347
 30
0.0
 10
-5.7812
 20
-22.3347
 30
0.0
  0
SPLINE
  5
7A
330
1F
100
AcDbEntity
  8
AXIS
 62
   250
100
AcDbSpline
210
0.0
220
0.0
230
1.0
 70
    24
 71
     3
 72
     8
 73
     4
 74
     0
 42
0.0000000001
 43
0.0000000001
 40
0.0
 40
0.0
 40
0.0
 40
0.0
 40
1.0
 40
1.0
 40
1.0
 40
1.0
 10
22.8455
 20
-21.3194
 30
0.0
 10
22.8455
 20
-21.3194
 30
0.0
 10
-5.7812
 20
-21.3194
 30
0.0
 10
-5.7812
 20
-21.3194
 30
0.0
  0
SPLINE
  5
7B
330
1F
100
AcDbEntity
  8
AXIS
 62
   250
100
AcDbSpline
210
0.0
220
0.0
230
1.0
 70
    24
 71
     3
 72
     8
 73
     4
 74
     0
 42
0.0000000001
 43
0.0000000001
 40
0.0
 40
0.0
 40
0.0
 40
0.0
 40
1.0
 40
1.0
 40
1.0
 40
1.0
 10
18.229
 20
-19.3853
 30
0.0
 10
18.229
 20
-19.3853
 30
0.0
 10
17.5228
 20
-19.3853
 30
0.0
 10
17.5228
 20
-19.3853
 30
0.0
  0
SPLINE
  5
7C
330
1F
100
AcDbEntity
  8
AXIS
 62
   250
100
AcDbSpline
210
0.0
220
0.0
230
1.0
 70
    24
 71
     3
 72
     8
 73
     4
 74
     0
 42
0.0000000001
 43
0.0000000001
 40
0.0
 40
0.0
 40
0.0
 40
0.0
 40
1.0
 40
1.0
 40
1.0
 40
1.0
 10
22.7132
 20
-18.0706
 30
0.0
 10
22.7132
 20
-18.0706
 30
0.0
 10
18.229
 20
-18.0706
 30
0.0
 10
18.229
 20
-18.0706
 30
0.0
  0
SPLINE
  5
7D
330
1F
100
AcDbEntity
  8
AXIS
 62
   250
100
AcDbSpline
210
0.0
220
0.0
230
1.0
 70
    24
 71
     3
 72
     8
 73
     4
 74
     0
 42
0.0000000001
 43
0.0000000001
 40
0.0
 40
0.0
 40
0.0
 40
0.0
 40
1.0
 40
1.0
 40
1.0
 40
1.0
 10
17.5228
 20
-18.0706
 30
0.0
 10
17.5228
 20
-18.0706
 30
0.0
 10
-5.7812
 20
-18.0706
 30
0.0
 10
-5.7812
 20
-18.0706
 30
0.0
  0
SPLINE
  5
7E
330
1F
100
AcDbEntity
  8
AXIS
 62
   250
100
AcDbSpline
210
0.0
220
0.0
230
1.0
 70
    24
 71
     3
 72
     8
 73
     4
 74
     0
 42
0.0000000001
 43
0.0000000001
 40
0.0
 40
0.0
 40
0.0
 40
0.0
 40
1.0
 40
1.0
 40
1.0
 40
1.0
 10
22.7793
 20
-17.4513
 30
0.0
 10
22.7793
 20
-17.4513
 30
0.0
 10
-5.7812
 20
-17.4513
 30
0.0
 10
-5.7812
 20
-17.4513
 30
0.0
  0
SPLINE
  5
7F
330
1F
100
AcDbEntity
  8
AXIS
 62
   250
100
AcDbSpline
210
0.0
220
0.0
230
1.0
 70
    24
 71
     3
 72
     8
 73
     4
 74
     0
 42
0.0000000001
 43
0.0000000001
 40
0.0
 40
0.0
 40
0.0
 40
0.0
 40
1.0
 40
1.0
 40
1.0
 40
1.0
 10
22.7793
 20
-16.436
 30
0.0
 10
22.7793
 20
-16.436
 30
0.0
 10
-5.7812
 20
-16.436
 30
0.0
 10
-5.7812
 20
-16.436
 30
0.0
  0
SPLINE
  5
80
330
1F
100
AcDbEntity
  8
AXIS
 62
   250
100
AcDbSpline
210
0.0
220
0.0
230
1.0
 70
    24
 71
     3
 72
     8
 73
     4
 74
     0
 42
0.0000000001
 43
0.0000000001
 40
0.0
 40
0.0
 40
0.0
 40
0.0
 40
1.0
 40
1.0
 40
1.0
 40
1.0
 10
18.229
 20
-14.5019
 30
0.0
 10
18.229
 20
-14.5019
 30
0.0
 10
17.5228
 20
-14.5019
 30
0.0
 10
17.5228
 20
-14.5019
 30
0.0
  0
SPLINE
  5
81
330
1F
100
AcDbEntity
  8
AXIS
 62
   250
100
AcDbSpline
210
0.0
220
0.0
230
1.0
 70
    24
 71
     3
 72
     8
 73
     4
 74
     0
 42
0.0000000001
 43
0.0000000001
 40
0.0
 40
0.0
 40
0.0
 40
0.0
 40
1.0
 40
1.0
 40
1.0
 40
1.0
 10
22.7132
 20
-13.1872
 30
0.0
 10
22.7132
 20
-13.1872
 30
0.0
 10
18.229
 20
-13.1872
 30
0.0
 10
18.229
 20
-13.1872
 30
0.0
  0
SPLINE
  5
82
330
1F
100
AcDbEntity
  8
AXIS
 62
   250
100
AcDbSpline
210
0.0
220
0.0
230
1.0
 70
    24
 71
     3
 72
     8
 73
     4
 74
     0
 42
0.0000000001
 43
0.0000000001
 40
0.0
 40
0.0
 40
0.0
 40
0.0
 40
1.0
 40
1.0
 40
1.0
 40
1.0
 10
17.5228
 20
-13.1872
 30
0.0
 10
17.5228
 20
-13.1872
 30
0.0
 10
-5.7812
 20
-13.1872
 30
0.0
 10
-5.7812
 20
-13.1872
 30
0.0
  0
SPLINE
  5
83
330
1F
100
AcDbEntity
  8
AXIS
 62
   250
100
AcDbSpline
210
0.0
220
0.0
230
1.0
 70
    24
 71
     3
 72
     8
 73
     4
 74
     0
 42
0.0000000001
 43
0.0000000001
 40
0.0
 40
0.0
 40
0.0
 40
0.0
 40
1.0
 40
1.0
 40
1.0
 40
1.0
 10
22.7793
 20
-12.5679
 30
0.0
 10
22.7793
 20
-12.5679
 30
0.0
 10
-5.7812
 20
-12.5679
 30
0.0
 10
-5.7812
 20
-12.5679
 30
0.0
  0
SPLINE
  5
84
330
1F
100
AcDbEntity
  8
AXIS
 62
   250
100
AcDbSpline
210
0.0
220
0.0
230
1.0
 70
    24
 71
     3
 72
     8
 73
     4
 74
     0
 42
0.0000000001
 43
0.0000000001
 40
0.0
 40
0.0
 40
0.0
 40
0.0
 40
1.0
 40
1.0
 40
1.0
 40
1.0
 10
22.7793
 20
-11.5526
 30
0.0
 10
22.7793
 20
-11.5526
 30
0.0
 10
-5.7812
 20
-11.5526
 30
0.0
 10
-5.7812
 20
-11.5526
 30
0.0
  0
SPLINE
  5
85
330
1F
100
AcDbEntity
  8
AXIS
 62
   250
100
AcDbSpline
210
0.0
220
0.0
230
1.0
 70
    24
 71
     3
 72
     8
 73
     4
 74
     0
 42
0.0000000001
 43
0.0000000001
 40
0.0
 40
0.0
 40
0.0
 40
0.0
 40
1.0
 40
1.0
 40
1.0
 40
1.0
 10
18.229
 20
-9.6186
 30
0.0
 10
18.229
 20
-9.6186
 30
0.0
 10
17.5228
 20
-9.6186
 30
0.0
 10
17.5228
 20
-9.6186
 30
0.0
  0
SPLINE
  5
86
330
1F
100
AcDbEntity
  8
AXIS
 62
   250
100
AcDbSpline
210
0.0
220
0.0
230
1.0
 70
    24
 71
     3
 72
     8
 73
     4
 74
     0
 42
0.0000000001
 43
0.0000000001
 40
0.0
 40
0.0
 40
0.0
 40
0.0
 40
1.0
 40
1.0
 40
1.0
 40
1.0
 10
17.5228
 20
-29.1521
 30
0.0
 10
17.5228
 20
-29.1521
 30
0.0
 10
17.5228
 20
-27.2181
 30
0.0
 10
17.5228
 20
-27.2181
 30
0.0
  0
SPLINE
  5
87
330
1F
100
AcDbEntity
  8
AXIS
 62
   250
100
AcDbSpline
210
0.0
220
0.0
230
1.0
 70
    24
 71
     3
 72
     8
 73
     4
 74
     0
 42
0.0000000001
 43
0.0000000001
 40
0.0
 40
0.0
 40
0.0
 40
0.0
 40
1.0
 40
1.0
 40
1.0
 40
1.0
 10
17.5228
 20
-24.2687
 30
0.0
 10
17.5228
 20
-24.2687
 30
0.0
 10
17.5228
 20
-22.3347
 30
0.0
 10
17.5228
 20
-22.3347
 30
0.0
  0
SPLINE
  5
88
330
1F
100
AcDbEntity
  8
AXIS
 62
   250
100
AcDbSpline
210
0.0
220
0.0
230
1.0
 70
    24
 71
     3
 72
     8
 73
     4
 74
     0
 42
0.0000000001
 43
0.0000000001
 40
0.0
 40
0.0
 40
0.0
 40
0.0
 40
1.0
 40
1.0
 40
1.0
 40
1.0
 10
17.5228
 20
-19.3853
 30
0.0
 10
17.5228
 20
-19.3853
 30
0.0
 10
17.5228
 20
-17.4513
 30
0.0
 10
17.5228
 20
-17.4513
 30
0.0
  0
SPLINE
  5
89
330
1F
100
AcDbEntity
  8
AXIS
 62
   250
100
AcDbSpline
210
0.0
220
0.0
230
1.0
 70
    24
 71
     3
 72
     8
 73
     4
 74
     0
 42
0.0000000001
 43
0.0000000001
 40
0.0
 40
0.0
 40
0.0
 40
0.0
 40
1.0
 40
1.0
 40
1.0
 40
1.0
 10
17.5228
 20
-14.5019
 30
0.0
 10
17.5228
 20
-14.5019
 30
0.0
 10
17.5228
 20
-12.5679
 30
0.0
 10
17.5228
 20
-12.5679
 30
0.0
  0
SPLINE
  5
8A
330
1F
100
AcDbEntity
  8
AXIS
 62
   250
100
AcDbSpline
210
0.0
220
0.0
230
1.0
 70
    24
 71
     3
 72
     8
 73
     4
 74
     0
 42
0.0000000001
 43
0.0000000001
 40
0.0
 40
0.0
 40
0.0
 40
0.0
 40
1.0
 40
1.0
 40
1.0
 40
1.0
 10
17.5228
 20
-9.6186
 30
0.0
 10
17.5228
 20
-9.6186
 30
0.0
 10
17.5228
 20
-7.6845
 30
0.0
 10
17.5228
 20
-7.6845
 30
0.0
  0
SPLINE
  5
8B
330
1F
100
AcDbEntity
  8
AXIS
 62
   250
100
AcDbSpline
210
0.0
220
0.0
230
1.0
 70
    24
 71
     3
 72
     8
 73
     4
 74
     0
 42
0.0000000001
 43
0.0000000001
 40
0.0
 40
0.0
 40
0.0
 40
0.0
 40
1.0
 40
1.0
 40
1.0
 40
1.0
 10
17.5228
 20
-4.7352
 30
0.0
 10
17.5228
 20
-4.7352
 30
0.0
 10
17.5228
 20
-2.8011
 30
0.0
 10
17.5228
 20
-2.8011
 30
0.0
  0
SPLINE
  5
8C
330
1F
100
AcDbEntity
  8
AXIS
 62
   250
100
AcDbSpline
210
0.0
220
0.0
230
1.0
 70
    24
 71
     3
 72
     8
 73
     4
 74
     0
 42
0.0000000001
 43
0.0000000001
 40
0.0
 40
0.0
 40
0.0
 40
0.0
 40
1.0
 40
1.0
 40
1.0
 40
1.0
 10
17.5228
 20
0.1482
 30
0.0
 10
17.5228
 20
0.1482
 30
0.0
 10
17.5228
 20
2.0823
 30
0.0
 10
17.5228
 20
2.0823
 30
0.0
  0
SPLINE
  5
8D
330
1F
100
AcDbEntity
  8
AXIS
 62
   250
100
AcDbSpline
210
0.0
220
0.0
230
1.0
 70
    24
 71
     3
 72
     8
 73
     4
 74
     0
 42
0.0000000001
 43
0.0000000001
 40
0.0
 40
0.0
 40
0.0
 40
0.0
 40
1.0
 40
1.0
 40
1.0
 40
1.0
 10
17.5228
 20
5.0317
 30
0.0
 10
17.5228
 20
5.0317
 30
0.0
 10
17.5228
 20
6.9657
 30
0.0
 10
17.5228
 20
6.9657
 30
0.0
  0
SPLINE
  5
8E
330
1F
100
AcDbEntity
  8
AXIS
 62
   250
100
AcDbSpline
210
0.0
220
0.0
230
1.0
 70
    24
 71
     3
 72
     8
 73
     4
 74
     0
 42
0.0000000001
 43
0.0000000001
 40
0.0
 40
0.0
 40
0.0
 40
0.0
 40
1.0
 40
1.0
 40
1.0
 40
1.0
 10
17.5228
 20
9.9151
 30
0.0
 10
17.5228
 20
9.9151
 30
0.0
 10
17.5228
 20
11.8491
 30
0.0
 10
17.5228
 20
11.8491
 30
0.0
  0
SPLINE
  5
8F
330
1F
100
AcDbEntity
  8
AXIS
 62
   250
100
AcDbSpline
210
0.0
220
0.0
230
1.0
 70
    24
 71
     3
 72
     8
 73
     4
 74
     0
 42
0.0000000001
 43
0.0000000001
 40
0.0
 40
0.0
 40
0.0
 40
0.0
 40
1.0
 40
1.0
 40
1.0
 40
1.0
 10
17.5228
 20
14.7985
 30
0.0
 10
17.5228
 20
14.7985
 30
0.0
 10
17.5228
 20
16.7325
 30
0.0
 10
17.5228
 20
16.7325
 30
0.0
  0
SPLINE
  5
90
330
1F
100
AcDbEntity
  8
AXIS
 62
   250
100
AcDbSpline
210
0.0
220
0.0
230
1.0
 70
    24
 71
     3
 72
     8
 73
     4
 74
     0
 42
0.0000000001
 43
0.0000000001
 40
0.0
 40
0.0
 40
0.0
 40
0.0
 40
1.0
 40
1.0
 40
1.0
 40
1.0
 10
17.5228
 20
19.6819
 30
0.0
 10
17.5228
 20
19.6819
 30
0.0
 10
17.5228
 20
21.6159
 30
0.0
 10
17.5228
 20
21.6159
 30
0.0
  0
SPLINE
  5
91
330
1F
100
AcDbEntity
  8
AXIS
 62
   250
100
AcDbSpline
210
0.0
220
0.0
230
1.0
 70
    24
 71
     3
 72
     8
 73
     4
 74
     0
 42
0.0000000001
 43
0.0000000001
 40
0.0
 40
0.0
 40
0.0
 40
0.0
 40
1.0
 40
1.0
 40
1.0
 40
1.0
 10
18.229
 20
-29.1521
 30
0.0
 10
18.229
 20
-29.1521
 30
0.0
 10
18.229
 20
-27.2181
 30
0.0
 10
18.229
 20
-27.2181
 30
0.0
  0
SPLINE
  5
92
330
1F
100
AcDbEntity
  8
AXIS
 62
   250
100
AcDbSpline
210
0.0
220
0.0
230
1.0
 70
    24
 71
     3
 72
     8
 73
     4
 74
     0
 42
0.0000000001
 43
0.0000000001
 40
0.0
 40
0.0
 40
0.0
 40
0.0
 40
1.0
 40
1.0
 40
1.0
 40
1.0
 10
18.229
 20
-24.2687
 30
0.0
 10
18.229
 20
-24.2687
 30
0.0
 10
18.229
 20
-22.3347
 30
0.0
 10
18.229
 20
-22.3347
 30
0.0
  0
SPLINE
  5
93
330
1F
100
AcDbEntity
  8
AXIS
 62
   250
100
AcDbSpline
210
0.0
220
0.0
230
1.0
 70
    24
 71
     3
 72
     8
 73
     4
 74
     0
 42
0.0000000001
 43
0.0000000001
 40
0.0
 40
0.0
 40
0.0
 40
0.0
 40
1.0
 40
1.0
 40
1.0
 40
1.0
 10
18.229
 20
-19.3853
 30
0.0
 10
18.229
 20
-19.3853
 30
0.0
 10
18.229
 20
-17.4513
 30
0.0
 10
18.229
 20
-17.4513
 30
0.0
  0
SPLINE
  5
94
330
1F
100
AcDbEntity
  8
AXIS
 62
   250
100
AcDbSpline
210
0.0
220
0.0
230
1.0
 70
    24
 71
     3
 72
     8
 73
     4
 74
     0
 42
0.0000000001
 43
0.0000000001
 40
0.0
 40
0.0
 40
0.0
 40
0.0
 40
1.0
 40
1.0
 40
1.0
 40
1.0
 10
18.229
 20
-14.5019
 30
0.0
 10
18.229
 20
-14.5019
 30
0.0
 10
18.229
 20
-12.5679
 30
0.0
 10
18.229
 20
-12.5679
 30
0.0
  0
SPLINE
  5
95
330
1F
100
AcDbEntity
  8
AXIS
 62
   250
100
AcDbSpline
210
0.0
220
0.0
230
1.0
 70
    24
 71
     3
 72
     8
 73
     4
 74
     0
 42
0.0000000001
 43
0.0000000001
 40
0.0
 40
0.0
 40
0.0
 40
0.0
 40
1.0
 40
1.0
 40
1.0
 40
1.0
 10
18.229
 20
-9.6186
 30
0.0
 10
18.229
 20
-9.6186
 30
0.0
 10
18.229
 20
-7.6845
 30
0.0
 10
18.229
 20
-7.6845
 30
0.0
  0
SPLINE
  5
96
330
1F
100
AcDbEntity
  8
AXIS
 62
   250
100
AcDbSpline
210
0.0
220
0.0
230
1.0
 70
    24
 71
     3
 72
     8
 73
     4
 74
     0
 42
0.0000000001
 43
0.0000000001
 40
0.0
 40
0.0
 40
0.0
 40
0.0
 40
1.0
 40
1.0
 40
1.0
 40
1.0
 10
18.229
 20
-4.7352
 30
0.0
 10
18.229
 20
-4.7352
 30
0.0
 10
18.229
 20
-2.8011
 30
0.0
 10
18.229
 20
-2.8011
 30
0.0
  0
SPLINE
  5
97
330
1F
100
AcDbEntity
  8
AXIS
 62
   250
100
AcDbSpline
210
0.0
220
0.0
230
1.0
 70
    24
 71
     3
 72
     8
 73
     4
 74
     0
 42
0.0000000001
 43
0.0000000001
 40
0.0
 40
0.0
 40
0.0
 40
0.0
 40
1.0
 40
1.0
 40
1.0
 40
1.0
 10
18.229
 20
0.1482
 30
0.0
 10
18.229
 20
0.1482
 30
0.0
 10
18.229
 20
2.0823
 30
0.0
 10
18.229
 20
2.0823
 30
0.0
  0
SPLINE
  5
98
330
1F
100
AcDbEntity
  8
AXIS
 62
   250
100
AcDbSpline
210
0.0
220
0.0
230
1.0
 70
    24
 71
     3
 72
     8
 73
     4
 74
     0
 42
0.0000000001
 43
0.0000000001
 40
0.0
 40
0.0
 40
0.0
 40
0.0
 40
1.0
 40
1.0
 40
1.0
 40
1.0
 10
18.229
 20
5.0317
 30
0.0
 10
18.229
 20
5.0317
 30
0.0
 10
18.229
 20
6.9657
 30
0.0
 10
18.229
 20
6.9657
 30
0.0
  0
SPLINE
  5
99
330
1F
100
AcDbEntity
  8
AXIS
 62
   250
100
AcDbSpline
210
0.0
220
0.0
230
1.0
 70
    24
 71
     3
 72
     8
 73
     4
 74
     0
 42
0.0000000001
 43
0.0000000001
 40
0.0
 40
0.0
 40
0.0
 40
0.0
 40
1.0
 40
1.0
 40
1.0
 40
1.0
 10
18.229
 20
9.9151
 30
0.0
 10
18.229
 20
9.9151
 30
0.0
 10
18.229
 20
11.8491
 30
0.0
 10
18.229
 20
11.8491
 30
0.0
  0
SPLINE
  5
9A
330
1F
100
AcDbEntity
  8
AXIS
 62
   250
100
AcDbSpline
210
0.0
220
0.0
230
1.0
 70
    24
 71
     3
 72
     8
 73
     4
 74
     0
 42
0.0000000001
 43
0.0000000001
 40
0.0
 40
0.0
 40
0.0
 40
0.0
 40
1.0
 40
1.0
 40
1.0
 40
1.0
 10
18.229
 20
14.7985
 30
0.0
 10
18.229
 20
14.7985
 30
0.0
 10
18.229
 20
16.7325
 30
0.0
 10
18.229
 20
16.7325
 30
0.0
  0
SPLINE
  5
9B
330
1F
100
AcDbEntity
  8
AXIS
 62
   250
100
AcDbSpline
210
0.0
220
0.0
230
1.0
 70
    24
 71
     3
 72
     8
 73
     4
 74
     0
 42
0.0000000001
 43
0.0000000001
 40
0.0
 40
0.0
 40
0.0
 40
0.0
 40
1.0
 40
1.0
 40
1.0
 40
1.0
 10
18.229
 20
19.6819
 30
0.0
 10
18.229
 20
19.6819
 30
0.0
 10
18.229
 20
21.6159
 30
0.0
 10
18.229
 20
21.6159
 30
0.0
  0
SPLINE
  5
9C
330
1F
100
AcDbEntity
  8
AXIS
 62
   250
100
AcDbSpline
210
0.0
220
0.0
230
1.0
 70
    24
 71
     3
 72
     8
 73
     4
 74
     0
 42
0.0000000001
 43
0.0000000001
 40
0.0
 40
0.0
 40
0.0
 40
0.0
 40
1.0
 40
1.0
 40
1.0
 40
1.0
 10
22.7132
 20
-8.3038
 30
0.0
 10
22.7132
 20
-8.3038
 30
0.0
 10
18.229
 20
-8.3038
 30
0.0
 10
18.229
 20
-8.3038
 30
0.0
  0
SPLINE
  5
9D
330
1F
100
AcDbEntity
  8
AXIS
 62
   250
100
AcDbSpline
210
0.0
220
0.0
230
1.0
 70
    24
 71
     3
 72
     8
 73
     4
 74
     0
 42
0.0000000001
 43
0.0000000001
 40
0.0
 40
0.0
 40
0.0
 40
0.0
 40
1.0
 40
1.0
 40
1.0
 40
1.0
 10
17.5228
 20
-8.3038
 30
0.0
 10
17.5228
 20
-8.3038
 30
0.0
 10
-5.7812
 20
-8.3038
 30
0.0
 10
-5.7812
 20
-8.3038
 30
0.0
  0
SPLINE
  5
9E
330
1F
100
AcDbEntity
  8
AXIS
 62
   250
100
AcDbSpline
210
0.0
220
0.0
230
1.0
 70
    24
 71
     3
 72
     8
 73
     4
 74
     0
 42
0.0000000001
 43
0.0000000001
 40
0.0
 40
0.0
 40
0.0
 40
0.0
 40
1.0
 40
1.0
 40
1.0
 40
1.0
 10
22.7793
 20
-7.6845
 30
0.0
 10
22.7793
 20
-7.6845
 30
0.0
 10
-5.7812
 20
-7.6845
 30
0.0
 10
-5.7812
 20
-7.6845
 30
0.0
  0
SPLINE
  5
9F
330
1F
100
AcDbEntity
  8
AXIS
 62
   250
100
AcDbSpline
210
0.0
220
0.0
230
1.0
 70
    24
 71
     3
 72
     8
 73
     4
 74
     0
 42
0.0000000001
 43
0.0000000001
 40
0.0
 40
0.0
 40
0.0
 40
0.0
 40
1.0
 40
1.0
 40
1.0
 40
1.0
 10
22.7793
 20
-6.6692
 30
0.0
 10
22.7793
 20
-6.6692
 30
0.0
 10
-5.7812
 20
-6.6692
 30
0.0
 10
-5.7812
 20
-6.6692
 30
0.0
  0
SPLINE
  5
A0
330
1F
100
AcDbEntity
  8
AXIS
 62
   250
100
AcDbSpline
210
0.0
220
0.0
230
1.0
 70
    24
 71
     3
 72
     8
 73
     4
 74
     0
 42
0.0000000001
 43
0.0000000001
 40
0.0
 40
0.0
 40
0.0
 40
0.0
 40
1.0
 40
1.0
 40
1.0
 40
1.0
 10
18.229
 20
-4.7352
 30
0.0
 10
18.229
 20
-4.7352
 30
0.0
 10
17.5228
 20
-4.7352
 30
0.0
 10
17.5228
 20
-4.7352
 30
0.0
  0
SPLINE
  5
A1
330
1F
100
AcDbEntity
  8
AXIS
 62
   250
100
AcDbSpline
210
0.0
220
0.0
230
1.0
 70
    24
 71
     3
 72
     8
 73
     4
 74
     0
 42
0.0000000001
 43
0.0000000001
 40
0.0
 40
0.0
 40
0.0
 40
0.0
 40
1.0
 40
1.0
 40
1.0
 40
1.0
 10
22.7132
 20
-3.4204
 30
0.0
 10
22.7132
 20
-3.4204
 30
0.0
 10
18.229
 20
-3.4204
 30
0.0
 10
18.229
 20
-3.4204
 30
0.0
  0
SPLINE
  5
A2
330
1F
100
AcDbEntity
  8
AXIS
 62
   250
100
AcDbSpline
210
0.0
220
0.0
230
1.0
 70
    24
 71
     3
 72
     8
 73
     4
 74
     0
 42
0.0000000001
 43
0.0000000001
 40
0.0
 40
0.0
 40
0.0
 40
0.0
 40
1.0
 40
1.0
 40
1.0
 40
1.0
 10
17.5228
 20
-3.4204
 30
0.0
 10
17.5228
 20
-3.4204
 30
0.0
 10
-5.7812
 20
-3.4204
 30
0.0
 10
-5.7812
 20
-3.4204
 30
0.0
  0
SPLINE
  5
A3
330
1F
100
AcDbEntity
  8
AXIS
 62
   250
100
AcDbSpline
210
0.0
220
0.0
230
1.0
 70
    24
 71
     3
 72
     8
 73
     4
 74
     0
 42
0.0000000001
 43
0.0000000001
 40
0.0
 40
0.0
 40
0.0
 40
0.0
 40
1.0
 40
1.0
 40
1.0
 40
1.0
 10
22.7793
 20
-2.8011
 30
0.0
 10
22.7793
 20
-2.8011
 30
0.0
 10
-5.7812
 20
-2.8011
 30
0.0
 10
-5.7812
 20
-2.8011
 30
0.0
  0
SPLINE
  5
A4
330
1F
100
AcDbEntity
  8
AXIS
 62
   250
100
AcDbSpline
210
0.0
220
0.0
230
1.0
 70
    24
 71
     3
 72
     8
 73
     4
 74
     0
 42
0.0000000001
 43
0.0000000001
 40
0.0
 40
0.0
 40
0.0
 40
0.0
 40
1.0
 40
1.0
 40
1.0
 40
1.0
 10
22.7793
 20
-1.7858
 30
0.0
 10
22.7793
 20
-1.7858
 30
0.0
 10
-5.7812
 20
-1.7858
 30
0.0
 10
-5.7812
 20
-1.7858
 30
0.0
  0
SPLINE
  5
A5
330
1F
100
AcDbEntity
  8
AXIS
 62
   250
100
AcDbSpline
210
0.0
220
0.0
230
1.0
 70
    24
 71
     3
 72
     8
 73
     4
 74
     0
 42
0.0000000001
 43
0.0000000001
 40
0.0
 40
0.0
 40
0.0
 40
0.0
 40
1.0
 40
1.0
 40
1.0
 40
1.0
 10
18.229
 20
0.1482
 30
0.0
 10
18.229
 20
0.1482
 30
0.0
 10
17.5228
 20
0.1482
 30
0.0
 10
17.5228
 20
0.1482
 30
0.0
  0
SPLINE
  5
A6
330
1F
100
AcDbEntity
  8
AXIS
 62
   250
100
AcDbSpline
210
0.0
220
0.0
230
1.0
 70
    24
 71
     3
 72
     8
 73
     4
 74
     0
 42
0.0000000001
 43
0.0000000001
 40
0.0
 40
0.0
 40
0.0
 40
0.0
 40
1.0
 40
1.0
 40
1.0
 40
1.0
 10
22.7132
 20
1.463
 30
0.0
 10
22.7132
 20
1.463
 30
0.0
 10
18.229
 20
1.463
 30
0.0
 10
18.229
 20
1.463
 30
0.0
  0
SPLINE
  5
A7
330
1F
100
AcDbEntity
  8
AXIS
 62
   250
100
AcDbSpline
210
0.0
220
0.0
230
1.0
 70
    24
 71
     3
 72
     8
 73
     4
 74
     0
 42
0.0000000001
 43
0.0000000001
 40
0.0
 40
0.0
 40
0.0
 40
0.0
 40
1.0
 40
1.0
 40
1.0
 40
1.0
 10
17.5228
 20
1.463
 30
0.0
 10
17.5228
 20
1.463
 30
0.0
 10
-5.7812
 20
1.463
 30
0.0
 10
-5.7812
 20
1.463
 30
0.0
  0
SPLINE
  5
A8
330
1F
100
AcDbEntity
  8
AXIS
 62
   250
100
AcDbSpline
210
0.0
220
0.0
230
1.0
 70
    24
 71
     3
 72
     8
 73
     4
 74
     0
 42
0.0000000001
 43
0.0000000001
 40
0.0
 40
0.0
 40
0.0
 40
0.0
 40
1.0
 40
1.0
 40
1.0
 40
1.0
 10
22.7793
 20
2.0823
 30
0.0
 10
22.7793
 20
2.0823
 30
0.0
 10
-5.7812
 20
2.0823
 30
0.0
 10
-5.7812
 20
2.0823
 30
0.0
  0
SPLINE
  5
A9
330
1F
100
AcDbEntity
  8
AXIS
 62
   250
100
AcDbSpline
210
0.0
220
0.0
230
1.0
 70
    24
 71
     3
 72
     8
 73
     4
 74
     0
 42
0.0000000001
 43
0.0000000001
 40
0.0
 40
0.0
 40
0.0
 40
0.0
 40
1.0
 40
1.0
 40
1.0
 40
1.0
 10
22.7793
 20
3.0976
 30
0.0
 10
22.7793
 20
3.0976
 30
0.0
 10
-5.7812
 20
3.0976
 30
0.0
 10
-5.7812
 20
3.0976
 30
0.0
  0
SPLINE
  5
AA
330
1F
100
AcDbEntity
  8
AXIS
 62
   250
100
AcDbSpline
210
0.0
220
0.0
230
1.0
 70
    24
 71
     3
 72
     8
 73
     4
 74
     0
 42
0.0000000001
 43
0.0000000001
 40
0.0
 40
0.0
 40
0.0
 40
0.0
 40
1.0
 40
1.0
 40
1.0
 40
1.0
 10
18.229
 20
5.0317
 30
0.0
 10
18.229
 20
5.0317
 30
0.0
 10
17.5228
 20
5.0317
 30
0.0
 10
17.5228
 20
5.0317
 30
0.0
  0
SPLINE
  5
AB
330
1F
100
AcDbEntity
  8
AXIS
 62
   250
100
AcDbSpline
210
0.0
220
0.0
230
1.0
 70
    24
 71
     3
 72
     8
 73
     4
 74
     0
 42
0.0000000001
 43
0.0000000001
 40
0.0
 40
0.0
 40
0.0
 40
0.0
 40
1.0
 40
1.0
 40
1.0
 40
1.0
 10
22.7132
 20
6.3464
 30
0.0
 10
22.7132
 20
6.3464
 30
0.0
 10
18.229
 20
6.3464
 30
0.0
 10
18.229
 20
6.3464
 30
0.0
  0
SPLINE
  5
AC
330
1F
100
AcDbEntity
  8
AXIS
 62
   250
100
AcDbSpline
210
0.0
220
0.0
230
1.0
 70
    24
 71
     3
 72
     8
 73
     4
 74
     0
 42
0.0000000001
 43
0.0000000001
 40
0.0
 40
0.0
 40
0.0
 40
0.0
 40
1.0
 40
1.0
 40
1.0
 40
1.0
 10
17.5228
 20
6.3464
 30
0.0
 10
17.5228
 20
6.3464
 30
0.0
 10
-5.7812
 20
6.3464
 30
0.0
 10
-5.7812
 20
6.3464
 30
0.0
  0
SPLINE
  5
AD
330
1F
100
AcDbEntity
  8
AXIS
 62
   250
100
AcDbSpline
210
0.0
220
0.0
230
1.0
 70
    24
 71
     3
 72
     8
 73
     4
 74
     0
 42
0.0000000001
 43
0.0000000001
 40
0.0
 40
0.0
 40
0.0
 40
0.0
 40
1.0
 40
1.0
 40
1.0
 40
1.0
 10
22.7793
 20
6.9657
 30
0.0
 10
22.7793
 20
6.9657
 30
0.0
 10
-5.7812
 20
6.9657
 30
0.0
 10
-5.7812
 20
6.9657
 30
0.0
  0
SPLINE
  5
AE
330
1F
100
AcDbEntity
  8
AXIS
 62
   250
100
AcDbSpline
210
0.0
220
0.0
230
1.0
 70
    24
 71
     3
 72
     8
 73
     4
 74
     0
 42
0.0000000001
 43
0.0000000001
 40
0.0
 40
0.0
 40
0.0
 40
0.0
 40
1.0
 40
1.0
 40
1.0
 40
1.0
 10
22.7793
 20
7.981
 30
0.0
 10
22.7793
 20
7.981
 30
0.0
 10
-5.7812
 20
7.981
 30
0.0
 10
-5.7812
 20
7.981
 30
0.0
  0
SPLINE
  5
AF
330
1F
100
AcDbEntity
  8
AXIS
 62
   250
100
AcDbSpline
210
0.0
220
0.0
230
1.0
 70
    24
 71
     3
 72
     8
 73
     4
 74
     0
 42
0.0000000001
 43
0.0000000001
 40
0.0
 40
0.0
 40
0.0
 40
0.0
 40
1.0
 40
1.0
 40
1.0
 40
1.0
 10
18.229
 20
9.9151
 30
0.0
 10
18.229
 20
9.9151
 30
0.0
 10
17.5228
 20
9.9151
 30
0.0
 10
17.5228
 20
9.9151
 30
0.0
  0
SPLINE
  5
B0
330
1F
100
AcDbEntity
  8
AXIS
 62
   250
100
AcDbSpline
210
0.0
220
0.0
230
1.0
 70
    24
 71
     3
 72
     8
 73
     4
 74
     0
 42
0.0000000001
 43
0.0000000001
 40
0.0
 40
0.0
 40
0.0
 40
0.0
 40
1.0
 40
1.0
 40
1.0
 40
1.0
 10
22.7132
 20
11.2298
 30
0.0
 10
22.7132
 20
11.2298
 30
0.0
 10
18.229
 20
11.2298
 30
0.0
 10
18.229
 20
11.2298
 30
0.0
  0
SPLINE
  5
B1
330
1F
100
AcDbEntity
  8
AXIS
 62
   250
100
AcDbSpline
210
0.0
220
0.0
230
1.0
 70
    24
 71
     3
 72
     8
 73
     4
 74
     0
 42
0.0000000001
 43
0.0000000001
 40
0.0
 40
0.0
 40
0.0
 40
0.0
 40
1.0
 40
1.0
 40
1.0
 40
1.0
 10
17.5228
 20
11.2298
 30
0.0
 10
17.5228
 20
11.2298
 30
0.0
 10
-5.7812
 20
11.2298
 30
0.0
 10
-5.7812
 20
11.2298
 30
0.0
  0
SPLINE
  5
B2
330
1F
100
AcDbEntity
  8
AXIS
 62
   250
100
AcDbSpline
210
0.0
220
0.0
230
1.0
 70
    24
 71
     3
 72
     8
 73
     4
 74
     0
 42
0.0000000001
 43
0.0000000001
 40
0.0
 40
0.0
 40
0.0
 40
0.0
 40
1.0
 40
1.0
 40
1.0
 40
1.0
 10
22.7793
 20
11.8491
 30
0.0
 10
22.7793
 20
11.8491
 30
0.0
 10
-5.7812
 20
11.8491
 30
0.0
 10
-5.7812
 20
11.8491
 30
0.0
  0
SPLINE
  5
B3
330
1F
100
AcDbEntity
  8
AXIS
 62
   250
100
AcDbSpline
210
0.0
220
0.0
230
1.0
 70
    24
 71
     3
 72
     8
 73
     4
 74
     0
 42
0.0000000001
 43
0.0000000001
 40
0.0
 40
0.0
 40
0.0
 40
0.0
 40
1.0
 40
1.0
 40
1.0
 40
1.0
 10
22.7793
 20
12.8644
 30
0.0
 10
22.7793
 20
12.8644
 30
0.0
 10
-5.7812
 20
12.8644
 30
0.0
 10
-5.7812
 20
12.8644
 30
0.0
  0
SPLINE
  5
B4
330
1F
100
AcDbEntity
  8
AXIS
 62
   250
100
AcDbSpline
210
0.0
220
0.0
230
1.0
 70
    24
 71
     3
 72
     8
 73
     4
 74
     0
 42
0.0000000001
 43
0.0000000001
 40
0.0
 40
0.0
 40
0.0
 40
0.0
 40
1.0
 40
1.0
 40
1.0
 40
1.0
 10
18.229
 20
14.7985
 30
0.0
 10
18.229
 20
14.7985
 30
0.0
 10
17.5228
 20
14.7985
 30
0.0
 10
17.5228
 20
14.7985
 30
0.0
  0
SPLINE
  5
B5
330
1F
100
AcDbEntity
  8
AXIS
 62
   250
100
AcDbSpline
210
0.0
220
0.0
230
1.0
 70
    24
 71
     3
 72
     8
 73
     4
 74
     0
 42
0.0000000001
 43
0.0000000001
 40
0.0
 40
0.0
 40
0.0
 40
0.0
 40
1.0
 40
1.0
 40
1.0
 40
1.0
 10
22.7132
 20
16.1132
 30
0.0
 10
22.7132
 20
16.1132
 30
0.0
 10
18.229
 20
16.1132
 30
0.0
 10
18.229
 20
16.1132
 30
0.0
  0
SPLINE
  5
B6
330
1F
100
AcDbEntity
  8
AXIS
 62
   250
100
AcDbSpline
210
0.0
220
0.0
230
1.0
 70
    24
 71
     3
 72
     8
 73
     4
 74
     0
 42
0.0000000001
 43
0.0000000001
 40
0.0
 40
0.0
 40
0.0
 40
0.0
 40
1.0
 40
1.0
 40
1.0
 40
1.0
 10
17.5228
 20
16.1132
 30
0.0
 10
17.5228
 20
16.1132
 30
0.0
 10
-5.7812
 20
16.1132
 30
0.0
 10
-5.7812
 20
16.1132
 30
0.0
  0
SPLINE
  5
B7
330
1F
100
AcDbEntity
  8
AXIS
 62
   250
100
AcDbSpline
210
0.0
220
0.0
230
1.0
 70
    24
 71
     3
 72
     8
 73
     4
 74
     0
 42
0.0000000001
 43
0.0000000001
 40
0.0
 40
0.0
 40
0.0
 40
0.0
 40
1.0
 40
1.0
 40
1.0
 40
1.0
 10
22.7793
 20
16.7325
 30
0.0
 10
22.7793
 20
16.7325
 30
0.0
 10
-5.7812
 20
16.7325
 30
0.0
 10
-5.7812
 20
16.7325
 30
0.0
  0
SPLINE
  5
B8
330
1F
100
AcDbEntity
  8
AXIS
 62
   250
100
AcDbSpline
210
0.0
220
0.0
230
1.0
 70
    24
 71
     3
 72
     8
 73
     4
 74
     0
 42
0.0000000001
 43
0.0000000001
 40
0.0
 40
0.0
 40
0.0
 40
0.0
 40
1.0
 40
1.0
 40
1.0
 40
1.0
 10
22.7793
 20
17.7478
 30
0.0
 10
22.7793
 20
17.7478
 30
0.0
 10
-5.7812
 20
17.7478
 30
0.0
 10
-5.7812
 20
17.7478
 30
0.0
  0
SPLINE
  5
B9
330
1F
100
AcDbEntity
  8
AXIS
 62
   250
100
AcDbSpline
210
0.0
220
0.0
230
1.0
 70
    24
 71
     3
 72
     8
 73
     4
 74
     0
 42
0.0000000001
 43
0.0000000001
 40
0.0
 40
0.0
 40
0.0
 40
0.0
 40
1.0
 40
1.0
 40
1.0
 40
1.0
 10
18.229
 20
19.6819
 30
0.0
 10
18.229
 20
19.6819
 30
0.0
 10
17.5228
 20
19.6819
 30
0.0
 10
17.5228
 20
19.6819
 30
0.0
  0
SPLINE
  5
BA
330
1F
100
AcDbEntity
  8
AXIS
 62
   250
100
AcDbSpline
210
0.0
220
0.0
230
1.0
 70
    24
 71
     3
 72
     8
 73
     4
 74
     0
 42
0.0000000001
 43
0.0000000001
 40
0.0
 40
0.0
 40
0.0
 40
0.0
 40
1.0
 40
1.0
 40
1.0
 40
1.0
 10
22.7132
 20
20.9967
 30
0.0
 10
22.7132
 20
20.9967
 30
0.0
 10
18.229
 20
20.9967
 30
0.0
 10
18.229
 20
20.9967
 30
0.0
  0
SPLINE
  5
BB
330
1F
100
AcDbEntity
  8
AXIS
 62
   250
100
AcDbSpline
210
0.0
220
0.0
230
1.0
 70
    24
 71
     3
 72
     8
 73
     4
 74
     0
 42
0.0000000001
 43
0.0000000001
 40
0.0
 40
0.0
 40
0.0
 40
0.0
 40
1.0
 40
1.0
 40
1.0
 40
1.0
 10
17.5228
 20
20.9967
 30
0.0
 10
17.5228
 20
20.9967
 30
0.0
 10
-5.7812
 20
20.9967
 30
0.0
 10
-5.7812
 20
20.9967
 30
0.0
  0
SPLINE
  5
BC
330
1F
100
AcDbEntity
  8
AXIS
 62
   250
100
AcDbSpline
210
0.0
220
0.0
230
1.0
 70
    24
 71
     3
 72
     8
 73
     4
 74
     0
 42
0.0000000001
 43
0.0000000001
 40
0.0
 40
0.0
 40
0.0
 40
0.0
 40
1.0
 40
1.0
 40
1.0
 40
1.0
 10
22.7793
 20
21.6159
 30
0.0
 10
22.7793
 20
21.6159
 30
0.0
 10
-5.7812
 20
21.6159
 30
0.0
 10
-5.7812
 20
21.6159
 30
0.0
  0
SPLINE
  5
BD
330
1F
100
AcDbEntity
  8
AXIS
 62
   250
100
AcDbSpline
210
0.0
220
0.0
230
1.0
 70
    24
 71
     3
 72
     8
 73
     4
 74
     0
 42
0.0000000001
 43
0.0000000001
 40
0.0
 40
0.0
 40
0.0
 40
0.0
 40
1.0
 40
1.0
 40
1.0
 40
1.0
 10
22.7793
 20
22.6312
 30
0.0
 10
22.7793
 20
22.6312
 30
0.0
 10
-5.7812
 20
22.6312
 30
0.0
 10
-5.7812
 20
22.6312
 30
0.0
  0
SPLINE
  5
BE
330
1F
100
AcDbEntity
  8
AXIS
 62
   250
100
AcDbSpline
210
0.0
220
0.0
230
1.0
 70
    24
 71
     3
 72
     8
 73
     4
 74
     0
 42
0.0000000001
 43
0.0000000001
 40
0.0
 40
0.0
 40
0.0
 40
0.0
 40
1.0
 40
1.0
 40
1.0
 40
1.0
 10
-5.7812
 20
25.1288
 30
0.0
 10
-5.7812
 20
25.1288
 30
0.0
 10
22.7793
 20
25.1288
 30
0.0
 10
22.7793
 20
25.1288
 30
0.0
  0
SPLINE
  5
BF
330
1F
100
AcDbEntity
  8
AXIS
 62
   250
100
AcDbSpline
210
0.0
220
0.0
230
1.0
 70
    24
 71
     3
 72
     8
 73
     4
 74
     0
 42
0.0000000001
 43
0.0000000001
 40
0.0
 40
0.0
 40
0.0
 40
0.0
 40
1.0
 40
1.0
 40
1.0
 40
1.0
 10
-11.4306
 20
27.3827
 30
0.0
 10
-11.4306
 20
27.3827
 30
0.0
 10
-11.4306
 20
-33.6041
 30
0.0
 10
-11.4306
 20
-33.6041
 30
0.0
  0
SPLINE
  5
C0
330
1F
100
AcDbEntity
  8
AXIS
 62
   250
100
AcDbSpline
210
0.0
220
0.0
230
1.0
 70
    24
 71
     3
 72
     8
 73
     4
 74
     0
 42
0.0000000001
 43
0.0000000001
 40
0.0
 40
0.0
 40
0.0
 40
0.0
 40
1.0
 40
1.0
 40
1.0
 40
1.0
 10
-9.4886
 20
27.3827
 30
0.0
 10
-9.4886
 20
27.3827
 30
0.0
 10
-9.4886
 20
-33.6041
 30
0.0
 10
-9.4886
 20
-33.6041
 30
0.0
  0
SPLINE
  5
C1
330
1F
100
AcDbEntity
  8
AXIS
 62
   250
100
AcDbSpline
210
0.0
220
0.0
230
1.0
 70
    24
 71
     3
 72
     8
 73
     4
 74
     0
 42
0.0000000001
 43
0.0000000001
 40
0.0
 40
0.0
 40
0.0
 40
0.0
 40
1.0
 40
1.0
 40
1.0
 40
1.0
 10
-7.8997
 20
-37.3605
 30
0.0
 10
-7.8997
 20
-37.3605
 30
0.0
 10
22.8784
 20
-37.3605
 30
0.0
 10
22.8784
 20
-37.3605
 30
0.0
  0
SPLINE
  5
C2
330
1F
100
AcDbEntity
  8
AXIS
 62
   250
100
AcDbSpline
210
0.0
220
0.0
230
1.0
 70
    24
 71
     3
 72
     8
 73
     4
 74
     0
 42
0.0000000001
 43
0.0000000001
 40
0.0
 40
0.0
 40
0.0
 40
0.0
 40
1.0
 40
1.0
 40
1.0
 40
1.0
 10
-7.8997
 20
-35.2945
 30
0.0
 10
-7.8997
 20
-35.2945
 30
0.0
 10
22.9446
 20
-35.2945
 30
0.0
 10
22.9446
 20
-35.2945
 30
0.0
  0
SPLINE
  5
C3
330
1F
100
AcDbEntity
  8
AXIS
 62
   250
100
AcDbSpline
210
0.0
220
0.0
230
1.0
 70
    24
 71
     3
 72
     8
 73
     4
 74
     0
 42
0.0000000001
 43
0.0000000001
 40
0.0
 40
0.0
 40
0.0
 40
0.0
 40
1.0
 40
1.0
 40
1.0
 40
1.0
 10
22.9116
 20
29.0731
 30
0.0
 10
22.9116
 20
29.0731
 30
0.0
 10
-7.8997
 20
29.0731
 30
0.0
 10
-7.8997
 20
29.0731
 30
0.0
  0
SPLINE
  5
C4
330
1F
100
AcDbEntity
  8
AXIS
 62
   250
100
AcDbSpline
210
0.0
220
0.0
230
1.0
 70
    24
 71
     3
 72
     8
 73
     4
 74
     0
 42
0.0000000001
 43
0.0000000001
 40
0.0
 40
0.0
 40
0.0
 40
0.0
 40
1.0
 40
1.0
 40
1.0
 40
1.0
 10
22.9116
 20
31.1391
 30
0.0
 10
22.9116
 20
31.1391
 30
0.0
 10
-7.8997
 20
31.1391
 30
0.0
 10
-7.8997
 20
31.1391
 30
0.0
  0
SPLINE
  5
C5
330
1F
100
AcDbEntity
  8
AXIS
 62
   250
100
AcDbSpline
210
0.0
220
0.0
230
1.0
 70
     8
 71
     3
 72
     8
 73
     4
 74
     0
 42
0.0000000001
 43
0.0000000001
 40
0.0
 40
0.0
 40
0.0
 40
0.0
 40
1.0
 40
1.0
 40
1.0
 40
1.0
 10
-11.4306
 20
-33.6041
 30
0.0
 10
-11.4306
 20
-35.6787
 30
0.0
 10
-9.8498
 20
-37.3605
 30
0.0
 10
-7.8997
 20
-37.3605
 30
0.0
  0
SPLINE
  5
C6
330
1F
100
AcDbEntity
  8
AXIS
 62
   250
100
AcDbSpline
210
0.0
220
0.0
230
1.0
 70
     8
 71
     3
 72
     8
 73
     4
 74
     0
 42
0.0000000001
 43
0.0000000001
 40
0.0
 40
0.0
 40
0.0
 40
0.0
 40
1.0
 40
1.0
 40
1.0
 40
1.0
 10
-7.8997
 20
31.1391
 30
0.0
 10
-9.8498
 20
31.1391
 30
0.0
 10
-11.4306
 20
29.4573
 30
0.0
 10
-11.4306
 20
27.3827
 30
0.0
  0
SPLINE
  5
C7
330
1F
100
AcDbEntity
  8
AXIS
 62
   250
100
AcDbSpline
210
0.0
220
0.0
230
1.0
 70
     8
 71
     3
 72
     8
 73
     4
 74
     0
 42
0.0000000001
 43
0.0000000001
 40
0.0
 40
0.0
 40
0.0
 40
0.0
 40
1.0
 40
1.0
 40
1.0
 40
1.0
 10
-7.8997
 20
29.0731
 30
0.0
 10
-8.7773
 20
29.0731
 30
0.0
 10
-9.4886
 20
28.3162
 30
0.0
 10
-9.4886
 20
27.3827
 30
0.0
  0
SPLINE
  5
C8
330
1F
100
AcDbEntity
  8
AXIS
 62
   250
100
AcDbSpline
210
0.0
220
0.0
230
1.0
 70
     8
 71
     3
 72
     8
 73
     4
 74
     0
 42
0.0000000001
 43
0.0000000001
 40
0.0
 40
0.0
 40
0.0
 40
0.0
 40
1.0
 40
1.0
 40
1.0
 40
1.0
 10
-9.4886
 20
-33.6041
 30
0.0
 10
-9.4886
 20
-34.5377
 30
0.0
 10
-8.7773
 20
-35.2945
 30
0.0
 10
-7.8997
 20
-35.2945
 30
0.0
  0
SPLINE
  5
C9
330
1F
100
AcDbEntity
  8
AXIS
 62
   250
100
AcDbSpline
210
0.0
220
0.0
230
1.0
 70
     8
 71
     3
 72
     8
 73
     4
 74
     0
 42
0.0000000001
 43
0.0000000001
 40
0.0
 40
0.0
 40
0.0
 40
0.0
 40
1.0
 40
1.0
 40
1.0
 40
1.0
 10
-48.658
 20
-35.3871
 30
0.0
 10
-48.658
 20
-36.5301
 30
0.0
 10
-47.7878
 20
-37.4567
 30
0.0
 10
-46.7142
 20
-37.4567
 30
0.0
  0
SPLINE
  5
CA
330
1F
100
AcDbEntity
  8
AXIS
 62
   250
100
AcDbSpline
210
0.0
220
0.0
230
1.0
 70
     8
 71
     3
 72
     8
 73
     4
 74
     0
 42
0.0000000001
 43
0.0000000001
 40
0.0
 40
0.0
 40
0.0
 40
0.0
 40
1.0
 40
1.0
 40
1.0
 40
1.0
 10
-46.7142
 20
31.1618
 30
0.0
 10
-47.7878
 20
31.1618
 30
0.0
 10
-48.658
 20
30.2352
 30
0.0
 10
-48.658
 20
29.0921
 30
0.0
  0
SPLINE
  5
CB
330
1F
100
AcDbEntity
  8
AXIS
 62
   250
100
AcDbSpline
210
0.0
220
0.0
230
1.0
 70
    11
 71
     3
 72
    20
 73
    16
 74
     0
 42
0.0000000001
 43
0.0000000001
 40
0.0
 40
0.0
 40
0.0
 40
0.0
 40
0.2
 40
0.2
 40
0.2
 40
0.2
 40
0.4
 40
0.4
 40
0.4
 40
0.4
 40
0.6
 40
0.6
 40
0.6
 40
0.6
 40
1.0
 40
1.0
 40
1.0
 40
1.0
 10
-42.9061
 20
25.8931
 30
0.0
 10
-42.9061
 20
25.8931
 30
0.0
 10
-42.202
 20
25.8931
 30
0.0
 10
-42.202
 20
25.8931
 30
0.0
 10
-42.202
 20
25.8931
 30
0.0
 10
-42.202
 20
25.8931
 30
0.0
 10
-42.202
 20
-32.2194
 30
0.0
 10
-42.202
 20
-32.2194
 30
0.0
 10
-42.202
 20
-32.2194
 30
0.0
 10
-42.202
 20
-32.2194
 30
0.0
 10
-42.9061
 20
-32.2194
 30
0.0
 10
-42.9061
 20
-32.2194
 30
0.0
 10
-42.9061
 20
-32.2194
 30
0.0
 10
-42.9061
 20
-32.2194
 30
0.0
 10
-42.9061
 20
25.8931
 30
0.0
 10
-42.9061
 20
25.8931
 30
0.0
  0
SPLINE
  5
CC
330
1F
100
AcDbEntity
  8
AXIS
 62
   250
100
AcDbSpline
210
0.0
220
0.0
230
1.0
 70
    11
 71
     3
 72
    20
 73
    16
 74
     0
 42
0.0000000001
 43
0.0000000001
 40
0.0
 40
0.0
 40
0.0
 40
0.0
 40
0.2
 40
0.2
 40
0.2
 40
0.2
 40
0.4
 40
0.4
 40
0.4
 40
0.4
 40
0.6
 40
0.6
 40
0.6
 40
0.6
 40
1.0
 40
1.0
 40
1.0
 40
1.0
 10
-41.9957
 20
25.2443
 30
0.0
 10
-41.9957
 20
25.2443
 30
0.0
 10
-41.1021
 20
25.2443
 30
0.0
 10
-41.1021
 20
25.2443
 30
0.0
 10
-41.1021
 20
25.2443
 30
0.0
 10
-41.1021
 20
25.2443
 30
0.0
 10
-41.1021
 20
24.7567
 30
0.0
 10
-41.1021
 20
24.7567
 30
0.0
 10
-41.1021
 20
24.7567
 30
0.0
 10
-41.1021
 20
24.7567
 30
0.0
 10
-41.9957
 20
24.7567
 30
0.0
 10
-41.9957
 20
24.7567
 30
0.0
 10
-41.9957
 20
24.7567
 30
0.0
 10
-41.9957
 20
24.7567
 30
0.0
 10
-41.9957
 20
25.2443
 30
0.0
 10
-41.9957
 20
25.2443
 30
0.0
  0
SPLINE
  5
CD
330
1F
100
AcDbEntity
  8
AXIS
 62
   250
100
AcDbSpline
210
0.0
220
0.0
230
1.0
 70
    11
 71
     3
 72
    20
 73
    16
 74
     0
 42
0.0000000001
 43
0.0000000001
 40
0.0
 40
0.0
 40
0.0
 40
0.0
 40
0.2
 40
0.2
 40
0.2
 40
0.2
 40
0.4
 40
0.4
 40
0.4
 40
0.4
 40
0.6
 40
0.6
 40
0.6
 40
0.6
 40
1.0
 40
1.0
 40
1.0
 40
1.0
 10
-42.0759
 20
20.8901
 30
0.0
 10
-42.0759
 20
20.8901
 30
0.0
 10
-38.5828
 20
20.8901
 30
0.0
 10
-38.5828
 20
20.8901
 30
0.0
 10
-38.5828
 20
20.8901
 30
0.0
 10
-38.5828
 20
20.8901
 30
0.0
 10
-38.5828
 20
19.1094
 30
0.0
 10
-38.5828
 20
19.1094
 30
0.0
 10
-38.5828
 20
19.1094
 30
0.0
 10
-38.5828
 20
19.1094
 30
0.0
 10
-42.0759
 20
19.1094
 30
0.0
 10
-42.0759
 20
19.1094
 30
0.0
 10
-42.0759
 20
19.1094
 30
0.0
 10
-42.0759
 20
19.1094
 30
0.0
 10
-42.0759
 20
20.8901
 30
0.0
 10
-42.0759
 20
20.8901
 30
0.0
  0
SPLINE
  5
CE
330
1F
100
AcDbEntity
  8
AXIS
 62
   250
100
AcDbSpline
210
0.0
220
0.0
230
1.0
 70
    11
 71
     3
 72
    20
 73
    16
 74
     0
 42
0.0000000001
 43
0.0000000001
 40
0.0
 40
0.0
 40
0.0
 40
0.0
 40
0.2
 40
0.2
 40
0.2
 40
0.2
 40
0.4
 40
0.4
 40
0.4
 40
0.4
 40
0.6
 40
0.6
 40
0.6
 40
0.6
 40
1.0
 40
1.0
 40
1.0
 40
1.0
 10
-42.0359
 20
-31.1442
 30
0.0
 10
-42.0359
 20
-31.1442
 30
0.0
 10
-41.1423
 20
-31.1442
 30
0.0
 10
-41.1423
 20
-31.1442
 30
0.0
 10
-41.1423
 20
-31.1442
 30
0.0
 10
-41.1423
 20
-31.1442
 30
0.0
 10
-41.1423
 20
-31.6318
 30
0.0
 10
-41.1423
 20
-31.6318
 30
0.0
 10
-41.1423
 20
-31.6318
 30
0.0
 10
-41.1423
 20
-31.6318
 30
0.0
 10
-42.0359
 20
-31.6318
 30
0.0
 10
-42.0359
 20
-31.6318
 30
0.0
 10
-42.0359
 20
-31.6318
 30
0.0
 10
-42.0359
 20
-31.6318
 30
0.0
 10
-42.0359
 20
-31.1442
 30
0.0
 10
-42.0359
 20
-31.1442
 30
0.0
  0
SPLINE
  5
CF
330
1F
100
AcDbEntity
  8
AXIS
 62
   250
100
AcDbSpline
210
0.0
220
0.0
230
1.0
 70
    11
 71
     3
 72
    20
 73
    16
 74
     0
 42
0.0000000001
 43
0.0000000001
 40
0.0
 40
0.0
 40
0.0
 40
0.0
 40
0.2
 40
0.2
 40
0.2
 40
0.2
 40
0.4
 40
0.4
 40
0.4
 40
0.4
 40
0.6
 40
0.6
 40
0.6
 40
0.6
 40
1.0
 40
1.0
 40
1.0
 40
1.0
 10
-41.9957
 20
-2.9037
 30
0.0
 10
-41.9957
 20
-2.9037
 30
0.0
 10
-41.1021
 20
-2.9037
 30
0.0
 10
-41.1021
 20
-2.9037
 30
0.0
 10
-41.1021
 20
-2.9037
 30
0.0
 10
-41.1021
 20
-2.9037
 30
0.0
 10
-41.1021
 20
-3.3913
 30
0.0
 10
-41.1021
 20
-3.3913
 30
0.0
 10
-41.1021
 20
-3.3913
 30
0.0
 10
-41.1021
 20
-3.3913
 30
0.0
 10
-41.9957
 20
-3.3913
 30
0.0
 10
-41.9957
 20
-3.3913
 30
0.0
 10
-41.9957
 20
-3.3913
 30
0.0
 10
-41.9957
 20
-3.3913
 30
0.0
 10
-41.9957
 20
-2.9037
 30
0.0
 10
-41.9957
 20
-2.9037
 30
0.0
  0
SPLINE
  5
D0
330
1F
100
AcDbEntity
  8
AXIS
 62
   250
100
AcDbSpline
210
0.0
220
0.0
230
1.0
 70
    11
 71
     3
 72
    20
 73
    16
 74
     0
 42
0.0000000001
 43
0.0000000001
 40
0.0
 40
0.0
 40
0.0
 40
0.0
 40
0.2
 40
0.2
 40
0.2
 40
0.2
 40
0.4
 40
0.4
 40
0.4
 40
0.4
 40
0.6
 40
0.6
 40
0.6
 40
0.6
 40
1.0
 40
1.0
 40
1.0
 40
1.0
 10
-42.1773
 20
-25.4508
 30
0.0
 10
-42.1773
 20
-25.4508
 30
0.0
 10
-38.6842
 20
-25.4508
 30
0.0
 10
-38.6842
 20
-25.4508
 30
0.0
 10
-38.6842
 20
-25.4508
 30
0.0
 10
-38.6842
 20
-25.4508
 30
0.0
 10
-38.6842
 20
-27.2315
 30
0.0
 10
-38.6842
 20
-27.2315
 30
0.0
 10
-38.6842
 20
-27.2315
 30
0.0
 10
-38.6842
 20
-27.2315
 30
0.0
 10
-42.1773
 20
-27.2315
 30
0.0
 10
-42.1773
 20
-27.2315
 30
0.0
 10
-42.1773
 20
-27.2315
 30
0.0
 10
-42.1773
 20
-27.2315
 30
0.0
 10
-42.1773
 20
-25.4508
 30
0.0
 10
-42.1773
 20
-25.4508
 30
0.0
  0
SPLINE
  5
D1
330
1F
100
AcDbEntity
  8
AXIS
  6
NEW_LINE2
 62
   250
100
AcDbSpline
210
0.0
220
0.0
230
1.0
 70
     8
 71
     3
 72
    16
 73
    12
 74
     0
 42
0.0000000001
 43
0.0000000001
 40
0.0
 40
0.0
 40
0.0
 40
0.0
 40
0.25
 40
0.25
 40
0.25
 40
0.25
 40
0.5
 40
0.5
 40
0.5
 40
0.5
 40
1.0
 40
1.0
 40
1.0
 40
1.0
 10
-32.015
 20
21.8839
 30
0.0
 10
-32.015
 20
21.8839
 30
0.0
 10
-32.5843
 20
22.269
 30
0.0
 10
-32.5843
 20
22.269
 30
0.0
 10
-32.5843
 20
22.269
 30
0.0
 10
-32.5843
 20
22.269
 30
0.0
 10
-34.2342
 20
22.7174
 30
0.0
 10
-34.2342
 20
22.7174
 30
0.0
 10
-34.2342
 20
22.7174
 30
0.0
 10
-34.2342
 20
22.7174
 30
0.0
 10
-39.6004
 20
24.0226
 30
0.0
 10
-39.6004
 20
24.0226
 30
0.0
  0
SPLINE
  5
D3
330
1F
100
AcDbEntity
  8
AXIS
 62
   250
100
AcDbSpline
210
0.0
220
0.0
230
1.0
 70
    24
 71
     3
 72
     8
 73
     4
 74
     0
 42
0.0000000001
 43
0.0000000001
 40
0.0
 40
0.0
 40
0.0
 40
0.0
 40
1.0
 40
1.0
 40
1.0
 40
1.0
 10
-16.3067
 20
30.8423
 30
0.0
 10
-16.3067
 20
30.8423
 30
0.0
 10
-16.3067
 20
-36.6298
 30
0.0
 10
-16.3067
 20
-36.6298
 30
0.0
  0
SPLINE
  5
D4
330
1F
100
AcDbEntity
  8
AXIS
 62
   250
100
AcDbSpline
210
0.0
220
0.0
230
1.0
 70
    11
 71
     3
 72
    20
 73
    16
 74
     0
 42
0.0000000001
 43
0.0000000001
 40
0.0
 40
0.0
 40
0.0
 40
0.0
 40
0.2
 40
0.2
 40
0.2
 40
0.2
 40
0.4
 40
0.4
 40
0.4
 40
0.4
 40
0.6
 40
0.6
 40
0.6
 40
0.6
 40
1.0
 40
1.0
 40
1.0
 40
1.0
 10
-16.7757
 20
28.0563
 30
0.0
 10
-16.7757
 20
28.0563
 30
0.0
 10
-16.3523
 20
31.0561
 30
0.0
 10
-16.3523
 20
31.0561
 30
0.0
 10
-16.3523
 20
31.0561
 30
0.0
 10
-16.3523
 20
31.0561
 30
0.0
 10
-16.2583
 20
31.0561
 30
0.0
 10
-16.2583
 20
31.0561
 30
0.0
 10
-16.2583
 20
31.0561
 30
0.0
 10
-16.2583
 20
31.0561
 30
0.0
 10
-15.8068
 20
28.0563
 30
0.0
 10
-15.8068
 20
28.0563
 30
0.0
 10
-15.8068
 20
28.0563
 30
0.0
 10
-15.8068
 20
28.0563
 30
0.0
 10
-16.7757
 20
28.0563
 30
0.0
 10
-16.7757
 20
28.0563
 30
0.0
  0
SPLINE
  5
D5
330
1F
100
AcDbEntity
  8
AXIS
 62
   250
100
AcDbSpline
210
0.0
220
0.0
230
1.0
 70
    11
 71
     3
 72
    20
 73
    16
 74
     0
 42
0.0000000001
 43
0.0000000001
 40
0.0
 40
0.0
 40
0.0
 40
0.0
 40
0.2
 40
0.2
 40
0.2
 40
0.2
 40
0.4
 40
0.4
 40
0.4
 40
0.4
 40
0.6
 40
0.6
 40
0.6
 40
0.6
 40
1.0
 40
1.0
 40
1.0
 40
1.0
 10
-15.8444
 20
-34.4279
 30
0.0
 10
-15.8444
 20
-34.4279
 30
0.0
 10
-16.2678
 20
-37.4279
 30
0.0
 10
-16.2678
 20
-37.4279
 30
0.0
 10
-16.2678
 20
-37.4279
 30
0.0
 10
-16.2678
 20
-37.4279
 30
0.0
 10
-16.3619
 20
-37.4279
 30
0.0
 10
-16.3619
 20
-37.4279
 30
0.0
 10
-16.3619
 20
-37.4279
 30
0.0
 10
-16.3619
 20
-37.4279
 30
0.0
 10
-16.8134
 20
-34.4279
 30
0.0
 10
-16.8134
 20
-34.4279
 30
0.0
 10
-16.8134
 20
-34.4279
 30
0.0
 10
-16.8134
 20
-34.4279
 30
0.0
 10
-15.8444
 20
-34.4279
 30
0.0
 10
-15.8444
 20
-34.4279
 30
0.0
  0
SPLINE
  5
D6
330
1F
100
AcDbEntity
  8
AXIS
 62
   250
100
AcDbSpline
210
0.0
220
0.0
230
1.0
 70
    11
 71
     3
 72
    92
 73
    88
 74
     0
 42
0.0000000001
 43
0.0000000001
 40
0.0
 40
0.0
 40
0.0
 40
0.0
 40
0.0434782608695652
 40
0.0434782608695652
 40
0.0434782608695652
 40
0.0434782608695652
 40
0.0869565217391304
 40
0.0869565217391304
 40
0.0869565217391304
 40
0.0869565217391304
 40
0.1304347826086956
 40
0.1304347826086956
 40
0.1304347826086956
 40
0.1304347826086956
 40
0.1739130434782609
 40
0.1739130434782609
 40
0.1739130434782609
 40
0.1739130434782609
 40
0.2173913043478261
 40
0.2173913043478261
 40
0.2173913043478261
 40
0.2173913043478261
 40
0.2608695652173913
 40
0.2608695652173913
 40
0.2608695652173913
 40
0.2608695652173913
 40
0.3043478260869565
 40
0.3043478260869565
 40
0.3043478260869565
 40
0.3043478260869565
 40
0.3478260869565217
 40
0.3478260869565217
 40
0.3478260869565217
 40
0.3478260869565217
 40
0.391304347826087
 40
0.391304347826087
 40
0.391304347826087
 40
0.391304347826087
 40
0.4347826086956522
 40
0.4347826086956522
 40
0.4347826086956522
 40
0.4347826086956522
 40
0.4782608695652174
 40
0.4782608695652174
 40
0.4782608695652174
 40
0.4782608695652174
 40
0.5217391304347826
 40
0.5217391304347826
 40
0.5217391304347826
 40
0.5217391304347826
 40
0.5652173913043478
 40
0.5652173913043478
 40
0.5652173913043478
 40
0.5652173913043478
 40
0.6086956521739131
 40
0.6086956521739131
 40
0.6086956521739131
 40
0.6086956521739131
 40
0.6521739130434783
 40
0.6521739130434783
 40
0.6521739130434783
 40
0.6521739130434783
 40
0.6956521739130435
 40
0.6956521739130435
 40
0.6956521739130435
 40
0.6956521739130435
 40
0.7391304347826086
 40
0.7391304347826086
 40
0.7391304347826086
 40
0.7391304347826086
 40
0.782608695652174
 40
0.782608695652174
 40
0.782608695652174
 40
0.782608695652174
 40
0.8260869565217391
 40
0.8260869565217391
 40
0.8260869565217391
 40
0.8260869565217391
 40
0.8695652173913043
 40
0.8695652173913043
 40
0.8695652173913043
 40
0.8695652173913043
 40
0.9130434782608695
 40
0.9130434782608695
 40
0.9130434782608695
 40
0.9130434782608695
 40
1.0
 40
1.0
 40
1.0
 40
1.0
 10
-17.2906
 20
-6.5052
 30
0.0
 10
-17.2906
 20
-6.5052
 30
0.0
 10
-17.0521
 20
-6.5052
 30
0.0
 10
-17.0521
 20
-6.5052
 30
0.0
 10
-17.0521
 20
-6.5052
 30
0.0
 10
-17.0521
 20
-6.5052
 30
0.0
 10
-17.0521
 20
-7.8406
 30
0.0
 10
-17.0521
 20
-7.8406
 30
0.0
 10
-17.0521
 20
-7.8406
 30
0.0
 10
-17.1118
 20
-7.8425
 30
0.0
 10
-17.1692
 20
-7.8331
 30
0.0
 10
-17.2243
 20
-7.8119
 30
0.0
 10
-17.2243
 20
-7.8119
 30
0.0
 10
-17.3155
 20
-7.778
 30
0.0
 10
-17.4049
 20
-7.7235
 30
0.0
 10
-17.4933
 20
-7.6487
 30
0.0
 10
-17.4933
 20
-7.6487
 30
0.0
 10
-17.5813
 20
-7.5734
 30
0.0
 10
-17.6833
 20
-7.4652
 30
0.0
 10
-17.799
 20
-7.3241
 30
0.0
 10
-17.799
 20
-7.3241
 30
0.0
 10
-17.9792
 20
-7.1045
 30
0.0
 10
-18.1217
 20
-6.9558
 30
0.0
 10
-18.2271
 20
-6.8787
 30
0.0
 10
-18.2271
 20
-6.8787
 30
0.0
 10
-18.332
 20
-6.8016
 30
0.0
 10
-18.4317
 20
-6.763
 30
0.0
 10
-18.5253
 20
-6.763
 30
0.0
 10
-18.5253
 20
-6.763
 30
0.0
 10
-18.6236
 20
-6.763
 30
0.0
 10
-18.7064
 20
-6.7983
 30
0.0
 10
-18.7741
 20
-6.8683
 30
0.0
 10
-18.7741
 20
-6.8683
 30
0.0
 10
-18.8414
 20
-6.9389
 30
0.0
 10
-18.8752
 20
-7.0306
 30
0.0
 10
-18.8752
 20
-7.1435
 30
0.0
 10
-18.8752
 20
-7.1435
 30
0.0
 10
-18.8752
 20
-7.263
 30
0.0
 10
-18.8395
 20
-7.3585
 30
0.0
 10
-18.7675
 20
-7.43
 30
0.0
 10
-18.7675
 20
-7.43
 30
0.0
 10
-18.696
 20
-7.5019
 30
0.0
 10
-18.5968
 20
-7.5381
 30
0.0
 10
-18.4703
 20
-7.5391
 30
0.0
 10
-18.4703
 20
-7.5391
 30
0.0
 10
-18.4703
 20
-7.5391
 30
0.0
 10
-18.4961
 20
-7.794
 30
0.0
 10
-18.4961
 20
-7.794
 30
0.0
 10
-18.4961
 20
-7.794
 30
0.0
 10
-18.6866
 20
-7.7766
 30
0.0
 10
-18.8315
 20
-7.7108
 30
0.0
 10
-18.9312
 20
-7.5969
 30
0.0
 10
-18.9312
 20
-7.5969
 30
0.0
 10
-19.0309
 20
-7.4831
 30
0.0
 10
-19.0808
 20
-7.3298
 30
0.0
 10
-19.0808
 20
-7.1379
 30
0.0
 10
-19.0808
 20
-7.1379
 30
0.0
 10
-19.0808
 20
-6.9441
 30
0.0
 10
-19.0267
 20
-6.7907
 30
0.0
 10
-18.9195
 20
-6.6778
 30
0.0
 10
-18.9195
 20
-6.6778
 30
0.0
 10
-18.8117
 20
-6.5645
 30
0.0
 10
-18.6786
 20
-6.508
 30
0.0
 10
-18.5196
 20
-6.508
 30
0.0
 10
-18.5196
 20
-6.508
 30
0.0
 10
-18.4387
 20
-6.508
 30
0.0
 10
-18.3592
 20
-6.5245
 30
0.0
 10
-18.2812
 20
-6.5579
 30
0.0
 10
-18.2812
 20
-6.5579
 30
0.0
 10
-18.2031
 20
-6.5908
 30
0.0
 10
-18.1208
 20
-6.6459
 30
0.0
 10
-18.0347
 20
-6.7225
 30
0.0
 10
-18.0347
 20
-6.7225
 30
0.0
 10
-17.9481
 20
-6.7992
 30
0.0
 10
-17.8296
 20
-6.9267
 30
0.0
 10
-17.6791
 20
-7.1049
 30
0.0
 10
-17.6791
 20
-7.1049
 30
0.0
 10
-17.554
 20
-7.2536
 30
0.0
 10
-17.4693
 20
-7.3491
 30
0.0
 10
-17.4246
 20
-7.3914
 30
0.0
 10
-17.4246
 20
-7.3914
 30
0.0
 10
-17.3804
 20
-7.4337
 30
0.0
 10
-17.3357
 20
-7.4685
 30
0.0
 10
-17.2906
 20
-7.4963
 30
0.0
 10
-17.2906
 20
-7.4963
 30
0.0
 10
-17.2906
 20
-7.4963
 30
0.0
 10
-17.2906
 20
-6.5052
 30
0.0
 10
-17.2906
 20
-6.5052
 30
0.0
  0
SPLINE
  5
D7
330
1F
100
AcDbEntity
  8
AXIS
 62
   250
100
AcDbSpline
210
0.0
220
0.0
230
1.0
 70
    11
 71
     3
 72
    52
 73
    48
 74
     0
 42
0.0000000001
 43
0.0000000001
 40
0.0
 40
0.0
 40
0.0
 40
0.0
 40
0.0769230769230769
 40
0.0769230769230769
 40
0.0769230769230769
 40
0.0769230769230769
 40
0.1538461538461539
 40
0.1538461538461539
 40
0.1538461538461539
 40
0.1538461538461539
 40
0.2307692307692308
 40
0.2307692307692308
 40
0.2307692307692308
 40
0.2307692307692308
 40
0.3076923076923077
 40
0.3076923076923077
 40
0.3076923076923077
 40
0.3076923076923077
 40
0.3846153846153846
 40
0.3846153846153846
 40
0.3846153846153846
 40
0.3846153846153846
 40
0.4615384615384616
 40
0.4615384615384616
 40
0.4615384615384616
 40
0.4615384615384616
 40
0.5384615384615384
 40
0.5384615384615384
 40
0.5384615384615384
 40
0.5384615384615384
 40
0.6153846153846154
 40
0.6153846153846154
 40
0.6153846153846154
 40
0.6153846153846154
 40
0.6923076923076923
 40
0.6923076923076923
 40
0.6923076923076923
 40
0.6923076923076923
 40
0.7692307692307693
 40
0.7692307692307693
 40
0.7692307692307693
 40
0.7692307692307693
 40
0.8461538461538461
 40
0.8461538461538461
 40
0.8461538461538461
 40
0.8461538461538461
 40
1.0
 40
1.0
 40
1.0
 40
1.0
 10
-18.0483
 20
-6.2395
 30
0.0
 10
-18.2873
 20
-6.2395
 30
0.0
 10
-18.4797
 20
-6.215
 30
0.0
 10
-18.625
 20
-6.1656
 30
0.0
 10
-18.625
 20
-6.1656
 30
0.0
 10
-18.7708
 20
-6.1167
 30
0.0
 10
-18.8832
 20
-6.0433
 30
0.0
 10
-18.9623
 20
-5.9464
 30
0.0
 10
-18.9623
 20
-5.9464
 30
0.0
 10
-19.0413
 20
-5.8495
 30
0.0
 10
-19.0808
 20
-5.7277
 30
0.0
 10
-19.0808
 20
-5.581
 30
0.0
 10
-19.0808
 20
-5.581
 30
0.0
 10
-19.0808
 20
-5.4723
 30
0.0
 10
-19.0587
 20
-5.3773
 30
0.0
 10
-19.0149
 20
-5.2955
 30
0.0
 10
-19.0149
 20
-5.2955
 30
0.0
 10
-18.9717
 20
-5.2136
 30
0.0
 10
-18.9086
 20
-5.1463
 30
0.0
 10
-18.8263
 20
-5.0927
 30
0.0
 10
-18.8263
 20
-5.0927
 30
0.0
 10
-18.744
 20
-5.0396
 30
0.0
 10
-18.6438
 20
-4.9977
 30
0.0
 10
-18.5258
 20
-4.9676
 30
0.0
 10
-18.5258
 20
-4.9676
 30
0.0
 10
-18.4077
 20
-4.937
 30
0.0
 10
-18.2487
 20
-4.922
 30
0.0
 10
-18.0483
 20
-4.922
 30
0.0
 10
-18.0483
 20
-4.922
 30
0.0
 10
-17.8113
 20
-4.922
 30
0.0
 10
-17.6203
 20
-4.9464
 30
0.0
 10
-17.4745
 20
-4.9949
 30
0.0
 10
-17.4745
 20
-4.9949
 30
0.0
 10
-17.3287
 20
-5.0438
 30
0.0
 10
-17.2163
 20
-5.1167
 30
0.0
 10
-17.1368
 20
-5.2136
 30
0.0
 10
-17.1368
 20
-5.2136
 30
0.0
 10
-17.0573
 20
-5.3105
 30
0.0
 10
-17.0178
 20
-5.4328
 30
0.0
 10
-17.0178
 20
-5.581
 30
0.0
 10
-17.0178
 20
-5.581
 30
0.0
 10
-17.0178
 20
-5.7757
 30
0.0
 10
-17.0874
 20
-5.9286
 30
0.0
 10
-17.2271
 20
-6.0396
 30
0.0
 10
-17.2271
 20
-6.0396
 30
0.0
 10
-17.395
 20
-6.1727
 30
0.0
 10
-17.6692
 20
-6.2395
 30
0.0
 10
-18.0483
 20
-6.2395
 30
0.0
  0
SPLINE
  5
D8
330
1F
100
AcDbEntity
  8
AXIS
 62
   250
100
AcDbSpline
210
0.0
220
0.0
230
1.0
 70
    11
 71
     3
 72
    36
 73
    32
 74
     0
 42
0.0000000001
 43
0.0000000001
 40
0.0
 40
0.0
 40
0.0
 40
0.0
 40
0.1111111111111111
 40
0.1111111111111111
 40
0.1111111111111111
 40
0.1111111111111111
 40
0.2222222222222222
 40
0.2222222222222222
 40
0.2222222222222222
 40
0.2222222222222222
 40
0.3333333333333333
 40
0.3333333333333333
 40
0.3333333333333333
 40
0.3333333333333333
 40
0.4444444444444444
 40
0.4444444444444444
 40
0.4444444444444444
 40
0.4444444444444444
 40
0.5555555555555556
 40
0.5555555555555556
 40
0.5555555555555556
 40
0.5555555555555556
 40
0.6666666666666666
 40
0.6666666666666666
 40
0.6666666666666666
 40
0.6666666666666666
 40
0.7777777777777778
 40
0.7777777777777778
 40
0.7777777777777778
 40
0.7777777777777778
 40
1.0
 40
1.0
 40
1.0
 40
1.0
 10
-18.0483
 20
-5.9845
 30
0.0
 10
-17.7167
 20
-5.9845
 30
0.0
 10
-17.4961
 20
-5.9455
 30
0.0
 10
-17.3861
 20
-5.8679
 30
0.0
 10
-17.3861
 20
-5.8679
 30
0.0
 10
-17.2765
 20
-5.7903
 30
0.0
 10
-17.2214
 20
-5.6948
 30
0.0
 10
-17.2214
 20
-5.581
 30
0.0
 10
-17.2214
 20
-5.581
 30
0.0
 10
-17.2214
 20
-5.4667
 30
0.0
 10
-17.2769
 20
-5.3712
 30
0.0
 10
-17.387
 20
-5.2936
 30
0.0
 10
-17.387
 20
-5.2936
 30
0.0
 10
-17.4971
 20
-5.216
 30
0.0
 10
-17.7177
 20
-5.1769
 30
0.0
 10
-18.0483
 20
-5.1769
 30
0.0
 10
-18.0483
 20
-5.1769
 30
0.0
 10
-18.3809
 20
-5.1769
 30
0.0
 10
-18.602
 20
-5.216
 30
0.0
 10
-18.7111
 20
-5.2936
 30
0.0
 10
-18.7111
 20
-5.2936
 30
0.0
 10
-18.8207
 20
-5.3712
 30
0.0
 10
-18.8752
 20
-5.4676
 30
0.0
 10
-18.8752
 20
-5.5833
 30
0.0
 10
-18.8752
 20
-5.5833
 30
0.0
 10
-18.8752
 20
-5.6976
 30
0.0
 10
-18.8268
 20
-5.7884
 30
0.0
 10
-18.7304
 20
-5.8566
 30
0.0
 10
-18.7304
 20
-5.8566
 30
0.0
 10
-18.6076
 20
-5.9417
 30
0.0
 10
-18.3799
 20
-5.9845
 30
0.0
 10
-18.0483
 20
-5.9845
 30
0.0
  0
SPLINE
  5
D9
330
1F
100
AcDbEntity
  8
AXIS
 62
   250
100
AcDbSpline
210
0.0
220
0.0
230
1.0
 70
    11
 71
     3
 72
    52
 73
    48
 74
     0
 42
0.0000000001
 43
0.0000000001
 40
0.0
 40
0.0
 40
0.0
 40
0.0
 40
0.0769230769230769
 40
0.0769230769230769
 40
0.0769230769230769
 40
0.0769230769230769
 40
0.1538461538461539
 40
0.1538461538461539
 40
0.1538461538461539
 40
0.1538461538461539
 40
0.2307692307692308
 40
0.2307692307692308
 40
0.2307692307692308
 40
0.2307692307692308
 40
0.3076923076923077
 40
0.3076923076923077
 40
0.3076923076923077
 40
0.3076923076923077
 40
0.3846153846153846
 40
0.3846153846153846
 40
0.3846153846153846
 40
0.3846153846153846
 40
0.4615384615384616
 40
0.4615384615384616
 40
0.4615384615384616
 40
0.4615384615384616
 40
0.5384615384615384
 40
0.5384615384615384
 40
0.5384615384615384
 40
0.5384615384615384
 40
0.6153846153846154
 40
0.6153846153846154
 40
0.6153846153846154
 40
0.6153846153846154
 40
0.6923076923076923
 40
0.6923076923076923
 40
0.6923076923076923
 40
0.6923076923076923
 40
0.7692307692307693
 40
0.7692307692307693
 40
0.7692307692307693
 40
0.7692307692307693
 40
0.8461538461538461
 40
0.8461538461538461
 40
0.8461538461538461
 40
0.8461538461538461
 40
1.0
 40
1.0
 40
1.0
 40
1.0
 10
-18.0483
 20
-4.6699
 30
0.0
 10
-18.2873
 20
-4.6699
 30
0.0
 10
-18.4797
 20
-4.6454
 30
0.0
 10
-18.625
 20
-4.596
 30
0.0
 10
-18.625
 20
-4.596
 30
0.0
 10
-18.7708
 20
-4.5471
 30
0.0
 10
-18.8832
 20
-4.4737
 30
0.0
 10
-18.9623
 20
-4.3768
 30
0.0
 10
-18.9623
 20
-4.3768
 30
0.0
 10
-19.0413
 20
-4.2799
 30
0.0
 10
-19.0808
 20
-4.1581
 30
0.0
 10
-19.0808
 20
-4.0114
 30
0.0
 10
-19.0808
 20
-4.0114
 30
0.0
 10
-19.0808
 20
-3.9027
 30
0.0
 10
-19.0587
 20
-3.8077
 30
0.0
 10
-19.0149
 20
-3.7259
 30
0.0
 10
-19.0149
 20
-3.7259
 30
0.0
 10
-18.9717
 20
-3.644
 30
0.0
 10
-18.9086
 20
-3.5767
 30
0.0
 10
-18.8263
 20
-3.5231
 30
0.0
 10
-18.8263
 20
-3.5231
 30
0.0
 10
-18.744
 20
-3.47
 30
0.0
 10
-18.6438
 20
-3.4281
 30
0.0
 10
-18.5258
 20
-3.398
 30
0.0
 10
-18.5258
 20
-3.398
 30
0.0
 10
-18.4077
 20
-3.3674
 30
0.0
 10
-18.2487
 20
-3.3524
 30
0.0
 10
-18.0483
 20
-3.3524
 30
0.0
 10
-18.0483
 20
-3.3524
 30
0.0
 10
-17.8113
 20
-3.3524
 30
0.0
 10
-17.6203
 20
-3.3768
 30
0.0
 10
-17.4745
 20
-3.4253
 30
0.0
 10
-17.4745
 20
-3.4253
 30
0.0
 10
-17.3287
 20
-3.4742
 30
0.0
 10
-17.2163
 20
-3.5471
 30
0.0
 10
-17.1368
 20
-3.644
 30
0.0
 10
-17.1368
 20
-3.644
 30
0.0
 10
-17.0573
 20
-3.7409
 30
0.0
 10
-17.0178
 20
-3.8632
 30
0.0
 10
-17.0178
 20
-4.0114
 30
0.0
 10
-17.0178
 20
-4.0114
 30
0.0
 10
-17.0178
 20
-4.2061
 30
0.0
 10
-17.0874
 20
-4.359
 30
0.0
 10
-17.2271
 20
-4.47
 30
0.0
 10
-17.2271
 20
-4.47
 30
0.0
 10
-17.395
 20
-4.6031
 30
0.0
 10
-17.6692
 20
-4.6699
 30
0.0
 10
-18.0483
 20
-4.6699
 30
0.0
  0
SPLINE
  5
DA
330
1F
100
AcDbEntity
  8
AXIS
 62
   250
100
AcDbSpline
210
0.0
220
0.0
230
1.0
 70
    11
 71
     3
 72
    36
 73
    32
 74
     0
 42
0.0000000001
 43
0.0000000001
 40
0.0
 40
0.0
 40
0.0
 40
0.0
 40
0.1111111111111111
 40
0.1111111111111111
 40
0.1111111111111111
 40
0.1111111111111111
 40
0.2222222222222222
 40
0.2222222222222222
 40
0.2222222222222222
 40
0.2222222222222222
 40
0.3333333333333333
 40
0.3333333333333333
 40
0.3333333333333333
 40
0.3333333333333333
 40
0.4444444444444444
 40
0.4444444444444444
 40
0.4444444444444444
 40
0.4444444444444444
 40
0.5555555555555556
 40
0.5555555555555556
 40
0.5555555555555556
 40
0.5555555555555556
 40
0.6666666666666666
 40
0.6666666666666666
 40
0.6666666666666666
 40
0.6666666666666666
 40
0.7777777777777778
 40
0.7777777777777778
 40
0.7777777777777778
 40
0.7777777777777778
 40
1.0
 40
1.0
 40
1.0
 40
1.0
 10
-18.0483
 20
-4.4149
 30
0.0
 10
-17.7167
 20
-4.4149
 30
0.0
 10
-17.4961
 20
-4.3759
 30
0.0
 10
-17.3861
 20
-4.2983
 30
0.0
 10
-17.3861
 20
-4.2983
 30
0.0
 10
-17.2765
 20
-4.2207
 30
0.0
 10
-17.2214
 20
-4.1252
 30
0.0
 10
-17.2214
 20
-4.0114
 30
0.0
 10
-17.2214
 20
-4.0114
 30
0.0
 10
-17.2214
 20
-3.8971
 30
0.0
 10
-17.2769
 20
-3.8016
 30
0.0
 10
-17.387
 20
-3.724
 30
0.0
 10
-17.387
 20
-3.724
 30
0.0
 10
-17.4971
 20
-3.6464
 30
0.0
 10
-17.7177
 20
-3.6073
 30
0.0
 10
-18.0483
 20
-3.6073
 30
0.0
 10
-18.0483
 20
-3.6073
 30
0.0
 10
-18.3809
 20
-3.6073
 30
0.0
 10
-18.602
 20
-3.6464
 30
0.0
 10
-18.7111
 20
-3.724
 30
0.0
 10
-18.7111
 20
-3.724
 30
0.0
 10
-18.8207
 20
-3.8016
 30
0.0
 10
-18.8752
 20
-3.898
 30
0.0
 10
-18.8752
 20
-4.0137
 30
0.0
 10
-18.8752
 20
-4.0137
 30
0.0
 10
-18.8752
 20
-4.128
 30
0.0
 10
-18.8268
 20
-4.2188
 30
0.0
 10
-18.7304
 20
-4.287
 30
0.0
 10
-18.7304
 20
-4.287
 30
0.0
 10
-18.6076
 20
-4.3721
 30
0.0
 10
-18.3799
 20
-4.4149
 30
0.0
 10
-18.0483
 20
-4.4149
 30
0.0
  0
SPLINE
  5
DB
330
1F
100
AcDbEntity
  8
AXIS
 62
   250
100
AcDbSpline
210
0.0
220
0.0
230
1.0
 70
    24
 71
     3
 72
     8
 73
     4
 74
     0
 42
0.0000000001
 43
0.0000000001
 40
0.0
 40
0.0
 40
0.0
 40
0.0
 40
1.0
 40
1.0
 40
1.0
 40
1.0
 10
-9.698
 20
-37.501
 30
0.0
 10
-9.698
 20
-37.501
 30
0.0
 10
-16.9741
 20
-37.501
 30
0.0
 10
-16.9741
 20
-37.501
 30
0.0
  0
SPLINE
  5
DC
330
1F
100
AcDbEntity
  8
AXIS
 62
   250
100
AcDbSpline
210
0.0
220
0.0
230
1.0
 70
    24
 71
     3
 72
     8
 73
     4
 74
     0
 42
0.0000000001
 43
0.0000000001
 40
0.0
 40
0.0
 40
0.0
 40
0.0
 40
1.0
 40
1.0
 40
1.0
 40
1.0
 10
-9.1356
 20
31.1991
 30
0.0
 10
-9.1356
 20
31.1991
 30
0.0
 10
-16.9408
 20
31.1991
 30
0.0
 10
-16.9408
 20
31.1991
 30
0.0
  0
SPLINE
  5
DD
330
1F
100
AcDbEntity
  8
AXIS
 62
   250
100
AcDbSpline
210
0.0
220
0.0
230
1.0
 70
    24
 71
     3
 72
     8
 73
     4
 74
     0
 42
0.0000000001
 43
0.0000000001
 40
0.0
 40
0.0
 40
0.0
 40
0.0
 40
1.0
 40
1.0
 40
1.0
 40
1.0
 10
-42.7433
 20
32.4522
 30
0.0
 10
-42.7433
 20
32.4522
 30
0.0
 10
-56.9446
 20
32.4522
 30
0.0
 10
-56.9446
 20
32.4522
 30
0.0
  0
SPLINE
  5
DE
330
1F
100
AcDbEntity
  8
AXIS
 62
   250
100
AcDbSpline
210
0.0
220
0.0
230
1.0
 70
    11
 71
     3
 72
    20
 73
    16
 74
     0
 42
0.0000000001
 43
0.0000000001
 40
0.0
 40
0.0
 40
0.0
 40
0.0
 40
0.2
 40
0.2
 40
0.2
 40
0.2
 40
0.4
 40
0.4
 40
0.4
 40
0.4
 40
0.6
 40
0.6
 40
0.6
 40
0.6
 40
1.0
 40
1.0
 40
1.0
 40
1.0
 10
-51.7569
 20
32.9386
 30
0.0
 10
-51.7569
 20
32.9386
 30
0.0
 10
-48.7571
 20
32.5152
 30
0.0
 10
-48.7571
 20
32.5152
 30
0.0
 10
-48.7571
 20
32.5152
 30
0.0
 10
-48.7571
 20
32.5152
 30
0.0
 10
-48.7571
 20
32.4212
 30
0.0
 10
-48.7571
 20
32.4212
 30
0.0
 10
-48.7571
 20
32.4212
 30
0.0
 10
-48.7571
 20
32.4212
 30
0.0
 10
-51.7569
 20
31.9697
 30
0.0
 10
-51.7569
 20
31.9697
 30
0.0
 10
-51.7569
 20
31.9697
 30
0.0
 10
-51.7569
 20
31.9697
 30
0.0
 10
-51.7569
 20
32.9386
 30
0.0
 10
-51.7569
 20
32.9386
 30
0.0
  0
SPLINE
  5
DF
330
1F
100
AcDbEntity
  8
AXIS
 62
   250
100
AcDbSpline
210
0.0
220
0.0
230
1.0
 70
    11
 71
     3
 72
    20
 73
    16
 74
     0
 42
0.0000000001
 43
0.0000000001
 40
0.0
 40
0.0
 40
0.0
 40
0.0
 40
0.2
 40
0.2
 40
0.2
 40
0.2
 40
0.4
 40
0.4
 40
0.4
 40
0.4
 40
0.6
 40
0.6
 40
0.6
 40
0.6
 40
1.0
 40
1.0
 40
1.0
 40
1.0
 10
-43.4324
 20
31.9905
 30
0.0
 10
-43.4324
 20
31.9905
 30
0.0
 10
-46.4324
 20
32.4139
 30
0.0
 10
-46.4324
 20
32.4139
 30
0.0
 10
-46.4324
 20
32.4139
 30
0.0
 10
-46.4324
 20
32.4139
 30
0.0
 10
-46.4324
 20
32.508
 30
0.0
 10
-46.4324
 20
32.508
 30
0.0
 10
-46.4324
 20
32.508
 30
0.0
 10
-46.4324
 20
32.508
 30
0.0
 10
-43.4324
 20
32.9595
 30
0.0
 10
-43.4324
 20
32.9595
 30
0.0
 10
-43.4324
 20
32.9595
 30
0.0
 10
-43.4324
 20
32.9595
 30
0.0
 10
-43.4324
 20
31.9905
 30
0.0
 10
-43.4324
 20
31.9905
 30
0.0
  0
SPLINE
  5
E0
330
1F
100
AcDbEntity
  8
AXIS
 62
   250
100
AcDbSpline
210
0.0
220
0.0
230
1.0
 70
    11
 71
     3
 72
    80
 73
    76
 74
     0
 42
0.0000000001
 43
0.0000000001
 40
0.0
 40
0.0
 40
0.0
 40
0.0
 40
0.05
 40
0.05
 40
0.05
 40
0.05
 40
0.1
 40
0.1
 40
0.1
 40
0.1
 40
0.15
 40
0.15
 40
0.15
 40
0.15
 40
0.2
 40
0.2
 40
0.2
 40
0.2
 40
0.25
 40
0.25
 40
0.25
 40
0.25
 40
0.3
 40
0.3
 40
0.3
 40
0.3
 40
0.35
 40
0.35
 40
0.35
 40
0.35
 40
0.4
 40
0.4
 40
0.4
 40
0.4
 40
0.45
 40
0.45
 40
0.45
 40
0.45
 40
0.5
 40
0.5
 40
0.5
 40
0.5
 40
0.55
 40
0.55
 40
0.55
 40
0.55
 40
0.6
 40
0.6
 40
0.6
 40
0.6
 40
0.65
 40
0.65
 40
0.65
 40
0.65
 40
0.7
 40
0.7
 40
0.7
 40
0.7
 40
0.75
 40
0.75
 40
0.75
 40
0.75
 40
0.8
 40
0.8
 40
0.8
 40
0.8
 40
0.85
 40
0.85
 40
0.85
 40
0.85
 40
0.9
 40
0.9
 40
0.9
 40
0.9
 40
1.0
 40
1.0
 40
1.0
 40
1.0
 10
-54.7405
 20
34.3531
 30
0.0
 10
-54.7405
 20
34.3531
 30
0.0
 10
-54.9869
 20
34.3338
 30
0.0
 10
-54.9869
 20
34.3338
 30
0.0
 10
-54.9869
 20
34.3338
 30
0.0
 10
-55.009
 20
34.4312
 30
0.0
 10
-55.0401
 20
34.5022
 30
0.0
 10
-55.0805
 20
34.5459
 30
0.0
 10
-55.0805
 20
34.5459
 30
0.0
 10
-55.1478
 20
34.617
 30
0.0
 10
-55.2306
 20
34.6523
 30
0.0
 10
-55.3289
 20
34.6523
 30
0.0
 10
-55.3289
 20
34.6523
 30
0.0
 10
-55.4079
 20
34.6523
 30
0.0
 10
-55.477
 20
34.6301
 30
0.0
 10
-55.5368
 20
34.5859
 30
0.0
 10
-55.5368
 20
34.5859
 30
0.0
 10
-55.6149
 20
34.529
 30
0.0
 10
-55.6765
 20
34.4458
 30
0.0
 10
-55.7216
 20
34.3366
 30
0.0
 10
-55.7216
 20
34.3366
 30
0.0
 10
-55.7663
 20
34.2275
 30
0.0
 10
-55.7898
 20
34.0718
 30
0.0
 10
-55.7917
 20
33.8696
 30
0.0
 10
-55.7917
 20
33.8696
 30
0.0
 10
-55.732
 20
33.9603
 30
0.0
 10
-55.6591
 20
34.0281
 30
0.0
 10
-55.5725
 20
34.0723
 30
0.0
 10
-55.5725
 20
34.0723
 30
0.0
 10
-55.4865
 20
34.116
 30
0.0
 10
-55.3957
 20
34.1381
 30
0.0
 10
-55.3011
 20
34.1381
 30
0.0
 10
-55.3011
 20
34.1381
 30
0.0
 10
-55.1356
 20
34.1381
 30
0.0
 10
-54.9949
 20
34.0775
 30
0.0
 10
-54.8787
 20
33.9556
 30
0.0
 10
-54.8787
 20
33.9556
 30
0.0
 10
-54.7626
 20
33.8338
 30
0.0
 10
-54.7042
 20
33.6767
 30
0.0
 10
-54.7042
 20
33.4839
 30
0.0
 10
-54.7042
 20
33.4839
 30
0.0
 10
-54.7042
 20
33.3569
 30
0.0
 10
-54.732
 20
33.2393
 30
0.0
 10
-54.7866
 20
33.1301
 30
0.0
 10
-54.7866
 20
33.1301
 30
0.0
 10
-54.8411
 20
33.0215
 30
0.0
 10
-54.9164
 20
32.9378
 30
0.0
 10
-55.0119
 20
32.8799
 30
0.0
 10
-55.0119
 20
32.8799
 30
0.0
 10
-55.1073
 20
32.8221
 30
0.0
 10
-55.2155
 20
32.7934
 30
0.0
 10
-55.3369
 20
32.7934
 30
0.0
 10
-55.3369
 20
32.7934
 30
0.0
 10
-55.5438
 20
32.7934
 30
0.0
 10
-55.7122
 20
32.8691
 30
0.0
 10
-55.8425
 20
33.0215
 30
0.0
 10
-55.8425
 20
33.0215
 30
0.0
 10
-55.9733
 20
33.1734
 30
0.0
 10
-56.0382
 20
33.4241
 30
0.0
 10
-56.0382
 20
33.7731
 30
0.0
 10
-56.0382
 20
33.7731
 30
0.0
 10
-56.0382
 20
34.1635
 30
0.0
 10
-55.9662
 20
34.4472
 30
0.0
 10
-55.8218
 20
34.6245
 30
0.0
 10
-55.8218
 20
34.6245
 30
0.0
 10
-55.6962
 20
34.7788
 30
0.0
 10
-55.5269
 20
34.8564
 30
0.0
 10
-55.3134
 20
34.8564
 30
0.0
 10
-55.3134
 20
34.8564
 30
0.0
 10
-55.1548
 20
34.8564
 30
0.0
 10
-55.0246
 20
34.8117
 30
0.0
 10
-54.923
 20
34.7223
 30
0.0
 10
-54.923
 20
34.7223
 30
0.0
 10
-54.8214
 20
34.6334
 30
0.0
 10
-54.7607
 20
34.5102
 30
0.0
 10
-54.7405
 20
34.3531
 30
0.0
  0
SPLINE
  5
E1
330
1F
100
AcDbEntity
  8
AXIS
 62
   250
100
AcDbSpline
210
0.0
220
0.0
230
1.0
 70
    11
 71
     3
 72
    40
 73
    36
 74
     0
 42
0.0000000001
 43
0.0000000001
 40
0.0
 40
0.0
 40
0.0
 40
0.0
 40
0.1
 40
0.1
 40
0.1
 40
0.1
 40
0.2
 40
0.2
 40
0.2
 40
0.2
 40
0.3
 40
0.3
 40
0.3
 40
0.3
 40
0.4
 40
0.4
 40
0.4
 40
0.4
 40
0.5
 40
0.5
 40
0.5
 40
0.5
 40
0.6
 40
0.6
 40
0.6
 40
0.6
 40
0.7
 40
0.7
 40
0.7
 40
0.7
 40
0.8
 40
0.8
 40
0.8
 40
0.8
 40
1.0
 40
1.0
 40
1.0
 40
1.0
 10
-55.7532
 20
33.4825
 30
0.0
 10
-55.7532
 20
33.3968
 30
0.0
 10
-55.7348
 20
33.315
 30
0.0
 10
-55.6986
 20
33.2369
 30
0.0
 10
-55.6986
 20
33.2369
 30
0.0
 10
-55.6624
 20
33.1588
 30
0.0
 10
-55.6116
 20
33.0996
 30
0.0
 10
-55.5467
 20
33.0587
 30
0.0
 10
-55.5467
 20
33.0587
 30
0.0
 10
-55.4813
 20
33.0177
 30
0.0
 10
-55.4126
 20
32.997
 30
0.0
 10
-55.3411
 20
32.997
 30
0.0
 10
-55.3411
 20
32.997
 30
0.0
 10
-55.2362
 20
32.997
 30
0.0
 10
-55.1464
 20
33.0394
 30
0.0
 10
-55.0711
 20
33.124
 30
0.0
 10
-55.0711
 20
33.124
 30
0.0
 10
-54.9959
 20
33.2087
 30
0.0
 10
-54.9582
 20
33.3235
 30
0.0
 10
-54.9582
 20
33.4683
 30
0.0
 10
-54.9582
 20
33.4683
 30
0.0
 10
-54.9582
 20
33.608
 30
0.0
 10
-54.9954
 20
33.7181
 30
0.0
 10
-55.0697
 20
33.7985
 30
0.0
 10
-55.0697
 20
33.7985
 30
0.0
 10
-55.144
 20
33.879
 30
0.0
 10
-55.2376
 20
33.919
 30
0.0
 10
-55.3505
 20
33.919
 30
0.0
 10
-55.3505
 20
33.919
 30
0.0
 10
-55.4629
 20
33.919
 30
0.0
 10
-55.558
 20
33.879
 30
0.0
 10
-55.636
 20
33.7985
 30
0.0
 10
-55.636
 20
33.7985
 30
0.0
 10
-55.7141
 20
33.7181
 30
0.0
 10
-55.7532
 20
33.6127
 30
0.0
 10
-55.7532
 20
33.4825
 30
0.0
  0
SPLINE
  5
E2
330
1F
100
AcDbEntity
  8
AXIS
 62
   250
100
AcDbSpline
210
0.0
220
0.0
230
1.0
 70
    24
 71
     3
 72
     8
 73
     4
 74
     0
 42
0.0000000001
 43
0.0000000001
 40
0.0
 40
0.0
 40
0.0
 40
0.0
 40
1.0
 40
1.0
 40
1.0
 40
1.0
 10
-46.5191
 20
31.5186
 30
0.0
 10
-46.5191
 20
31.5186
 30
0.0
 10
-46.5191
 20
33.7516
 30
0.0
 10
-46.5191
 20
33.7516
 30
0.0
  0
SPLINE
  5
E3
330
1F
100
AcDbEntity
  8
AXIS
 62
   250
100
AcDbSpline
210
0.0
220
0.0
230
1.0
 70
    24
 71
     3
 72
     8
 73
     4
 74
     0
 42
0.0000000001
 43
0.0000000001
 40
0.0
 40
0.0
 40
0.0
 40
0.0
 40
1.0
 40
1.0
 40
1.0
 40
1.0
 10
-25.4704
 20
26.0428
 30
0.0
 10
-25.4704
 20
26.0428
 30
0.0
 10
-25.4704
 20
-33.056
 30
0.0
 10
-25.4704
 20
-33.056
 30
0.0
  0
SPLINE
  5
E4
330
1F
100
AcDbEntity
  8
AXIS
 62
   250
100
AcDbSpline
210
0.0
220
0.0
230
1.0
 70
    11
 71
     3
 72
    20
 73
    16
 74
     0
 42
0.0000000001
 43
0.0000000001
 40
0.0
 40
0.0
 40
0.0
 40
0.0
 40
0.2
 40
0.2
 40
0.2
 40
0.2
 40
0.4
 40
0.4
 40
0.4
 40
0.4
 40
0.6
 40
0.6
 40
0.6
 40
0.6
 40
1.0
 40
1.0
 40
1.0
 40
1.0
 10
-25.9805
 20
24.1299
 30
0.0
 10
-25.9805
 20
24.1299
 30
0.0
 10
-25.5571
 20
27.1297
 30
0.0
 10
-25.5571
 20
27.1297
 30
0.0
 10
-25.5571
 20
27.1297
 30
0.0
 10
-25.5571
 20
27.1297
 30
0.0
 10
-25.4631
 20
27.1297
 30
0.0
 10
-25.4631
 20
27.1297
 30
0.0
 10
-25.4631
 20
27.1297
 30
0.0
 10
-25.4631
 20
27.1297
 30
0.0
 10
-25.0116
 20
24.1299
 30
0.0
 10
-25.0116
 20
24.1299
 30
0.0
 10
-25.0116
 20
24.1299
 30
0.0
 10
-25.0116
 20
24.1299
 30
0.0
 10
-25.9805
 20
24.1299
 30
0.0
 10
-25.9805
 20
24.1299
 30
0.0
  0
SPLINE
  5
E5
330
1F
100
AcDbEntity
  8
AXIS
 62
   250
100
AcDbSpline
210
0.0
220
0.0
230
1.0
 70
    11
 71
     3
 72
    20
 73
    16
 74
     0
 42
0.0000000001
 43
0.0000000001
 40
0.0
 40
0.0
 40
0.0
 40
0.0
 40
0.2
 40
0.2
 40
0.2
 40
0.2
 40
0.4
 40
0.4
 40
0.4
 40
0.4
 40
0.6
 40
0.6
 40
0.6
 40
0.6
 40
1.0
 40
1.0
 40
1.0
 40
1.0
 10
-25.0052
 20
-30.4429
 30
0.0
 10
-25.0052
 20
-30.4429
 30
0.0
 10
-25.4286
 20
-33.4429
 30
0.0
 10
-25.4286
 20
-33.4429
 30
0.0
 10
-25.4286
 20
-33.4429
 30
0.0
 10
-25.4286
 20
-33.4429
 30
0.0
 10
-25.5227
 20
-33.4429
 30
0.0
 10
-25.5227
 20
-33.4429
 30
0.0
 10
-25.5227
 20
-33.4429
 30
0.0
 10
-25.5227
 20
-33.4429
 30
0.0
 10
-25.9742
 20
-30.4429
 30
0.0
 10
-25.9742
 20
-30.4429
 30
0.0
 10
-25.9742
 20
-30.4429
 30
0.0
 10
-25.9742
 20
-30.4429
 30
0.0
 10
-25.0052
 20
-30.4429
 30
0.0
 10
-25.0052
 20
-30.4429
 30
0.0
  0
SPLINE
  5
E6
330
1F
100
AcDbEntity
  8
AXIS
 62
   250
100
AcDbSpline
210
0.0
220
0.0
230
1.0
 70
    11
 71
     3
 72
    40
 73
    36
 74
     0
 42
0.0000000001
 43
0.0000000001
 40
0.0
 40
0.0
 40
0.0
 40
0.0
 40
0.1
 40
0.1
 40
0.1
 40
0.1
 40
0.2
 40
0.2
 40
0.2
 40
0.2
 40
0.3
 40
0.3
 40
0.3
 40
0.3
 40
0.4
 40
0.4
 40
0.4
 40
0.4
 40
0.5
 40
0.5
 40
0.5
 40
0.5
 40
0.6
 40
0.6
 40
0.6
 40
0.6
 40
0.7
 40
0.7
 40
0.7
 40
0.7
 40
0.8
 40
0.8
 40
0.8
 40
0.8
 40
1.0
 40
1.0
 40
1.0
 40
1.0
 10
-26.0851
 20
-5.5791
 30
0.0
 10
-26.0851
 20
-5.5791
 30
0.0
 10
-26.0851
 20
-5.827
 30
0.0
 10
-26.0851
 20
-5.827
 30
0.0
 10
-26.0851
 20
-5.827
 30
0.0
 10
-26.0851
 20
-5.827
 30
0.0
 10
-27.6655
 20
-5.827
 30
0.0
 10
-27.6655
 20
-5.827
 30
0.0
 10
-27.6655
 20
-5.827
 30
0.0
 10
-27.6086
 20
-5.8868
 30
0.0
 10
-27.5517
 20
-5.9648
 30
0.0
 10
-27.4948
 20
-6.0617
 30
0.0
 10
-27.4948
 20
-6.0617
 30
0.0
 10
-27.4379
 20
-6.1591
 30
0.0
 10
-27.3951
 20
-6.2461
 30
0.0
 10
-27.3668
 20
-6.3233
 30
0.0
 10
-27.3668
 20
-6.3233
 30
0.0
 10
-27.3668
 20
-6.3233
 30
0.0
 10
-27.6063
 20
-6.3233
 30
0.0
 10
-27.6063
 20
-6.3233
 30
0.0
 10
-27.6063
 20
-6.3233
 30
0.0
 10
-27.6716
 20
-6.1845
 30
0.0
 10
-27.7507
 20
-6.0631
 30
0.0
 10
-27.8433
 20
-5.9592
 30
0.0
 10
-27.8433
 20
-5.9592
 30
0.0
 10
-27.9365
 20
-5.8557
 30
0.0
 10
-28.0263
 20
-5.7819
 30
0.0
 10
-28.1138
 20
-5.7386
 30
0.0
 10
-28.1138
 20
-5.7386
 30
0.0
 10
-28.1138
 20
-5.7386
 30
0.0
 10
-28.1138
 20
-5.5791
 30
0.0
 10
-28.1138
 20
-5.5791
 30
0.0
 10
-28.1138
 20
-5.5791
 30
0.0
 10
-28.1138
 20
-5.5791
 30
0.0
 10
-26.0851
 20
-5.5791
 30
0.0
 10
-26.0851
 20
-5.5791
 30
0.0
  0
SPLINE
  5
E7
330
1F
100
AcDbEntity
  8
AXIS
 62
   250
100
AcDbSpline
210
0.0
220
0.0
230
1.0
 70
    11
 71
     3
 72
    48
 73
    44
 74
     0
 42
0.0000000001
 43
0.0000000001
 40
0.0
 40
0.0
 40
0.0
 40
0.0
 40
0.0833333333333333
 40
0.0833333333333333
 40
0.0833333333333333
 40
0.0833333333333333
 40
0.1666666666666667
 40
0.1666666666666667
 40
0.1666666666666667
 40
0.1666666666666667
 40
0.25
 40
0.25
 40
0.25
 40
0.25
 40
0.3333333333333333
 40
0.3333333333333333
 40
0.3333333333333333
 40
0.3333333333333333
 40
0.4166666666666667
 40
0.4166666666666667
 40
0.4166666666666667
 40
0.4166666666666667
 40
0.5
 40
0.5
 40
0.5
 40
0.5
 40
0.5833333333333334
 40
0.5833333333333334
 40
0.5833333333333334
 40
0.5833333333333334
 40
0.6666666666666666
 40
0.6666666666666666
 40
0.6666666666666666
 40
0.6666666666666666
 40
0.75
 40
0.75
 40
0.75
 40
0.75
 40
0.8333333333333334
 40
0.8333333333333334
 40
0.8333333333333334
 40
0.8333333333333334
 40
1.0
 40
1.0
 40
1.0
 40
1.0
 10
-27.8405
 20
-4.9272
 30
0.0
 10
-27.8405
 20
-4.9272
 30
0.0
 10
-28.079
 20
-4.9272
 30
0.0
 10
-28.079
 20
-4.9272
 30
0.0
 10
-28.079
 20
-4.9272
 30
0.0
 10
-28.079
 20
-4.9272
 30
0.0
 10
-28.079
 20
-3.6196
 30
0.0
 10
-28.079
 20
-3.6196
 30
0.0
 10
-28.079
 20
-3.6196
 30
0.0
 10
-28.079
 20
-3.6196
 30
0.0
 10
-27.8861
 20
-3.6196
 30
0.0
 10
-27.8861
 20
-3.6196
 30
0.0
 10
-27.8861
 20
-3.6196
 30
0.0
 10
-27.7493
 20
-3.748
 30
0.0
 10
-27.5672
 20
-3.8755
 30
0.0
 10
-27.3405
 20
-4.002
 30
0.0
 10
-27.3405
 20
-4.002
 30
0.0
 10
-27.1138
 20
-4.1281
 30
0.0
 10
-26.88
 20
-4.2259
 30
0.0
 10
-26.6406
 20
-4.2946
 30
0.0
 10
-26.6406
 20
-4.2946
 30
0.0
 10
-26.4713
 20
-4.3444
 30
0.0
 10
-26.2864
 20
-4.3759
 30
0.0
 10
-26.0851
 20
-4.3896
 30
0.0
 10
-26.0851
 20
-4.3896
 30
0.0
 10
-26.0851
 20
-4.3896
 30
0.0
 10
-26.0851
 20
-4.6445
 30
0.0
 10
-26.0851
 20
-4.6445
 30
0.0
 10
-26.0851
 20
-4.6445
 30
0.0
 10
-26.2441
 20
-4.6417
 30
0.0
 10
-26.436
 20
-4.6107
 30
0.0
 10
-26.6613
 20
-4.5509
 30
0.0
 10
-26.6613
 20
-4.5509
 30
0.0
 10
-26.8861
 20
-4.4912
 30
0.0
 10
-27.1034
 20
-4.4056
 30
0.0
 10
-27.3123
 20
-4.2941
 30
0.0
 10
-27.3123
 20
-4.2941
 30
0.0
 10
-27.5211
 20
-4.1822
 30
0.0
 10
-27.6975
 20
-4.0636
 30
0.0
 10
-27.8405
 20
-3.9376
 30
0.0
 10
-27.8405
 20
-3.9376
 30
0.0
 10
-27.8405
 20
-3.9376
 30
0.0
 10
-27.8405
 20
-4.9272
 30
0.0
 10
-27.8405
 20
-4.9272
 30
0.0
  0
SPLINE
  5
E8
330
1F
100
AcDbEntity
  8
AXIS
 62
   250
100
AcDbSpline
210
0.0
220
0.0
230
1.0
 70
    11
 71
     3
 72
    52
 73
    48
 74
     0
 42
0.0000000001
 43
0.0000000001
 40
0.0
 40
0.0
 40
0.0
 40
0.0
 40
0.0769230769230769
 40
0.0769230769230769
 40
0.0769230769230769
 40
0.0769230769230769
 40
0.1538461538461539
 40
0.1538461538461539
 40
0.1538461538461539
 40
0.1538461538461539
 40
0.2307692307692308
 40
0.2307692307692308
 40
0.2307692307692308
 40
0.2307692307692308
 40
0.3076923076923077
 40
0.3076923076923077
 40
0.3076923076923077
 40
0.3076923076923077
 40
0.3846153846153846
 40
0.3846153846153846
 40
0.3846153846153846
 40
0.3846153846153846
 40
0.4615384615384616
 40
0.4615384615384616
 40
0.4615384615384616
 40
0.4615384615384616
 40
0.5384615384615384
 40
0.5384615384615384
 40
0.5384615384615384
 40
0.5384615384615384
 40
0.6153846153846154
 40
0.6153846153846154
 40
0.6153846153846154
 40
0.6153846153846154
 40
0.6923076923076923
 40
0.6923076923076923
 40
0.6923076923076923
 40
0.6923076923076923
 40
0.7692307692307693
 40
0.7692307692307693
 40
0.7692307692307693
 40
0.7692307692307693
 40
0.8461538461538461
 40
0.8461538461538461
 40
0.8461538461538461
 40
0.8461538461538461
 40
1.0
 40
1.0
 40
1.0
 40
1.0
 10
-27.0813
 20
-3.3741
 30
0.0
 10
-27.3203
 20
-3.3741
 30
0.0
 10
-27.5127
 20
-3.3496
 30
0.0
 10
-27.658
 20
-3.3002
 30
0.0
 10
-27.658
 20
-3.3002
 30
0.0
 10
-27.8038
 20
-3.2513
 30
0.0
 10
-27.9162
 20
-3.1779
 30
0.0
 10
-27.9953
 20
-3.081
 30
0.0
 10
-27.9953
 20
-3.081
 30
0.0
 10
-28.0743
 20
-2.9841
 30
0.0
 10
-28.1138
 20
-2.8623
 30
0.0
 10
-28.1138
 20
-2.7156
 30
0.0
 10
-28.1138
 20
-2.7156
 30
0.0
 10
-28.1138
 20
-2.6069
 30
0.0
 10
-28.0917
 20
-2.5119
 30
0.0
 10
-28.0479
 20
-2.4301
 30
0.0
 10
-28.0479
 20
-2.4301
 30
0.0
 10
-28.0047
 20
-2.3482
 30
0.0
 10
-27.9416
 20
-2.2809
 30
0.0
 10
-27.8593
 20
-2.2273
 30
0.0
 10
-27.8593
 20
-2.2273
 30
0.0
 10
-27.777
 20
-2.1742
 30
0.0
 10
-27.6768
 20
-2.1323
 30
0.0
 10
-27.5588
 20
-2.1022
 30
0.0
 10
-27.5588
 20
-2.1022
 30
0.0
 10
-27.4407
 20
-2.0716
 30
0.0
 10
-27.2817
 20
-2.0566
 30
0.0
 10
-27.0813
 20
-2.0566
 30
0.0
 10
-27.0813
 20
-2.0566
 30
0.0
 10
-26.8443
 20
-2.0566
 30
0.0
 10
-26.6533
 20
-2.081
 30
0.0
 10
-26.5075
 20
-2.1295
 30
0.0
 10
-26.5075
 20
-2.1295
 30
0.0
 10
-26.3617
 20
-2.1784
 30
0.0
 10
-26.2493
 20
-2.2513
 30
0.0
 10
-26.1698
 20
-2.3482
 30
0.0
 10
-26.1698
 20
-2.3482
 30
0.0
 10
-26.0903
 20
-2.4451
 30
0.0
 10
-26.0508
 20
-2.5674
 30
0.0
 10
-26.0508
 20
-2.7156
 30
0.0
 10
-26.0508
 20
-2.7156
 30
0.0
 10
-26.0508
 20
-2.9103
 30
0.0
 10
-26.1204
 20
-3.0632
 30
0.0
 10
-26.2601
 20
-3.1742
 30
0.0
 10
-26.2601
 20
-3.1742
 30
0.0
 10
-26.428
 20
-3.3073
 30
0.0
 10
-26.7022
 20
-3.3741
 30
0.0
 10
-27.0813
 20
-3.3741
 30
0.0
  0
SPLINE
  5
E9
330
1F
100
AcDbEntity
  8
AXIS
 62
   250
100
AcDbSpline
210
0.0
220
0.0
230
1.0
 70
    11
 71
     3
 72
    36
 73
    32
 74
     0
 42
0.0000000001
 43
0.0000000001
 40
0.0
 40
0.0
 40
0.0
 40
0.0
 40
0.1111111111111111
 40
0.1111111111111111
 40
0.1111111111111111
 40
0.1111111111111111
 40
0.2222222222222222
 40
0.2222222222222222
 40
0.2222222222222222
 40
0.2222222222222222
 40
0.3333333333333333
 40
0.3333333333333333
 40
0.3333333333333333
 40
0.3333333333333333
 40
0.4444444444444444
 40
0.4444444444444444
 40
0.4444444444444444
 40
0.4444444444444444
 40
0.5555555555555556
 40
0.5555555555555556
 40
0.5555555555555556
 40
0.5555555555555556
 40
0.6666666666666666
 40
0.6666666666666666
 40
0.6666666666666666
 40
0.6666666666666666
 40
0.7777777777777778
 40
0.7777777777777778
 40
0.7777777777777778
 40
0.7777777777777778
 40
1.0
 40
1.0
 40
1.0
 40
1.0
 10
-27.0813
 20
-3.1191
 30
0.0
 10
-26.7497
 20
-3.1191
 30
0.0
 10
-26.5291
 20
-3.0801
 30
0.0
 10
-26.4191
 20
-3.0025
 30
0.0
 10
-26.4191
 20
-3.0025
 30
0.0
 10
-26.3095
 20
-2.9249
 30
0.0
 10
-26.2544
 20
-2.8294
 30
0.0
 10
-26.2544
 20
-2.7156
 30
0.0
 10
-26.2544
 20
-2.7156
 30
0.0
 10
-26.2544
 20
-2.6013
 30
0.0
 10
-26.3099
 20
-2.5058
 30
0.0
 10
-26.42
 20
-2.4282
 30
0.0
 10
-26.42
 20
-2.4282
 30
0.0
 10
-26.5301
 20
-2.3506
 30
0.0
 10
-26.7507
 20
-2.3115
 30
0.0
 10
-27.0813
 20
-2.3115
 30
0.0
 10
-27.0813
 20
-2.3115
 30
0.0
 10
-27.4139
 20
-2.3115
 30
0.0
 10
-27.635
 20
-2.3506
 30
0.0
 10
-27.7441
 20
-2.4282
 30
0.0
 10
-27.7441
 20
-2.4282
 30
0.0
 10
-27.8537
 20
-2.5058
 30
0.0
 10
-27.9082
 20
-2.6022
 30
0.0
 10
-27.9082
 20
-2.7179
 30
0.0
 10
-27.9082
 20
-2.7179
 30
0.0
 10
-27.9082
 20
-2.8322
 30
0.0
 10
-27.8598
 20
-2.923
 30
0.0
 10
-27.7634
 20
-2.9912
 30
0.0
 10
-27.7634
 20
-2.9912
 30
0.0
 10
-27.6406
 20
-3.0763
 30
0.0
 10
-27.4129
 20
-3.1191
 30
0.0
 10
-27.0813
 20
-3.1191
 30
0.0
  0
SPLINE
  5
EA
330
1F
100
AcDbEntity
  8
AXIS
 62
   250
100
AcDbSpline
210
0.0
220
0.0
230
1.0
 70
    24
 71
     3
 72
     8
 73
     4
 74
     0
 42
0.0000000001
 43
0.0000000001
 40
0.0
 40
0.0
 40
0.0
 40
0.0
 40
1.0
 40
1.0
 40
1.0
 40
1.0
 10
-24.7777
 20
-33.5235
 30
0.0
 10
-24.7777
 20
-33.5235
 30
0.0
 10
-39.5614
 20
-33.5235
 30
0.0
 10
-39.5614
 20
-33.5235
 30
0.0
  0
SPLINE
  5
EB
330
1F
100
AcDbEntity
  8
AXIS
 62
   250
100
AcDbSpline
210
0.0
220
0.0
230
1.0
 70
    24
 71
     3
 72
     8
 73
     4
 74
     0
 42
0.0000000001
 43
0.0000000001
 40
0.0
 40
0.0
 40
0.0
 40
0.0
 40
1.0
 40
1.0
 40
1.0
 40
1.0
 10
-24.9002
 20
27.1767
 30
0.0
 10
-24.9002
 20
27.1767
 30
0.0
 10
-39.4295
 20
27.1767
 30
0.0
 10
-39.4295
 20
27.1767
 30
0.0
  0
SPLINE
  5
EC
330
1F
100
AcDbEntity
  8
AXIS
 62
   250
100
AcDbSpline
210
0.0
220
0.0
230
1.0
 70
    24
 71
     3
 72
     8
 73
     4
 74
     0
 42
0.0000000001
 43
0.0000000001
 40
0.0
 40
0.0
 40
0.0
 40
0.0
 40
1.0
 40
1.0
 40
1.0
 40
1.0
 10
-30.55
 20
23.8138
 30
0.0
 10
-30.55
 20
23.8138
 30
0.0
 10
-30.55
 20
-30.2745
 30
0.0
 10
-30.55
 20
-30.2745
 30
0.0
  0
SPLINE
  5
ED
330
1F
100
AcDbEntity
  8
AXIS
 62
   250
100
AcDbSpline
210
0.0
220
0.0
230
1.0
 70
    11
 71
     3
 72
    20
 73
    16
 74
     0
 42
0.0000000001
 43
0.0000000001
 40
0.0
 40
0.0
 40
0.0
 40
0.0
 40
0.2
 40
0.2
 40
0.2
 40
0.2
 40
0.4
 40
0.4
 40
0.4
 40
0.4
 40
0.6
 40
0.6
 40
0.6
 40
0.6
 40
1.0
 40
1.0
 40
1.0
 40
1.0
 10
-31.0355
 20
21.2177
 30
0.0
 10
-31.0355
 20
21.2177
 30
0.0
 10
-30.6121
 20
24.2175
 30
0.0
 10
-30.6121
 20
24.2175
 30
0.0
 10
-30.6121
 20
24.2175
 30
0.0
 10
-30.6121
 20
24.2175
 30
0.0
 10
-30.5181
 20
24.2175
 30
0.0
 10
-30.5181
 20
24.2175
 30
0.0
 10
-30.5181
 20
24.2175
 30
0.0
 10
-30.5181
 20
24.2175
 30
0.0
 10
-30.0666
 20
21.2177
 30
0.0
 10
-30.0666
 20
21.2177
 30
0.0
 10
-30.0666
 20
21.2177
 30
0.0
 10
-30.0666
 20
21.2177
 30
0.0
 10
-31.0355
 20
21.2177
 30
0.0
 10
-31.0355
 20
21.2177
 30
0.0
  0
SPLINE
  5
EE
330
1F
100
AcDbEntity
  8
AXIS
 62
   250
100
AcDbSpline
210
0.0
220
0.0
230
1.0
 70
    11
 71
     3
 72
    20
 73
    16
 74
     0
 42
0.0000000001
 43
0.0000000001
 40
0.0
 40
0.0
 40
0.0
 40
0.0
 40
0.2
 40
0.2
 40
0.2
 40
0.2
 40
0.4
 40
0.4
 40
0.4
 40
0.4
 40
0.6
 40
0.6
 40
0.6
 40
0.6
 40
1.0
 40
1.0
 40
1.0
 40
1.0
 10
-30.0852
 20
-27.8809
 30
0.0
 10
-30.0852
 20
-27.8809
 30
0.0
 10
-30.5086
 20
-30.8809
 30
0.0
 10
-30.5086
 20
-30.8809
 30
0.0
 10
-30.5086
 20
-30.8809
 30
0.0
 10
-30.5086
 20
-30.8809
 30
0.0
 10
-30.6027
 20
-30.8809
 30
0.0
 10
-30.6027
 20
-30.8809
 30
0.0
 10
-30.6027
 20
-30.8809
 30
0.0
 10
-30.6027
 20
-30.8809
 30
0.0
 10
-31.0542
 20
-27.8809
 30
0.0
 10
-31.0542
 20
-27.8809
 30
0.0
 10
-31.0542
 20
-27.8809
 30
0.0
 10
-31.0542
 20
-27.8809
 30
0.0
 10
-30.0852
 20
-27.8809
 30
0.0
 10
-30.0852
 20
-27.8809
 30
0.0
  0
SPLINE
  5
EF
330
1F
100
AcDbEntity
  8
AXIS
 62
   250
100
AcDbSpline
210
0.0
220
0.0
230
1.0
 70
    11
 71
     3
 72
    40
 73
    36
 74
     0
 42
0.0000000001
 43
0.0000000001
 40
0.0
 40
0.0
 40
0.0
 40
0.0
 40
0.1
 40
0.1
 40
0.1
 40
0.1
 40
0.2
 40
0.2
 40
0.2
 40
0.2
 40
0.3
 40
0.3
 40
0.3
 40
0.3
 40
0.4
 40
0.4
 40
0.4
 40
0.4
 40
0.5
 40
0.5
 40
0.5
 40
0.5
 40
0.6
 40
0.6
 40
0.6
 40
0.6
 40
0.7
 40
0.7
 40
0.7
 40
0.7
 40
0.8
 40
0.8
 40
0.8
 40
0.8
 40
1.0
 40
1.0
 40
1.0
 40
1.0
 10
-31.1651
 20
-5.5791
 30
0.0
 10
-31.1651
 20
-5.5791
 30
0.0
 10
-31.1651
 20
-5.827
 30
0.0
 10
-31.1651
 20
-5.827
 30
0.0
 10
-31.1651
 20
-5.827
 30
0.0
 10
-31.1651
 20
-5.827
 30
0.0
 10
-32.7455
 20
-5.827
 30
0.0
 10
-32.7455
 20
-5.827
 30
0.0
 10
-32.7455
 20
-5.827
 30
0.0
 10
-32.6886
 20
-5.8868
 30
0.0
 10
-32.6317
 20
-5.9648
 30
0.0
 10
-32.5748
 20
-6.0617
 30
0.0
 10
-32.5748
 20
-6.0617
 30
0.0
 10
-32.5179
 20
-6.1591
 30
0.0
 10
-32.4751
 20
-6.2461
 30
0.0
 10
-32.4468
 20
-6.3233
 30
0.0
 10
-32.4468
 20
-6.3233
 30
0.0
 10
-32.4468
 20
-6.3233
 30
0.0
 10
-32.6863
 20
-6.3233
 30
0.0
 10
-32.6863
 20
-6.3233
 30
0.0
 10
-32.6863
 20
-6.3233
 30
0.0
 10
-32.7516
 20
-6.1845
 30
0.0
 10
-32.8307
 20
-6.0631
 30
0.0
 10
-32.9233
 20
-5.9592
 30
0.0
 10
-32.9233
 20
-5.9592
 30
0.0
 10
-33.0165
 20
-5.8557
 30
0.0
 10
-33.1063
 20
-5.7819
 30
0.0
 10
-33.1938
 20
-5.7386
 30
0.0
 10
-33.1938
 20
-5.7386
 30
0.0
 10
-33.1938
 20
-5.7386
 30
0.0
 10
-33.1938
 20
-5.5791
 30
0.0
 10
-33.1938
 20
-5.5791
 30
0.0
 10
-33.1938
 20
-5.5791
 30
0.0
 10
-33.1938
 20
-5.5791
 30
0.0
 10
-31.1651
 20
-5.5791
 30
0.0
 10
-31.1651
 20
-5.5791
 30
0.0
  0
SPLINE
  5
F0
330
1F
100
AcDbEntity
  8
AXIS
 62
   250
100
AcDbSpline
210
0.0
220
0.0
230
1.0
 70
    11
 71
     3
 72
   124
 73
   120
 74
     0
 42
0.0000000001
 43
0.0000000001
 40
0.0
 40
0.0
 40
0.0
 40
0.0
 40
0.032258064516129
 40
0.032258064516129
 40
0.032258064516129
 40
0.032258064516129
 40
0.0645161290322581
 40
0.0645161290322581
 40
0.0645161290322581
 40
0.0645161290322581
 40
0.0967741935483871
 40
0.0967741935483871
 40
0.0967741935483871
 40
0.0967741935483871
 40
0.1290322580645161
 40
0.1290322580645161
 40
0.1290322580645161
 40
0.1290322580645161
 40
0.1612903225806452
 40
0.1612903225806452
 40
0.1612903225806452
 40
0.1612903225806452
 40
0.1935483870967742
 40
0.1935483870967742
 40
0.1935483870967742
 40
0.1935483870967742
 40
0.2258064516129032
 40
0.2258064516129032
 40
0.2258064516129032
 40
0.2258064516129032
 40
0.2580645161290323
 40
0.2580645161290323
 40
0.2580645161290323
 40
0.2580645161290323
 40
0.2903225806451613
 40
0.2903225806451613
 40
0.2903225806451613
 40
0.2903225806451613
 40
0.3225806451612903
 40
0.3225806451612903
 40
0.3225806451612903
 40
0.3225806451612903
 40
0.3548387096774194
 40
0.3548387096774194
 40
0.3548387096774194
 40
0.3548387096774194
 40
0.3870967741935484
 40
0.3870967741935484
 40
0.3870967741935484
 40
0.3870967741935484
 40
0.4193548387096774
 40
0.4193548387096774
 40
0.4193548387096774
 40
0.4193548387096774
 40
0.4516129032258064
 40
0.4516129032258064
 40
0.4516129032258064
 40
0.4516129032258064
 40
0.4838709677419355
 40
0.4838709677419355
 40
0.4838709677419355
 40
0.4838709677419355
 40
0.5161290322580645
 40
0.5161290322580645
 40
0.5161290322580645
 40
0.5161290322580645
 40
0.5483870967741935
 40
0.5483870967741935
 40
0.5483870967741935
 40
0.5483870967741935
 40
0.5806451612903226
 40
0.5806451612903226
 40
0.5806451612903226
 40
0.5806451612903226
 40
0.6129032258064516
 40
0.6129032258064516
 40
0.6129032258064516
 40
0.6129032258064516
 40
0.6451612903225806
 40
0.6451612903225806
 40
0.6451612903225806
 40
0.6451612903225806
 40
0.6774193548387096
 40
0.6774193548387096
 40
0.6774193548387096
 40
0.6774193548387096
 40
0.7096774193548387
 40
0.7096774193548387
 40
0.7096774193548387
 40
0.7096774193548387
 40
0.7419354838709677
 40
0.7419354838709677
 40
0.7419354838709677
 40
0.7419354838709677
 40
0.7741935483870968
 40
0.7741935483870968
 40
0.7741935483870968
 40
0.7741935483870968
 40
0.8064516129032258
 40
0.8064516129032258
 40
0.8064516129032258
 40
0.8064516129032258
 40
0.8387096774193549
 40
0.8387096774193549
 40
0.8387096774193549
 40
0.8387096774193549
 40
0.8709677419354839
 40
0.8709677419354839
 40
0.8709677419354839
 40
0.8709677419354839
 40
0.9032258064516129
 40
0.9032258064516129
 40
0.9032258064516129
 40
0.9032258064516129
 40
0.9354838709677419
 40
0.9354838709677419
 40
0.9354838709677419
 40
0.9354838709677419
 40
1.0
 40
1.0
 40
1.0
 40
1.0
 10
-31.6985
 20
-4.9423
 30
0.0
 10
-31.6985
 20
-4.9423
 30
0.0
 10
-31.7314
 20
-4.6944
 30
0.0
 10
-31.7314
 20
-4.6944
 30
0.0
 10
-31.7314
 20
-4.6944
 30
0.0
 10
-31.5908
 20
-4.6657
 30
0.0
 10
-31.4897
 20
-4.6172
 30
0.0
 10
-31.4276
 20
-4.549
 30
0.0
 10
-31.4276
 20
-4.549
 30
0.0
 10
-31.3655
 20
-4.4804
 30
0.0
 10
-31.3344
 20
-4.3971
 30
0.0
 10
-31.3344
 20
-4.2988
 30
0.0
 10
-31.3344
 20
-4.2988
 30
0.0
 10
-31.3344
 20
-4.1822
 30
0.0
 10
-31.3749
 20
-4.0834
 30
0.0
 10
-31.4558
 20
-4.0029
 30
0.0
 10
-31.4558
 20
-4.0029
 30
0.0
 10
-31.5367
 20
-3.923
 30
0.0
 10
-31.6369
 20
-3.8825
 30
0.0
 10
-31.7564
 20
-3.8825
 30
0.0
 10
-31.7564
 20
-3.8825
 30
0.0
 10
-31.8702
 20
-3.8825
 30
0.0
 10
-31.9643
 20
-3.9197
 30
0.0
 10
-32.0381
 20
-3.994
 30
0.0
 10
-32.0381
 20
-3.994
 30
0.0
 10
-32.1119
 20
-4.0688
 30
0.0
 10
-32.1491
 20
-4.1633
 30
0.0
 10
-32.1491
 20
-4.2781
 30
0.0
 10
-32.1491
 20
-4.2781
 30
0.0
 10
-32.1491
 20
-4.3251
 30
0.0
 10
-32.1397
 20
-4.3835
 30
0.0
 10
-32.1214
 20
-4.4531
 30
0.0
 10
-32.1214
 20
-4.4531
 30
0.0
 10
-32.1214
 20
-4.4531
 30
0.0
 10
-32.3391
 20
-4.4253
 30
0.0
 10
-32.3391
 20
-4.4253
 30
0.0
 10
-32.3391
 20
-4.4253
 30
0.0
 10
-32.3373
 20
-4.4089
 30
0.0
 10
-32.3363
 20
-4.3957
 30
0.0
 10
-32.3363
 20
-4.3854
 30
0.0
 10
-32.3363
 20
-4.3854
 30
0.0
 10
-32.3363
 20
-4.28
 30
0.0
 10
-32.3641
 20
-4.185
 30
0.0
 10
-32.4191
 20
-4.1003
 30
0.0
 10
-32.4191
 20
-4.1003
 30
0.0
 10
-32.4741
 20
-4.0156
 30
0.0
 10
-32.5593
 20
-3.9733
 30
0.0
 10
-32.674
 20
-3.9733
 30
0.0
 10
-32.674
 20
-3.9733
 30
0.0
 10
-32.7648
 20
-3.9733
 30
0.0
 10
-32.8405
 20
-4.0044
 30
0.0
 10
-32.8998
 20
-4.066
 30
0.0
 10
-32.8998
 20
-4.066
 30
0.0
 10
-32.9595
 20
-4.1276
 30
0.0
 10
-32.9897
 20
-4.2071
 30
0.0
 10
-32.9897
 20
-4.3045
 30
0.0
 10
-32.9897
 20
-4.3045
 30
0.0
 10
-32.9897
 20
-4.4009
 30
0.0
 10
-32.9591
 20
-4.4813
 30
0.0
 10
-32.8989
 20
-4.5453
 30
0.0
 10
-32.8989
 20
-4.5453
 30
0.0
 10
-32.8382
 20
-4.6097
 30
0.0
 10
-32.7469
 20
-4.6511
 30
0.0
 10
-32.6256
 20
-4.6695
 30
0.0
 10
-32.6256
 20
-4.6695
 30
0.0
 10
-32.6256
 20
-4.6695
 30
0.0
 10
-32.6698
 20
-4.9173
 30
0.0
 10
-32.6698
 20
-4.9173
 30
0.0
 10
-32.6698
 20
-4.9173
 30
0.0
 10
-32.8363
 20
-4.8872
 30
0.0
 10
-32.9652
 20
-4.8181
 30
0.0
 10
-33.0564
 20
-4.7108
 30
0.0
 10
-33.0564
 20
-4.7108
 30
0.0
 10
-33.1477
 20
-4.6031
 30
0.0
 10
-33.1938
 20
-4.4695
 30
0.0
 10
-33.1938
 20
-4.3096
 30
0.0
 10
-33.1938
 20
-4.3096
 30
0.0
 10
-33.1938
 20
-4.1996
 30
0.0
 10
-33.1698
 20
-4.098
 30
0.0
 10
-33.1228
 20
-4.0053
 30
0.0
 10
-33.1228
 20
-4.0053
 30
0.0
 10
-33.0753
 20
-3.9126
 30
0.0
 10
-33.0108
 20
-3.8416
 30
0.0
 10
-32.929
 20
-3.7922
 30
0.0
 10
-32.929
 20
-3.7922
 30
0.0
 10
-32.8471
 20
-3.7433
 30
0.0
 10
-32.7606
 20
-3.7184
 30
0.0
 10
-32.6684
 20
-3.7184
 30
0.0
 10
-32.6684
 20
-3.7184
 30
0.0
 10
-32.5814
 20
-3.7184
 30
0.0
 10
-32.5019
 20
-3.7419
 30
0.0
 10
-32.4299
 20
-3.7889
 30
0.0
 10
-32.4299
 20
-3.7889
 30
0.0
 10
-32.3584
 20
-3.836
 30
0.0
 10
-32.3015
 20
-3.9051
 30
0.0
 10
-32.2592
 20
-3.9968
 30
0.0
 10
-32.2592
 20
-3.9968
 30
0.0
 10
-32.2319
 20
-3.8774
 30
0.0
 10
-32.1745
 20
-3.7847
 30
0.0
 10
-32.0875
 20
-3.7184
 30
0.0
 10
-32.0875
 20
-3.7184
 30
0.0
 10
-32.0009
 20
-3.6525
 30
0.0
 10
-31.8923
 20
-3.6196
 30
0.0
 10
-31.762
 20
-3.6196
 30
0.0
 10
-31.762
 20
-3.6196
 30
0.0
 10
-31.5856
 20
-3.6196
 30
0.0
 10
-31.436
 20
-3.6836
 30
0.0
 10
-31.3133
 20
-3.8124
 30
0.0
 10
-31.3133
 20
-3.8124
 30
0.0
 10
-31.1905
 20
-3.9409
 30
0.0
 10
-31.1294
 20
-4.1036
 30
0.0
 10
-31.1294
 20
-4.3002
 30
0.0
 10
-31.1294
 20
-4.3002
 30
0.0
 10
-31.1294
 20
-4.4775
 30
0.0
 10
-31.182
 20
-4.6248
 30
0.0
 10
-31.2879
 20
-4.7419
 30
0.0
 10
-31.2879
 20
-4.7419
 30
0.0
 10
-31.3932
 20
-4.859
 30
0.0
 10
-31.5301
 20
-4.9258
 30
0.0
 10
-31.6985
 20
-4.9423
 30
0.0
  0
SPLINE
  5
F1
330
1F
100
AcDbEntity
  8
AXIS
 62
   250
100
AcDbSpline
210
0.0
220
0.0
230
1.0
 70
    11
 71
     3
 72
    92
 73
    88
 74
     0
 42
0.0000000001
 43
0.0000000001
 40
0.0
 40
0.0
 40
0.0
 40
0.0
 40
0.0434782608695652
 40
0.0434782608695652
 40
0.0434782608695652
 40
0.0434782608695652
 40
0.0869565217391304
 40
0.0869565217391304
 40
0.0869565217391304
 40
0.0869565217391304
 40
0.1304347826086956
 40
0.1304347826086956
 40
0.1304347826086956
 40
0.1304347826086956
 40
0.1739130434782609
 40
0.1739130434782609
 40
0.1739130434782609
 40
0.1739130434782609
 40
0.2173913043478261
 40
0.2173913043478261
 40
0.2173913043478261
 40
0.2173913043478261
 40
0.2608695652173913
 40
0.2608695652173913
 40
0.2608695652173913
 40
0.2608695652173913
 40
0.3043478260869565
 40
0.3043478260869565
 40
0.3043478260869565
 40
0.3043478260869565
 40
0.3478260869565217
 40
0.3478260869565217
 40
0.3478260869565217
 40
0.3478260869565217
 40
0.391304347826087
 40
0.391304347826087
 40
0.391304347826087
 40
0.391304347826087
 40
0.4347826086956522
 40
0.4347826086956522
 40
0.4347826086956522
 40
0.4347826086956522
 40
0.4782608695652174
 40
0.4782608695652174
 40
0.4782608695652174
 40
0.4782608695652174
 40
0.5217391304347826
 40
0.5217391304347826
 40
0.5217391304347826
 40
0.5217391304347826
 40
0.5652173913043478
 40
0.5652173913043478
 40
0.5652173913043478
 40
0.5652173913043478
 40
0.6086956521739131
 40
0.6086956521739131
 40
0.6086956521739131
 40
0.6086956521739131
 40
0.6521739130434783
 40
0.6521739130434783
 40
0.6521739130434783
 40
0.6521739130434783
 40
0.6956521739130435
 40
0.6956521739130435
 40
0.6956521739130435
 40
0.6956521739130435
 40
0.7391304347826086
 40
0.7391304347826086
 40
0.7391304347826086
 40
0.7391304347826086
 40
0.782608695652174
 40
0.782608695652174
 40
0.782608695652174
 40
0.782608695652174
 40
0.8260869565217391
 40
0.8260869565217391
 40
0.8260869565217391
 40
0.8260869565217391
 40
0.8695652173913043
 40
0.8695652173913043
 40
0.8695652173913043
 40
0.8695652173913043
 40
0.9130434782608695
 40
0.9130434782608695
 40
0.9130434782608695
 40
0.9130434782608695
 40
1.0
 40
1.0
 40
1.0
 40
1.0
 10
-31.6943
 20
-3.3741
 30
0.0
 10
-31.6943
 20
-3.3741
 30
0.0
 10
-31.7164
 20
-3.1135
 30
0.0
 10
-31.7164
 20
-3.1135
 30
0.0
 10
-31.7164
 20
-3.1135
 30
0.0
 10
-31.5894
 20
-3.0942
 30
0.0
 10
-31.4944
 20
-3.0495
 30
0.0
 10
-31.4304
 20
-2.9794
 30
0.0
 10
-31.4304
 20
-2.9794
 30
0.0
 10
-31.3664
 20
-2.9089
 30
0.0
 10
-31.3344
 20
-2.8242
 30
0.0
 10
-31.3344
 20
-2.725
 30
0.0
 10
-31.3344
 20
-2.725
 30
0.0
 10
-31.3344
 20
-2.6055
 30
0.0
 10
-31.3796
 20
-2.5044
 30
0.0
 10
-31.4694
 20
-2.4221
 30
0.0
 10
-31.4694
 20
-2.4221
 30
0.0
 10
-31.5597
 20
-2.3393
 30
0.0
 10
-31.6792
 20
-2.2979
 30
0.0
 10
-31.8278
 20
-2.2979
 30
0.0
 10
-31.8278
 20
-2.2979
 30
0.0
 10
-31.9694
 20
-2.2979
 30
0.0
 10
-32.0809
 20
-2.3374
 30
0.0
 10
-32.1627
 20
-2.4169
 30
0.0
 10
-32.1627
 20
-2.4169
 30
0.0
 10
-32.2446
 20
-2.4964
 30
0.0
 10
-32.2855
 20
-2.6003
 30
0.0
 10
-32.2855
 20
-2.7292
 30
0.0
 10
-32.2855
 20
-2.7292
 30
0.0
 10
-32.2855
 20
-2.8092
 30
0.0
 10
-32.2672
 20
-2.8811
 30
0.0
 10
-32.231
 20
-2.9456
 30
0.0
 10
-32.231
 20
-2.9456
 30
0.0
 10
-32.1947
 20
-3.01
 30
0.0
 10
-32.1477
 20
-3.0603
 30
0.0
 10
-32.0898
 20
-3.097
 30
0.0
 10
-32.0898
 20
-3.097
 30
0.0
 10
-32.0898
 20
-3.097
 30
0.0
 10
-32.1199
 20
-3.3299
 30
0.0
 10
-32.1199
 20
-3.3299
 30
0.0
 10
-32.1199
 20
-3.3299
 30
0.0
 10
-32.1199
 20
-3.3299
 30
0.0
 10
-33.1576
 20
-3.1342
 30
0.0
 10
-33.1576
 20
-3.1342
 30
0.0
 10
-33.1576
 20
-3.1342
 30
0.0
 10
-33.1576
 20
-3.1342
 30
0.0
 10
-33.1576
 20
-2.1295
 30
0.0
 10
-33.1576
 20
-2.1295
 30
0.0
 10
-33.1576
 20
-2.1295
 30
0.0
 10
-33.1576
 20
-2.1295
 30
0.0
 10
-32.9205
 20
-2.1295
 30
0.0
 10
-32.9205
 20
-2.1295
 30
0.0
 10
-32.9205
 20
-2.1295
 30
0.0
 10
-32.9205
 20
-2.1295
 30
0.0
 10
-32.9205
 20
-2.9357
 30
0.0
 10
-32.9205
 20
-2.9357
 30
0.0
 10
-32.9205
 20
-2.9357
 30
0.0
 10
-32.9205
 20
-2.9357
 30
0.0
 10
-32.3777
 20
-3.0448
 30
0.0
 10
-32.3777
 20
-3.0448
 30
0.0
 10
-32.3777
 20
-3.0448
 30
0.0
 10
-32.4624
 20
-2.9235
 30
0.0
 10
-32.5047
 20
-2.796
 30
0.0
 10
-32.5047
 20
-2.6629
 30
0.0
 10
-32.5047
 20
-2.6629
 30
0.0
 10
-32.5047
 20
-2.4865
 30
0.0
 10
-32.4436
 20
-2.3379
 30
0.0
 10
-32.3213
 20
-2.2165
 30
0.0
 10
-32.3213
 20
-2.2165
 30
0.0
 10
-32.199
 20
-2.0952
 30
0.0
 10
-32.0419
 20
-2.0345
 30
0.0
 10
-31.85
 20
-2.0345
 30
0.0
 10
-31.85
 20
-2.0345
 30
0.0
 10
-31.667
 20
-2.0345
 30
0.0
 10
-31.5089
 20
-2.0881
 30
0.0
 10
-31.3758
 20
-2.1944
 30
0.0
 10
-31.3758
 20
-2.1944
 30
0.0
 10
-31.2126
 20
-2.3242
 30
0.0
 10
-31.1308
 20
-2.5011
 30
0.0
 10
-31.1308
 20
-2.725
 30
0.0
 10
-31.1308
 20
-2.725
 30
0.0
 10
-31.1308
 20
-2.9089
 30
0.0
 10
-31.182
 20
-3.0589
 30
0.0
 10
-31.285
 20
-3.1751
 30
0.0
 10
-31.285
 20
-3.1751
 30
0.0
 10
-31.3881
 20
-3.2913
 30
0.0
 10
-31.5245
 20
-3.3576
 30
0.0
 10
-31.6943
 20
-3.3741
 30
0.0
  0
SPLINE
  5
F2
330
1F
100
AcDbEntity
  8
AXIS
 62
   250
100
AcDbSpline
210
0.0
220
0.0
230
1.0
 70
    24
 71
     3
 72
     8
 73
     4
 74
     0
 42
0.0000000001
 43
0.0000000001
 40
0.0
 40
0.0
 40
0.0
 40
0.0
 40
1.0
 40
1.0
 40
1.0
 40
1.0
 10
-29.9813
 20
24.3029
 30
0.0
 10
-29.9813
 20
24.3029
 30
0.0
 10
-39.1182
 20
24.3029
 30
0.0
 10
-39.1182
 20
24.3029
 30
0.0
  0
SPLINE
  5
F3
330
1F
100
AcDbEntity
  8
AXIS
  6
NEW_LINE3
 62
   250
100
AcDbSpline
210
0.0
220
0.0
230
1.0
 70
     8
 71
     3
 72
    16
 73
    12
 74
     0
 42
0.0000000001
 43
0.0000000001
 40
0.0
 40
0.0
 40
0.0
 40
0.0
 40
0.25
 40
0.25
 40
0.25
 40
0.25
 40
0.5
 40
0.5
 40
0.5
 40
0.5
 40
1.0
 40
1.0
 40
1.0
 40
1.0
 10
-32.2243
 20
-28.5102
 30
0.0
 10
-32.2243
 20
-28.5102
 30
0.0
 10
-32.7936
 20
-28.8953
 30
0.0
 10
-32.7936
 20
-28.8953
 30
0.0
 10
-32.7936
 20
-28.8953
 30
0.0
 10
-32.7936
 20
-28.8953
 30
0.0
 10
-34.4435
 20
-29.3437
 30
0.0
 10
-34.4435
 20
-29.3437
 30
0.0
 10
-34.4435
 20
-29.3437
 30
0.0
 10
-34.4435
 20
-29.3437
 30
0.0
 10
-39.8097
 20
-30.6489
 30
0.0
 10
-39.8097
 20
-30.6489
 30
0.0
  0
SPLINE
  5
F5
330
1F
100
AcDbEntity
  8
AXIS
 62
   250
100
AcDbSpline
210
0.0
220
0.0
230
1.0
 70
    24
 71
     3
 72
     8
 73
     4
 74
     0
 42
0.0000000001
 43
0.0000000001
 40
0.0
 40
0.0
 40
0.0
 40
0.0
 40
1.0
 40
1.0
 40
1.0
 40
1.0
 10
-29.9271
 20
-30.8718
 30
0.0
 10
-29.9271
 20
-30.8718
 30
0.0
 10
-39.4856
 20
-30.8718
 30
0.0
 10
-39.4856
 20
-30.8718
 30
0.0
  0
SPLINE
  5
F6
330
1F
100
AcDbEntity
  8
AXIS
 62
   250
100
AcDbSpline
210
0.0
220
0.0
230
1.0
 70
    24
 71
     3
 72
     8
 73
     4
 74
     0
 42
0.0000000001
 43
0.0000000001
 40
0.0
 40
0.0
 40
0.0
 40
0.0
 40
1.0
 40
1.0
 40
1.0
 40
1.0
 10
-36.8829
 20
20.6928
 30
0.0
 10
-36.8829
 20
20.6928
 30
0.0
 10
-38.5288
 20
20.0345
 30
0.0
 10
-38.5288
 20
20.0345
 30
0.0
  0
SPLINE
  5
F7
330
1F
100
AcDbEntity
  8
AXIS
 62
   250
100
AcDbSpline
210
0.0
220
0.0
230
1.0
 70
    24
 71
     3
 72
     8
 73
     4
 74
     0
 42
0.0000000001
 43
0.0000000001
 40
0.0
 40
0.0
 40
0.0
 40
0.0
 40
1.0
 40
1.0
 40
1.0
 40
1.0
 10
-38.5288
 20
19.8555
 30
0.0
 10
-38.5288
 20
19.8555
 30
0.0
 10
-36.867
 20
20.5202
 30
0.0
 10
-36.867
 20
20.5202
 30
0.0
  0
SPLINE
  5
F8
330
1F
100
AcDbEntity
  8
AXIS
 62
   250
100
AcDbSpline
210
0.0
220
0.0
230
1.0
 70
    24
 71
     3
 72
     8
 73
     4
 74
     0
 42
0.0000000001
 43
0.0000000001
 40
0.0
 40
0.0
 40
0.0
 40
0.0
 40
1.0
 40
1.0
 40
1.0
 40
1.0
 10
-36.867
 20
20.5202
 30
0.0
 10
-36.867
 20
20.5202
 30
0.0
 10
-35.2053
 20
20.1878
 30
0.0
 10
-35.2053
 20
20.1878
 30
0.0
  0
SPLINE
  5
F9
330
1F
100
AcDbEntity
  8
AXIS
 62
   250
100
AcDbSpline
210
0.0
220
0.0
230
1.0
 70
    24
 71
     3
 72
     8
 73
     4
 74
     0
 42
0.0000000001
 43
0.0000000001
 40
0.0
 40
0.0
 40
0.0
 40
0.0
 40
1.0
 40
1.0
 40
1.0
 40
1.0
 10
-35.1888
 20
20.354
 30
0.0
 10
-35.1888
 20
20.354
 30
0.0
 10
-36.8829
 20
20.6928
 30
0.0
 10
-36.8829
 20
20.6928
 30
0.0
  0
SPLINE
  5
FA
330
1F
100
AcDbEntity
  8
AXIS
 62
   250
100
AcDbSpline
210
0.0
220
0.0
230
1.0
 70
    24
 71
     3
 72
     8
 73
     4
 74
     0
 42
0.0000000001
 43
0.0000000001
 40
0.0
 40
0.0
 40
0.0
 40
0.0
 40
1.0
 40
1.0
 40
1.0
 40
1.0
 10
-40.258
 20
26.6831
 30
0.0
 10
-40.258
 20
26.6831
 30
0.0
 10
-33.1734
 20
23.5343
 30
0.0
 10
-33.1734
 20
23.5343
 30
0.0
  0
SPLINE
  5
FB
330
1F
100
AcDbEntity
  8
AXIS
 62
   250
100
AcDbSpline
210
0.0
220
0.0
230
1.0
 70
    24
 71
     3
 72
     8
 73
     4
 74
     0
 42
0.0000000001
 43
0.0000000001
 40
0.0
 40
0.0
 40
0.0
 40
0.0
 40
1.0
 40
1.0
 40
1.0
 40
1.0
 10
-33.1059
 20
23.6862
 30
0.0
 10
-33.1059
 20
23.6862
 30
0.0
 10
-40.1906
 20
26.8349
 30
0.0
 10
-40.1906
 20
26.8349
 30
0.0
  0
SPLINE
  5
FC
330
1F
100
AcDbEntity
  8
AXIS
 62
   250
100
AcDbSpline
210
0.0
220
0.0
230
1.0
 70
    24
 71
     3
 72
     8
 73
     4
 74
     0
 42
0.0000000001
 43
0.0000000001
 40
0.0
 40
0.0
 40
0.0
 40
0.0
 40
1.0
 40
1.0
 40
1.0
 40
1.0
 10
-35.2053
 20
20.1878
 30
0.0
 10
-35.2053
 20
20.1878
 30
0.0
 10
-33.8483
 20
20.1878
 30
0.0
 10
-33.8483
 20
20.1878
 30
0.0
  0
SPLINE
  5
FD
330
1F
100
AcDbEntity
  8
AXIS
 62
   250
100
AcDbSpline
210
0.0
220
0.0
230
1.0
 70
    24
 71
     3
 72
     8
 73
     4
 74
     0
 42
0.0000000001
 43
0.0000000001
 40
0.0
 40
0.0
 40
0.0
 40
0.0
 40
1.0
 40
1.0
 40
1.0
 40
1.0
 10
-33.8483
 20
20.354
 30
0.0
 10
-33.8483
 20
20.354
 30
0.0
 10
-35.1888
 20
20.354
 30
0.0
 10
-35.1888
 20
20.354
 30
0.0
  0
SPLINE
  5
FE
330
1F
100
AcDbEntity
  8
AXIS
 62
   250
100
AcDbSpline
210
0.0
220
0.0
230
1.0
 70
     8
 71
     3
 72
    12
 73
     8
 74
     0
 42
0.0000000001
 43
0.0000000001
 40
0.0
 40
0.0
 40
0.0
 40
0.0
 40
0.3333333333333333
 40
0.3333333333333333
 40
0.3333333333333333
 40
0.3333333333333333
 40
1.0
 40
1.0
 40
1.0
 40
1.0
 10
-33.8483
 20
20.1878
 30
0.0
 10
-32.985
 20
20.1878
 30
0.0
 10
-32.2394
 20
20.7918
 30
0.0
 10
-32.0602
 20
21.6363
 30
0.0
 10
-32.0602
 20
21.6363
 30
0.0
 10
-31.8809
 20
22.4808
 30
0.0
 10
-32.317
 20
23.3356
 30
0.0
 10
-33.1059
 20
23.6862
 30
0.0
  0
SPLINE
  5
FF
330
1F
100
AcDbEntity
  8
AXIS
 62
   250
100
AcDbSpline
210
0.0
220
0.0
230
1.0
 70
     8
 71
     3
 72
    12
 73
     8
 74
     0
 42
0.0000000001
 43
0.0000000001
 40
0.0
 40
0.0
 40
0.0
 40
0.0
 40
0.3333333333333333
 40
0.3333333333333333
 40
0.3333333333333333
 40
0.3333333333333333
 40
1.0
 40
1.0
 40
1.0
 40
1.0
 10
-33.8483
 20
20.354
 30
0.0
 10
-33.0635
 20
20.354
 30
0.0
 10
-32.3856
 20
20.9031
 30
0.0
 10
-32.2227
 20
21.6708
 30
0.0
 10
-32.2227
 20
21.6708
 30
0.0
 10
-32.0598
 20
22.4385
 30
0.0
 10
-32.4562
 20
23.2156
 30
0.0
 10
-33.1734
 20
23.5343
 30
0.0
  0
SPLINE
  5
100
330
1F
100
AcDbEntity
  8
AXIS
 62
   250
100
AcDbSpline
210
0.0
220
0.0
230
1.0
 70
    24
 71
     3
 72
     8
 73
     4
 74
     0
 42
0.0000000001
 43
0.0000000001
 40
0.0
 40
0.0
 40
0.0
 40
0.0
 40
1.0
 40
1.0
 40
1.0
 40
1.0
 10
-35.2613
 20
-26.508
 30
0.0
 10
-35.2613
 20
-26.508
 30
0.0
 10
-36.9554
 20
-26.8468
 30
0.0
 10
-36.9554
 20
-26.8468
 30
0.0
  0
SPLINE
  5
101
330
1F
100
AcDbEntity
  8
AXIS
 62
   250
100
AcDbSpline
210
0.0
220
0.0
230
1.0
 70
    24
 71
     3
 72
     8
 73
     4
 74
     0
 42
0.0000000001
 43
0.0000000001
 40
0.0
 40
0.0
 40
0.0
 40
0.0
 40
1.0
 40
1.0
 40
1.0
 40
1.0
 10
-36.9395
 20
-26.6742
 30
0.0
 10
-36.9395
 20
-26.6742
 30
0.0
 10
-35.2778
 20
-26.3418
 30
0.0
 10
-35.2778
 20
-26.3418
 30
0.0
  0
SPLINE
  5
102
330
1F
100
AcDbEntity
  8
AXIS
 62
   250
100
AcDbSpline
210
0.0
220
0.0
230
1.0
 70
    24
 71
     3
 72
     8
 73
     4
 74
     0
 42
0.0000000001
 43
0.0000000001
 40
0.0
 40
0.0
 40
0.0
 40
0.0
 40
1.0
 40
1.0
 40
1.0
 40
1.0
 10
-36.9554
 20
-26.8468
 30
0.0
 10
-36.9554
 20
-26.8468
 30
0.0
 10
-38.6013
 20
-26.1884
 30
0.0
 10
-38.6013
 20
-26.1884
 30
0.0
  0
SPLINE
  5
103
330
1F
100
AcDbEntity
  8
AXIS
 62
   250
100
AcDbSpline
210
0.0
220
0.0
230
1.0
 70
    24
 71
     3
 72
     8
 73
     4
 74
     0
 42
0.0000000001
 43
0.0000000001
 40
0.0
 40
0.0
 40
0.0
 40
0.0
 40
1.0
 40
1.0
 40
1.0
 40
1.0
 10
-38.6013
 20
-26.0095
 30
0.0
 10
-38.6013
 20
-26.0095
 30
0.0
 10
-36.9395
 20
-26.6742
 30
0.0
 10
-36.9395
 20
-26.6742
 30
0.0
  0
SPLINE
  5
104
330
1F
100
AcDbEntity
  8
AXIS
 62
   250
100
AcDbSpline
210
0.0
220
0.0
230
1.0
 70
    24
 71
     3
 72
     8
 73
     4
 74
     0
 42
0.0000000001
 43
0.0000000001
 40
0.0
 40
0.0
 40
0.0
 40
0.0
 40
1.0
 40
1.0
 40
1.0
 40
1.0
 10
-40.3305
 20
-32.837
 30
0.0
 10
-40.3305
 20
-32.837
 30
0.0
 10
-33.2459
 20
-29.6883
 30
0.0
 10
-33.2459
 20
-29.6883
 30
0.0
  0
SPLINE
  5
105
330
1F
100
AcDbEntity
  8
AXIS
 62
   250
100
AcDbSpline
210
0.0
220
0.0
230
1.0
 70
    24
 71
     3
 72
     8
 73
     4
 74
     0
 42
0.0000000001
 43
0.0000000001
 40
0.0
 40
0.0
 40
0.0
 40
0.0
 40
1.0
 40
1.0
 40
1.0
 40
1.0
 10
-40.2631
 20
-32.9889
 30
0.0
 10
-40.2631
 20
-32.9889
 30
0.0
 10
-33.1784
 20
-29.8402
 30
0.0
 10
-33.1784
 20
-29.8402
 30
0.0
  0
SPLINE
  5
106
330
1F
100
AcDbEntity
  8
AXIS
 62
   250
100
AcDbSpline
210
0.0
220
0.0
230
1.0
 70
    24
 71
     3
 72
     8
 73
     4
 74
     0
 42
0.0000000001
 43
0.0000000001
 40
0.0
 40
0.0
 40
0.0
 40
0.0
 40
1.0
 40
1.0
 40
1.0
 40
1.0
 10
-33.9208
 20
-26.508
 30
0.0
 10
-33.9208
 20
-26.508
 30
0.0
 10
-35.2613
 20
-26.508
 30
0.0
 10
-35.2613
 20
-26.508
 30
0.0
  0
SPLINE
  5
107
330
1F
100
AcDbEntity
  8
AXIS
 62
   250
100
AcDbSpline
210
0.0
220
0.0
230
1.0
 70
    24
 71
     3
 72
     8
 73
     4
 74
     0
 42
0.0000000001
 43
0.0000000001
 40
0.0
 40
0.0
 40
0.0
 40
0.0
 40
1.0
 40
1.0
 40
1.0
 40
1.0
 10
-35.2778
 20
-26.3418
 30
0.0
 10
-35.2778
 20
-26.3418
 30
0.0
 10
-33.9208
 20
-26.3418
 30
0.0
 10
-33.9208
 20
-26.3418
 30
0.0
  0
SPLINE
  5
108
330
1F
100
AcDbEntity
  8
AXIS
 62
   250
100
AcDbSpline
210
0.0
220
0.0
230
1.0
 70
     8
 71
     3
 72
    12
 73
     8
 74
     0
 42
0.0000000001
 43
0.0000000001
 40
0.0
 40
0.0
 40
0.0
 40
0.0
 40
0.3333333333333333
 40
0.3333333333333333
 40
0.3333333333333333
 40
0.3333333333333333
 40
1.0
 40
1.0
 40
1.0
 40
1.0
 10
-33.1784
 20
-29.8402
 30
0.0
 10
-32.3895
 20
-29.4896
 30
0.0
 10
-31.9534
 20
-28.6348
 30
0.0
 10
-32.1327
 20
-27.7903
 30
0.0
 10
-32.1327
 20
-27.7903
 30
0.0
 10
-32.3119
 20
-26.9458
 30
0.0
 10
-33.0575
 20
-26.3418
 30
0.0
 10
-33.9208
 20
-26.3418
 30
0.0
  0
SPLINE
  5
109
330
1F
100
AcDbEntity
  8
AXIS
 62
   250
100
AcDbSpline
210
0.0
220
0.0
230
1.0
 70
     8
 71
     3
 72
    12
 73
     8
 74
     0
 42
0.0000000001
 43
0.0000000001
 40
0.0
 40
0.0
 40
0.0
 40
0.0
 40
0.3333333333333333
 40
0.3333333333333333
 40
0.3333333333333333
 40
0.3333333333333333
 40
1.0
 40
1.0
 40
1.0
 40
1.0
 10
-33.2459
 20
-29.6883
 30
0.0
 10
-32.5287
 20
-29.3696
 30
0.0
 10
-32.1323
 20
-28.5925
 30
0.0
 10
-32.2952
 20
-27.8248
 30
0.0
 10
-32.2952
 20
-27.8248
 30
0.0
 10
-32.4581
 20
-27.0571
 30
0.0
 10
-33.136
 20
-26.508
 30
0.0
 10
-33.9208
 20
-26.508
 30
0.0
  0
SPLINE
  5
10A
330
1F
100
AcDbEntity
  8
AXIS
 62
   250
100
AcDbSpline
210
0.0
220
0.0
230
1.0
 70
    24
 71
     3
 72
     8
 73
     4
 74
     0
 42
0.0000000001
 43
0.0000000001
 40
0.0
 40
0.0
 40
0.0
 40
0.0
 40
1.0
 40
1.0
 40
1.0
 40
1.0
 10
51.295
 20
-31.0862
 30
0.0
 10
51.295
 20
-31.0862
 30
0.0
 10
51.295
 20
-27.2181
 30
0.0
 10
51.295
 20
-27.2181
 30
0.0
  0
SPLINE
  5
10B
330
1F
100
AcDbEntity
  8
AXIS
 62
   250
100
AcDbSpline
210
0.0
220
0.0
230
1.0
 70
    24
 71
     3
 72
     8
 73
     4
 74
     0
 42
0.0000000001
 43
0.0000000001
 40
0.0
 40
0.0
 40
0.0
 40
0.0
 40
1.0
 40
1.0
 40
1.0
 40
1.0
 10
51.295
 20
-26.2028
 30
0.0
 10
51.295
 20
-26.2028
 30
0.0
 10
51.295
 20
-22.3347
 30
0.0
 10
51.295
 20
-22.3347
 30
0.0
  0
SPLINE
  5
10C
330
1F
100
AcDbEntity
  8
AXIS
 62
   250
100
AcDbSpline
210
0.0
220
0.0
230
1.0
 70
    24
 71
     3
 72
     8
 73
     4
 74
     0
 42
0.0000000001
 43
0.0000000001
 40
0.0
 40
0.0
 40
0.0
 40
0.0
 40
1.0
 40
1.0
 40
1.0
 40
1.0
 10
51.295
 20
-21.3194
 30
0.0
 10
51.295
 20
-21.3194
 30
0.0
 10
51.295
 20
-17.4513
 30
0.0
 10
51.295
 20
-17.4513
 30
0.0
  0
SPLINE
  5
10D
330
1F
100
AcDbEntity
  8
AXIS
 62
   250
100
AcDbSpline
210
0.0
220
0.0
230
1.0
 70
    24
 71
     3
 72
     8
 73
     4
 74
     0
 42
0.0000000001
 43
0.0000000001
 40
0.0
 40
0.0
 40
0.0
 40
0.0
 40
1.0
 40
1.0
 40
1.0
 40
1.0
 10
51.295
 20
-16.436
 30
0.0
 10
51.295
 20
-16.436
 30
0.0
 10
51.295
 20
-12.5679
 30
0.0
 10
51.295
 20
-12.5679
 30
0.0
  0
SPLINE
  5
10E
330
1F
100
AcDbEntity
  8
AXIS
 62
   250
100
AcDbSpline
210
0.0
220
0.0
230
1.0
 70
    24
 71
     3
 72
     8
 73
     4
 74
     0
 42
0.0000000001
 43
0.0000000001
 40
0.0
 40
0.0
 40
0.0
 40
0.0
 40
1.0
 40
1.0
 40
1.0
 40
1.0
 10
51.295
 20
-11.5526
 30
0.0
 10
51.295
 20
-11.5526
 30
0.0
 10
51.295
 20
-7.6845
 30
0.0
 10
51.295
 20
-7.6845
 30
0.0
  0
SPLINE
  5
10F
330
1F
100
AcDbEntity
  8
AXIS
 62
   250
100
AcDbSpline
210
0.0
220
0.0
230
1.0
 70
    24
 71
     3
 72
     8
 73
     4
 74
     0
 42
0.0000000001
 43
0.0000000001
 40
0.0
 40
0.0
 40
0.0
 40
0.0
 40
1.0
 40
1.0
 40
1.0
 40
1.0
 10
51.295
 20
-6.6692
 30
0.0
 10
51.295
 20
-6.6692
 30
0.0
 10
51.295
 20
-2.8011
 30
0.0
 10
51.295
 20
-2.8011
 30
0.0
  0
SPLINE
  5
110
330
1F
100
AcDbEntity
  8
AXIS
 62
   250
100
AcDbSpline
210
0.0
220
0.0
230
1.0
 70
    24
 71
     3
 72
     8
 73
     4
 74
     0
 42
0.0000000001
 43
0.0000000001
 40
0.0
 40
0.0
 40
0.0
 40
0.0
 40
1.0
 40
1.0
 40
1.0
 40
1.0
 10
51.295
 20
-1.7858
 30
0.0
 10
51.295
 20
-1.7858
 30
0.0
 10
51.295
 20
2.0823
 30
0.0
 10
51.295
 20
2.0823
 30
0.0
  0
SPLINE
  5
111
330
1F
100
AcDbEntity
  8
AXIS
 62
   250
100
AcDbSpline
210
0.0
220
0.0
230
1.0
 70
    24
 71
     3
 72
     8
 73
     4
 74
     0
 42
0.0000000001
 43
0.0000000001
 40
0.0
 40
0.0
 40
0.0
 40
0.0
 40
1.0
 40
1.0
 40
1.0
 40
1.0
 10
51.295
 20
3.0976
 30
0.0
 10
51.295
 20
3.0976
 30
0.0
 10
51.295
 20
6.9657
 30
0.0
 10
51.295
 20
6.9657
 30
0.0
  0
SPLINE
  5
112
330
1F
100
AcDbEntity
  8
AXIS
 62
   250
100
AcDbSpline
210
0.0
220
0.0
230
1.0
 70
    24
 71
     3
 72
     8
 73
     4
 74
     0
 42
0.0000000001
 43
0.0000000001
 40
0.0
 40
0.0
 40
0.0
 40
0.0
 40
1.0
 40
1.0
 40
1.0
 40
1.0
 10
51.295
 20
7.981
 30
0.0
 10
51.295
 20
7.981
 30
0.0
 10
51.295
 20
11.8491
 30
0.0
 10
51.295
 20
11.8491
 30
0.0
  0
SPLINE
  5
113
330
1F
100
AcDbEntity
  8
AXIS
 62
   250
100
AcDbSpline
210
0.0
220
0.0
230
1.0
 70
    24
 71
     3
 72
     8
 73
     4
 74
     0
 42
0.0000000001
 43
0.0000000001
 40
0.0
 40
0.0
 40
0.0
 40
0.0
 40
1.0
 40
1.0
 40
1.0
 40
1.0
 10
51.295
 20
12.8644
 30
0.0
 10
51.295
 20
12.8644
 30
0.0
 10
51.295
 20
16.7325
 30
0.0
 10
51.295
 20
16.7325
 30
0.0
  0
SPLINE
  5
114
330
1F
100
AcDbEntity
  8
AXIS
 62
   250
100
AcDbSpline
210
0.0
220
0.0
230
1.0
 70
    24
 71
     3
 72
     8
 73
     4
 74
     0
 42
0.0000000001
 43
0.0000000001
 40
0.0
 40
0.0
 40
0.0
 40
0.0
 40
1.0
 40
1.0
 40
1.0
 40
1.0
 10
51.295
 20
17.7478
 30
0.0
 10
51.295
 20
17.7478
 30
0.0
 10
51.295
 20
21.6159
 30
0.0
 10
51.295
 20
21.6159
 30
0.0
  0
SPLINE
  5
115
330
1F
100
AcDbEntity
  8
AXIS
 62
   250
100
AcDbSpline
210
0.0
220
0.0
230
1.0
 70
    24
 71
     3
 72
     8
 73
     4
 74
     0
 42
0.0000000001
 43
0.0000000001
 40
0.0
 40
0.0
 40
0.0
 40
0.0
 40
1.0
 40
1.0
 40
1.0
 40
1.0
 10
51.295
 20
22.6312
 30
0.0
 10
51.295
 20
22.6312
 30
0.0
 10
51.295
 20
25.1288
 30
0.0
 10
51.295
 20
25.1288
 30
0.0
  0
SPLINE
  5
116
330
1F
100
AcDbEntity
  8
AXIS
 62
   250
100
AcDbSpline
210
0.0
220
0.0
230
1.0
 70
    24
 71
     3
 72
     8
 73
     4
 74
     0
 42
0.0000000001
 43
0.0000000001
 40
0.0
 40
0.0
 40
0.0
 40
0.0
 40
1.0
 40
1.0
 40
1.0
 40
1.0
 10
22.7014
 20
-31.0862
 30
0.0
 10
22.7014
 20
-31.0862
 30
0.0
 10
51.295
 20
-31.0862
 30
0.0
 10
51.295
 20
-31.0862
 30
0.0
  0
SPLINE
  5
117
330
1F
100
AcDbEntity
  8
AXIS
 62
   250
100
AcDbSpline
210
0.0
220
0.0
230
1.0
 70
    24
 71
     3
 72
     8
 73
     4
 74
     0
 42
0.0000000001
 43
0.0000000001
 40
0.0
 40
0.0
 40
0.0
 40
0.0
 40
1.0
 40
1.0
 40
1.0
 40
1.0
 10
27.2848
 20
-29.1521
 30
0.0
 10
27.2848
 20
-29.1521
 30
0.0
 10
27.991
 20
-29.1521
 30
0.0
 10
27.991
 20
-29.1521
 30
0.0
  0
SPLINE
  5
118
330
1F
100
AcDbEntity
  8
AXIS
 62
   250
100
AcDbSpline
210
0.0
220
0.0
230
1.0
 70
    24
 71
     3
 72
     8
 73
     4
 74
     0
 42
0.0000000001
 43
0.0000000001
 40
0.0
 40
0.0
 40
0.0
 40
0.0
 40
1.0
 40
1.0
 40
1.0
 40
1.0
 10
22.7346
 20
-27.8374
 30
0.0
 10
22.7346
 20
-27.8374
 30
0.0
 10
27.2848
 20
-27.8374
 30
0.0
 10
27.2848
 20
-27.8374
 30
0.0
  0
SPLINE
  5
119
330
1F
100
AcDbEntity
  8
AXIS
 62
   250
100
AcDbSpline
210
0.0
220
0.0
230
1.0
 70
    24
 71
     3
 72
     8
 73
     4
 74
     0
 42
0.0000000001
 43
0.0000000001
 40
0.0
 40
0.0
 40
0.0
 40
0.0
 40
1.0
 40
1.0
 40
1.0
 40
1.0
 10
27.991
 20
-27.8374
 30
0.0
 10
27.991
 20
-27.8374
 30
0.0
 10
51.295
 20
-27.8374
 30
0.0
 10
51.295
 20
-27.8374
 30
0.0
  0
SPLINE
  5
11A
330
1F
100
AcDbEntity
  8
AXIS
 62
   250
100
AcDbSpline
210
0.0
220
0.0
230
1.0
 70
    24
 71
     3
 72
     8
 73
     4
 74
     0
 42
0.0000000001
 43
0.0000000001
 40
0.0
 40
0.0
 40
0.0
 40
0.0
 40
1.0
 40
1.0
 40
1.0
 40
1.0
 10
22.7676
 20
-27.2181
 30
0.0
 10
22.7676
 20
-27.2181
 30
0.0
 10
51.295
 20
-27.2181
 30
0.0
 10
51.295
 20
-27.2181
 30
0.0
  0
SPLINE
  5
11B
330
1F
100
AcDbEntity
  8
AXIS
 62
   250
100
AcDbSpline
210
0.0
220
0.0
230
1.0
 70
    24
 71
     3
 72
     8
 73
     4
 74
     0
 42
0.0000000001
 43
0.0000000001
 40
0.0
 40
0.0
 40
0.0
 40
0.0
 40
1.0
 40
1.0
 40
1.0
 40
1.0
 10
22.8007
 20
-26.2028
 30
0.0
 10
22.8007
 20
-26.2028
 30
0.0
 10
51.295
 20
-26.2028
 30
0.0
 10
51.295
 20
-26.2028
 30
0.0
  0
SPLINE
  5
11C
330
1F
100
AcDbEntity
  8
AXIS
 62
   250
100
AcDbSpline
210
0.0
220
0.0
230
1.0
 70
    24
 71
     3
 72
     8
 73
     4
 74
     0
 42
0.0000000001
 43
0.0000000001
 40
0.0
 40
0.0
 40
0.0
 40
0.0
 40
1.0
 40
1.0
 40
1.0
 40
1.0
 10
27.2848
 20
-24.2687
 30
0.0
 10
27.2848
 20
-24.2687
 30
0.0
 10
27.991
 20
-24.2687
 30
0.0
 10
27.991
 20
-24.2687
 30
0.0
  0
SPLINE
  5
11D
330
1F
100
AcDbEntity
  8
AXIS
 62
   250
100
AcDbSpline
210
0.0
220
0.0
230
1.0
 70
    24
 71
     3
 72
     8
 73
     4
 74
     0
 42
0.0000000001
 43
0.0000000001
 40
0.0
 40
0.0
 40
0.0
 40
0.0
 40
1.0
 40
1.0
 40
1.0
 40
1.0
 10
22.6353
 20
-22.954
 30
0.0
 10
22.6353
 20
-22.954
 30
0.0
 10
27.2849
 20
-22.954
 30
0.0
 10
27.2849
 20
-22.954
 30
0.0
  0
SPLINE
  5
11E
330
1F
100
AcDbEntity
  8
AXIS
 62
   250
100
AcDbSpline
210
0.0
220
0.0
230
1.0
 70
    24
 71
     3
 72
     8
 73
     4
 74
     0
 42
0.0000000001
 43
0.0000000001
 40
0.0
 40
0.0
 40
0.0
 40
0.0
 40
1.0
 40
1.0
 40
1.0
 40
1.0
 10
27.991
 20
-22.954
 30
0.0
 10
27.991
 20
-22.954
 30
0.0
 10
51.295
 20
-22.954
 30
0.0
 10
51.295
 20
-22.954
 30
0.0
  0
SPLINE
  5
11F
330
1F
100
AcDbEntity
  8
AXIS
 62
   250
100
AcDbSpline
210
0.0
220
0.0
230
1.0
 70
    24
 71
     3
 72
     8
 73
     4
 74
     0
 42
0.0000000001
 43
0.0000000001
 40
0.0
 40
0.0
 40
0.0
 40
0.0
 40
1.0
 40
1.0
 40
1.0
 40
1.0
 10
22.6683
 20
-22.3347
 30
0.0
 10
22.6683
 20
-22.3347
 30
0.0
 10
51.295
 20
-22.3347
 30
0.0
 10
51.295
 20
-22.3347
 30
0.0
  0
SPLINE
  5
120
330
1F
100
AcDbEntity
  8
AXIS
 62
   250
100
AcDbSpline
210
0.0
220
0.0
230
1.0
 70
    24
 71
     3
 72
     8
 73
     4
 74
     0
 42
0.0000000001
 43
0.0000000001
 40
0.0
 40
0.0
 40
0.0
 40
0.0
 40
1.0
 40
1.0
 40
1.0
 40
1.0
 10
22.6683
 20
-21.3194
 30
0.0
 10
22.6683
 20
-21.3194
 30
0.0
 10
51.295
 20
-21.3194
 30
0.0
 10
51.295
 20
-21.3194
 30
0.0
  0
SPLINE
  5
121
330
1F
100
AcDbEntity
  8
AXIS
 62
   250
100
AcDbSpline
210
0.0
220
0.0
230
1.0
 70
    24
 71
     3
 72
     8
 73
     4
 74
     0
 42
0.0000000001
 43
0.0000000001
 40
0.0
 40
0.0
 40
0.0
 40
0.0
 40
1.0
 40
1.0
 40
1.0
 40
1.0
 10
27.2848
 20
-19.3853
 30
0.0
 10
27.2848
 20
-19.3853
 30
0.0
 10
27.991
 20
-19.3853
 30
0.0
 10
27.991
 20
-19.3853
 30
0.0
  0
SPLINE
  5
122
330
1F
100
AcDbEntity
  8
AXIS
 62
   250
100
AcDbSpline
210
0.0
220
0.0
230
1.0
 70
    24
 71
     3
 72
     8
 73
     4
 74
     0
 42
0.0000000001
 43
0.0000000001
 40
0.0
 40
0.0
 40
0.0
 40
0.0
 40
1.0
 40
1.0
 40
1.0
 40
1.0
 10
22.8006
 20
-18.0706
 30
0.0
 10
22.8006
 20
-18.0706
 30
0.0
 10
27.2848
 20
-18.0706
 30
0.0
 10
27.2848
 20
-18.0706
 30
0.0
  0
SPLINE
  5
123
330
1F
100
AcDbEntity
  8
AXIS
 62
   250
100
AcDbSpline
210
0.0
220
0.0
230
1.0
 70
    24
 71
     3
 72
     8
 73
     4
 74
     0
 42
0.0000000001
 43
0.0000000001
 40
0.0
 40
0.0
 40
0.0
 40
0.0
 40
1.0
 40
1.0
 40
1.0
 40
1.0
 10
27.991
 20
-18.0706
 30
0.0
 10
27.991
 20
-18.0706
 30
0.0
 10
51.295
 20
-18.0706
 30
0.0
 10
51.295
 20
-18.0706
 30
0.0
  0
SPLINE
  5
124
330
1F
100
AcDbEntity
  8
AXIS
 62
   250
100
AcDbSpline
210
0.0
220
0.0
230
1.0
 70
    24
 71
     3
 72
     8
 73
     4
 74
     0
 42
0.0000000001
 43
0.0000000001
 40
0.0
 40
0.0
 40
0.0
 40
0.0
 40
1.0
 40
1.0
 40
1.0
 40
1.0
 10
22.7345
 20
-17.4513
 30
0.0
 10
22.7345
 20
-17.4513
 30
0.0
 10
51.295
 20
-17.4513
 30
0.0
 10
51.295
 20
-17.4513
 30
0.0
  0
SPLINE
  5
125
330
1F
100
AcDbEntity
  8
AXIS
 62
   250
100
AcDbSpline
210
0.0
220
0.0
230
1.0
 70
    24
 71
     3
 72
     8
 73
     4
 74
     0
 42
0.0000000001
 43
0.0000000001
 40
0.0
 40
0.0
 40
0.0
 40
0.0
 40
1.0
 40
1.0
 40
1.0
 40
1.0
 10
22.7345
 20
-16.436
 30
0.0
 10
22.7345
 20
-16.436
 30
0.0
 10
51.295
 20
-16.436
 30
0.0
 10
51.295
 20
-16.436
 30
0.0
  0
SPLINE
  5
126
330
1F
100
AcDbEntity
  8
AXIS
 62
   250
100
AcDbSpline
210
0.0
220
0.0
230
1.0
 70
    24
 71
     3
 72
     8
 73
     4
 74
     0
 42
0.0000000001
 43
0.0000000001
 40
0.0
 40
0.0
 40
0.0
 40
0.0
 40
1.0
 40
1.0
 40
1.0
 40
1.0
 10
27.2848
 20
-14.5019
 30
0.0
 10
27.2848
 20
-14.5019
 30
0.0
 10
27.991
 20
-14.5019
 30
0.0
 10
27.991
 20
-14.5019
 30
0.0
  0
SPLINE
  5
127
330
1F
100
AcDbEntity
  8
AXIS
 62
   250
100
AcDbSpline
210
0.0
220
0.0
230
1.0
 70
    24
 71
     3
 72
     8
 73
     4
 74
     0
 42
0.0000000001
 43
0.0000000001
 40
0.0
 40
0.0
 40
0.0
 40
0.0
 40
1.0
 40
1.0
 40
1.0
 40
1.0
 10
22.8006
 20
-13.1872
 30
0.0
 10
22.8006
 20
-13.1872
 30
0.0
 10
27.2848
 20
-13.1872
 30
0.0
 10
27.2848
 20
-13.1872
 30
0.0
  0
SPLINE
  5
128
330
1F
100
AcDbEntity
  8
AXIS
 62
   250
100
AcDbSpline
210
0.0
220
0.0
230
1.0
 70
    24
 71
     3
 72
     8
 73
     4
 74
     0
 42
0.0000000001
 43
0.0000000001
 40
0.0
 40
0.0
 40
0.0
 40
0.0
 40
1.0
 40
1.0
 40
1.0
 40
1.0
 10
27.991
 20
-13.1872
 30
0.0
 10
27.991
 20
-13.1872
 30
0.0
 10
51.295
 20
-13.1872
 30
0.0
 10
51.295
 20
-13.1872
 30
0.0
  0
SPLINE
  5
129
330
1F
100
AcDbEntity
  8
AXIS
 62
   250
100
AcDbSpline
210
0.0
220
0.0
230
1.0
 70
    24
 71
     3
 72
     8
 73
     4
 74
     0
 42
0.0000000001
 43
0.0000000001
 40
0.0
 40
0.0
 40
0.0
 40
0.0
 40
1.0
 40
1.0
 40
1.0
 40
1.0
 10
22.7345
 20
-12.5679
 30
0.0
 10
22.7345
 20
-12.5679
 30
0.0
 10
51.295
 20
-12.5679
 30
0.0
 10
51.295
 20
-12.5679
 30
0.0
  0
SPLINE
  5
12A
330
1F
100
AcDbEntity
  8
AXIS
 62
   250
100
AcDbSpline
210
0.0
220
0.0
230
1.0
 70
    24
 71
     3
 72
     8
 73
     4
 74
     0
 42
0.0000000001
 43
0.0000000001
 40
0.0
 40
0.0
 40
0.0
 40
0.0
 40
1.0
 40
1.0
 40
1.0
 40
1.0
 10
22.7345
 20
-11.5526
 30
0.0
 10
22.7345
 20
-11.5526
 30
0.0
 10
51.295
 20
-11.5526
 30
0.0
 10
51.295
 20
-11.5526
 30
0.0
  0
SPLINE
  5
12B
330
1F
100
AcDbEntity
  8
AXIS
 62
   250
100
AcDbSpline
210
0.0
220
0.0
230
1.0
 70
    24
 71
     3
 72
     8
 73
     4
 74
     0
 42
0.0000000001
 43
0.0000000001
 40
0.0
 40
0.0
 40
0.0
 40
0.0
 40
1.0
 40
1.0
 40
1.0
 40
1.0
 10
27.2848
 20
-9.6186
 30
0.0
 10
27.2848
 20
-9.6186
 30
0.0
 10
27.991
 20
-9.6186
 30
0.0
 10
27.991
 20
-9.6186
 30
0.0
  0
SPLINE
  5
12C
330
1F
100
AcDbEntity
  8
AXIS
 62
   250
100
AcDbSpline
210
0.0
220
0.0
230
1.0
 70
    24
 71
     3
 72
     8
 73
     4
 74
     0
 42
0.0000000001
 43
0.0000000001
 40
0.0
 40
0.0
 40
0.0
 40
0.0
 40
1.0
 40
1.0
 40
1.0
 40
1.0
 10
27.991
 20
-29.1521
 30
0.0
 10
27.991
 20
-29.1521
 30
0.0
 10
27.991
 20
-27.2181
 30
0.0
 10
27.991
 20
-27.2181
 30
0.0
  0
SPLINE
  5
12D
330
1F
100
AcDbEntity
  8
AXIS
 62
   250
100
AcDbSpline
210
0.0
220
0.0
230
1.0
 70
    24
 71
     3
 72
     8
 73
     4
 74
     0
 42
0.0000000001
 43
0.0000000001
 40
0.0
 40
0.0
 40
0.0
 40
0.0
 40
1.0
 40
1.0
 40
1.0
 40
1.0
 10
27.991
 20
-24.2687
 30
0.0
 10
27.991
 20
-24.2687
 30
0.0
 10
27.991
 20
-22.3347
 30
0.0
 10
27.991
 20
-22.3347
 30
0.0
  0
SPLINE
  5
12E
330
1F
100
AcDbEntity
  8
AXIS
 62
   250
100
AcDbSpline
210
0.0
220
0.0
230
1.0
 70
    24
 71
     3
 72
     8
 73
     4
 74
     0
 42
0.0000000001
 43
0.0000000001
 40
0.0
 40
0.0
 40
0.0
 40
0.0
 40
1.0
 40
1.0
 40
1.0
 40
1.0
 10
27.991
 20
-19.3853
 30
0.0
 10
27.991
 20
-19.3853
 30
0.0
 10
27.991
 20
-17.4513
 30
0.0
 10
27.991
 20
-17.4513
 30
0.0
  0
SPLINE
  5
12F
330
1F
100
AcDbEntity
  8
AXIS
 62
   250
100
AcDbSpline
210
0.0
220
0.0
230
1.0
 70
    24
 71
     3
 72
     8
 73
     4
 74
     0
 42
0.0000000001
 43
0.0000000001
 40
0.0
 40
0.0
 40
0.0
 40
0.0
 40
1.0
 40
1.0
 40
1.0
 40
1.0
 10
27.991
 20
-14.5019
 30
0.0
 10
27.991
 20
-14.5019
 30
0.0
 10
27.991
 20
-12.5679
 30
0.0
 10
27.991
 20
-12.5679
 30
0.0
  0
SPLINE
  5
130
330
1F
100
AcDbEntity
  8
AXIS
 62
   250
100
AcDbSpline
210
0.0
220
0.0
230
1.0
 70
    24
 71
     3
 72
     8
 73
     4
 74
     0
 42
0.0000000001
 43
0.0000000001
 40
0.0
 40
0.0
 40
0.0
 40
0.0
 40
1.0
 40
1.0
 40
1.0
 40
1.0
 10
27.991
 20
-9.6186
 30
0.0
 10
27.991
 20
-9.6186
 30
0.0
 10
27.991
 20
-7.6845
 30
0.0
 10
27.991
 20
-7.6845
 30
0.0
  0
SPLINE
  5
131
330
1F
100
AcDbEntity
  8
AXIS
 62
   250
100
AcDbSpline
210
0.0
220
0.0
230
1.0
 70
    24
 71
     3
 72
     8
 73
     4
 74
     0
 42
0.0000000001
 43
0.0000000001
 40
0.0
 40
0.0
 40
0.0
 40
0.0
 40
1.0
 40
1.0
 40
1.0
 40
1.0
 10
27.991
 20
-4.7352
 30
0.0
 10
27.991
 20
-4.7352
 30
0.0
 10
27.991
 20
-2.8011
 30
0.0
 10
27.991
 20
-2.8011
 30
0.0
  0
SPLINE
  5
132
330
1F
100
AcDbEntity
  8
AXIS
 62
   250
100
AcDbSpline
210
0.0
220
0.0
230
1.0
 70
    24
 71
     3
 72
     8
 73
     4
 74
     0
 42
0.0000000001
 43
0.0000000001
 40
0.0
 40
0.0
 40
0.0
 40
0.0
 40
1.0
 40
1.0
 40
1.0
 40
1.0
 10
27.991
 20
0.1482
 30
0.0
 10
27.991
 20
0.1482
 30
0.0
 10
27.991
 20
2.0823
 30
0.0
 10
27.991
 20
2.0823
 30
0.0
  0
SPLINE
  5
133
330
1F
100
AcDbEntity
  8
AXIS
 62
   250
100
AcDbSpline
210
0.0
220
0.0
230
1.0
 70
    24
 71
     3
 72
     8
 73
     4
 74
     0
 42
0.0000000001
 43
0.0000000001
 40
0.0
 40
0.0
 40
0.0
 40
0.0
 40
1.0
 40
1.0
 40
1.0
 40
1.0
 10
27.991
 20
5.0317
 30
0.0
 10
27.991
 20
5.0317
 30
0.0
 10
27.991
 20
6.9657
 30
0.0
 10
27.991
 20
6.9657
 30
0.0
  0
SPLINE
  5
134
330
1F
100
AcDbEntity
  8
AXIS
 62
   250
100
AcDbSpline
210
0.0
220
0.0
230
1.0
 70
    24
 71
     3
 72
     8
 73
     4
 74
     0
 42
0.0000000001
 43
0.0000000001
 40
0.0
 40
0.0
 40
0.0
 40
0.0
 40
1.0
 40
1.0
 40
1.0
 40
1.0
 10
27.991
 20
9.9151
 30
0.0
 10
27.991
 20
9.9151
 30
0.0
 10
27.991
 20
11.8491
 30
0.0
 10
27.991
 20
11.8491
 30
0.0
  0
SPLINE
  5
135
330
1F
100
AcDbEntity
  8
AXIS
 62
   250
100
AcDbSpline
210
0.0
220
0.0
230
1.0
 70
    24
 71
     3
 72
     8
 73
     4
 74
     0
 42
0.0000000001
 43
0.0000000001
 40
0.0
 40
0.0
 40
0.0
 40
0.0
 40
1.0
 40
1.0
 40
1.0
 40
1.0
 10
27.991
 20
14.7985
 30
0.0
 10
27.991
 20
14.7985
 30
0.0
 10
27.991
 20
16.7325
 30
0.0
 10
27.991
 20
16.7325
 30
0.0
  0
SPLINE
  5
136
330
1F
100
AcDbEntity
  8
AXIS
 62
   250
100
AcDbSpline
210
0.0
220
0.0
230
1.0
 70
    24
 71
     3
 72
     8
 73
     4
 74
     0
 42
0.0000000001
 43
0.0000000001
 40
0.0
 40
0.0
 40
0.0
 40
0.0
 40
1.0
 40
1.0
 40
1.0
 40
1.0
 10
27.991
 20
19.6819
 30
0.0
 10
27.991
 20
19.6819
 30
0.0
 10
27.991
 20
21.6159
 30
0.0
 10
27.991
 20
21.6159
 30
0.0
  0
SPLINE
  5
137
330
1F
100
AcDbEntity
  8
AXIS
 62
   250
100
AcDbSpline
210
0.0
220
0.0
230
1.0
 70
    24
 71
     3
 72
     8
 73
     4
 74
     0
 42
0.0000000001
 43
0.0000000001
 40
0.0
 40
0.0
 40
0.0
 40
0.0
 40
1.0
 40
1.0
 40
1.0
 40
1.0
 10
27.2848
 20
-29.1521
 30
0.0
 10
27.2848
 20
-29.1521
 30
0.0
 10
27.2848
 20
-27.2181
 30
0.0
 10
27.2848
 20
-27.2181
 30
0.0
  0
SPLINE
  5
138
330
1F
100
AcDbEntity
  8
AXIS
 62
   250
100
AcDbSpline
210
0.0
220
0.0
230
1.0
 70
    24
 71
     3
 72
     8
 73
     4
 74
     0
 42
0.0000000001
 43
0.0000000001
 40
0.0
 40
0.0
 40
0.0
 40
0.0
 40
1.0
 40
1.0
 40
1.0
 40
1.0
 10
27.2848
 20
-24.2687
 30
0.0
 10
27.2848
 20
-24.2687
 30
0.0
 10
27.2848
 20
-22.3347
 30
0.0
 10
27.2848
 20
-22.3347
 30
0.0
  0
SPLINE
  5
139
330
1F
100
AcDbEntity
  8
AXIS
 62
   250
100
AcDbSpline
210
0.0
220
0.0
230
1.0
 70
    24
 71
     3
 72
     8
 73
     4
 74
     0
 42
0.0000000001
 43
0.0000000001
 40
0.0
 40
0.0
 40
0.0
 40
0.0
 40
1.0
 40
1.0
 40
1.0
 40
1.0
 10
27.2848
 20
-19.3853
 30
0.0
 10
27.2848
 20
-19.3853
 30
0.0
 10
27.2848
 20
-17.4513
 30
0.0
 10
27.2848
 20
-17.4513
 30
0.0
  0
SPLINE
  5
13A
330
1F
100
AcDbEntity
  8
AXIS
 62
   250
100
AcDbSpline
210
0.0
220
0.0
230
1.0
 70
    24
 71
     3
 72
     8
 73
     4
 74
     0
 42
0.0000000001
 43
0.0000000001
 40
0.0
 40
0.0
 40
0.0
 40
0.0
 40
1.0
 40
1.0
 40
1.0
 40
1.0
 10
27.2848
 20
-14.5019
 30
0.0
 10
27.2848
 20
-14.5019
 30
0.0
 10
27.2848
 20
-12.5679
 30
0.0
 10
27.2848
 20
-12.5679
 30
0.0
  0
SPLINE
  5
13B
330
1F
100
AcDbEntity
  8
AXIS
 62
   250
100
AcDbSpline
210
0.0
220
0.0
230
1.0
 70
    24
 71
     3
 72
     8
 73
     4
 74
     0
 42
0.0000000001
 43
0.0000000001
 40
0.0
 40
0.0
 40
0.0
 40
0.0
 40
1.0
 40
1.0
 40
1.0
 40
1.0
 10
27.2848
 20
-9.6186
 30
0.0
 10
27.2848
 20
-9.6186
 30
0.0
 10
27.2848
 20
-7.6845
 30
0.0
 10
27.2848
 20
-7.6845
 30
0.0
  0
SPLINE
  5
13C
330
1F
100
AcDbEntity
  8
AXIS
 62
   250
100
AcDbSpline
210
0.0
220
0.0
230
1.0
 70
    24
 71
     3
 72
     8
 73
     4
 74
     0
 42
0.0000000001
 43
0.0000000001
 40
0.0
 40
0.0
 40
0.0
 40
0.0
 40
1.0
 40
1.0
 40
1.0
 40
1.0
 10
27.2848
 20
-4.7352
 30
0.0
 10
27.2848
 20
-4.7352
 30
0.0
 10
27.2848
 20
-2.8011
 30
0.0
 10
27.2848
 20
-2.8011
 30
0.0
  0
SPLINE
  5
13D
330
1F
100
AcDbEntity
  8
AXIS
 62
   250
100
AcDbSpline
210
0.0
220
0.0
230
1.0
 70
    24
 71
     3
 72
     8
 73
     4
 74
     0
 42
0.0000000001
 43
0.0000000001
 40
0.0
 40
0.0
 40
0.0
 40
0.0
 40
1.0
 40
1.0
 40
1.0
 40
1.0
 10
27.2848
 20
0.1482
 30
0.0
 10
27.2848
 20
0.1482
 30
0.0
 10
27.2848
 20
2.0823
 30
0.0
 10
27.2848
 20
2.0823
 30
0.0
  0
SPLINE
  5
13E
330
1F
100
AcDbEntity
  8
AXIS
 62
   250
100
AcDbSpline
210
0.0
220
0.0
230
1.0
 70
    24
 71
     3
 72
     8
 73
     4
 74
     0
 42
0.0000000001
 43
0.0000000001
 40
0.0
 40
0.0
 40
0.0
 40
0.0
 40
1.0
 40
1.0
 40
1.0
 40
1.0
 10
27.2848
 20
5.0317
 30
0.0
 10
27.2848
 20
5.0317
 30
0.0
 10
27.2848
 20
6.9657
 30
0.0
 10
27.2848
 20
6.9657
 30
0.0
  0
SPLINE
  5
13F
330
1F
100
AcDbEntity
  8
AXIS
 62
   250
100
AcDbSpline
210
0.0
220
0.0
230
1.0
 70
    24
 71
     3
 72
     8
 73
     4
 74
     0
 42
0.0000000001
 43
0.0000000001
 40
0.0
 40
0.0
 40
0.0
 40
0.0
 40
1.0
 40
1.0
 40
1.0
 40
1.0
 10
27.2848
 20
9.9151
 30
0.0
 10
27.2848
 20
9.9151
 30
0.0
 10
27.2848
 20
11.8491
 30
0.0
 10
27.2848
 20
11.8491
 30
0.0
  0
SPLINE
  5
140
330
1F
100
AcDbEntity
  8
AXIS
 62
   250
100
AcDbSpline
210
0.0
220
0.0
230
1.0
 70
    24
 71
     3
 72
     8
 73
     4
 74
     0
 42
0.0000000001
 43
0.0000000001
 40
0.0
 40
0.0
 40
0.0
 40
0.0
 40
1.0
 40
1.0
 40
1.0
 40
1.0
 10
27.2848
 20
14.7985
 30
0.0
 10
27.2848
 20
14.7985
 30
0.0
 10
27.2848
 20
16.7325
 30
0.0
 10
27.2848
 20
16.7325
 30
0.0
  0
SPLINE
  5
141
330
1F
100
AcDbEntity
  8
AXIS
 62
   250
100
AcDbSpline
210
0.0
220
0.0
230
1.0
 70
    24
 71
     3
 72
     8
 73
     4
 74
     0
 42
0.0000000001
 43
0.0000000001
 40
0.0
 40
0.0
 40
0.0
 40
0.0
 40
1.0
 40
1.0
 40
1.0
 40
1.0
 10
27.2848
 20
19.6819
 30
0.0
 10
27.2848
 20
19.6819
 30
0.0
 10
27.2848
 20
21.6159
 30
0.0
 10
27.2848
 20
21.6159
 30
0.0
  0
SPLINE
  5
142
330
1F
100
AcDbEntity
  8
AXIS
 62
   250
100
AcDbSpline
210
0.0
220
0.0
230
1.0
 70
    24
 71
     3
 72
     8
 73
     4
 74
     0
 42
0.0000000001
 43
0.0000000001
 40
0.0
 40
0.0
 40
0.0
 40
0.0
 40
1.0
 40
1.0
 40
1.0
 40
1.0
 10
22.8006
 20
-8.3038
 30
0.0
 10
22.8006
 20
-8.3038
 30
0.0
 10
27.2848
 20
-8.3038
 30
0.0
 10
27.2848
 20
-8.3038
 30
0.0
  0
SPLINE
  5
143
330
1F
100
AcDbEntity
  8
AXIS
 62
   250
100
AcDbSpline
210
0.0
220
0.0
230
1.0
 70
    24
 71
     3
 72
     8
 73
     4
 74
     0
 42
0.0000000001
 43
0.0000000001
 40
0.0
 40
0.0
 40
0.0
 40
0.0
 40
1.0
 40
1.0
 40
1.0
 40
1.0
 10
27.991
 20
-8.3038
 30
0.0
 10
27.991
 20
-8.3038
 30
0.0
 10
51.295
 20
-8.3038
 30
0.0
 10
51.295
 20
-8.3038
 30
0.0
  0
SPLINE
  5
144
330
1F
100
AcDbEntity
  8
AXIS
 62
   250
100
AcDbSpline
210
0.0
220
0.0
230
1.0
 70
    24
 71
     3
 72
     8
 73
     4
 74
     0
 42
0.0000000001
 43
0.0000000001
 40
0.0
 40
0.0
 40
0.0
 40
0.0
 40
1.0
 40
1.0
 40
1.0
 40
1.0
 10
22.7345
 20
-7.6845
 30
0.0
 10
22.7345
 20
-7.6845
 30
0.0
 10
51.295
 20
-7.6845
 30
0.0
 10
51.295
 20
-7.6845
 30
0.0
  0
SPLINE
  5
145
330
1F
100
AcDbEntity
  8
AXIS
 62
   250
100
AcDbSpline
210
0.0
220
0.0
230
1.0
 70
    24
 71
     3
 72
     8
 73
     4
 74
     0
 42
0.0000000001
 43
0.0000000001
 40
0.0
 40
0.0
 40
0.0
 40
0.0
 40
1.0
 40
1.0
 40
1.0
 40
1.0
 10
22.7345
 20
-6.6692
 30
0.0
 10
22.7345
 20
-6.6692
 30
0.0
 10
51.295
 20
-6.6692
 30
0.0
 10
51.295
 20
-6.6692
 30
0.0
  0
SPLINE
  5
146
330
1F
100
AcDbEntity
  8
AXIS
 62
   250
100
AcDbSpline
210
0.0
220
0.0
230
1.0
 70
    24
 71
     3
 72
     8
 73
     4
 74
     0
 42
0.0000000001
 43
0.0000000001
 40
0.0
 40
0.0
 40
0.0
 40
0.0
 40
1.0
 40
1.0
 40
1.0
 40
1.0
 10
27.2848
 20
-4.7352
 30
0.0
 10
27.2848
 20
-4.7352
 30
0.0
 10
27.991
 20
-4.7352
 30
0.0
 10
27.991
 20
-4.7352
 30
0.0
  0
SPLINE
  5
147
330
1F
100
AcDbEntity
  8
AXIS
 62
   250
100
AcDbSpline
210
0.0
220
0.0
230
1.0
 70
    24
 71
     3
 72
     8
 73
     4
 74
     0
 42
0.0000000001
 43
0.0000000001
 40
0.0
 40
0.0
 40
0.0
 40
0.0
 40
1.0
 40
1.0
 40
1.0
 40
1.0
 10
22.8006
 20
-3.4204
 30
0.0
 10
22.8006
 20
-3.4204
 30
0.0
 10
27.2848
 20
-3.4204
 30
0.0
 10
27.2848
 20
-3.4204
 30
0.0
  0
SPLINE
  5
148
330
1F
100
AcDbEntity
  8
AXIS
 62
   250
100
AcDbSpline
210
0.0
220
0.0
230
1.0
 70
    24
 71
     3
 72
     8
 73
     4
 74
     0
 42
0.0000000001
 43
0.0000000001
 40
0.0
 40
0.0
 40
0.0
 40
0.0
 40
1.0
 40
1.0
 40
1.0
 40
1.0
 10
27.991
 20
-3.4204
 30
0.0
 10
27.991
 20
-3.4204
 30
0.0
 10
51.295
 20
-3.4204
 30
0.0
 10
51.295
 20
-3.4204
 30
0.0
  0
SPLINE
  5
149
330
1F
100
AcDbEntity
  8
AXIS
 62
   250
100
AcDbSpline
210
0.0
220
0.0
230
1.0
 70
    24
 71
     3
 72
     8
 73
     4
 74
     0
 42
0.0000000001
 43
0.0000000001
 40
0.0
 40
0.0
 40
0.0
 40
0.0
 40
1.0
 40
1.0
 40
1.0
 40
1.0
 10
22.7345
 20
-2.8011
 30
0.0
 10
22.7345
 20
-2.8011
 30
0.0
 10
51.295
 20
-2.8011
 30
0.0
 10
51.295
 20
-2.8011
 30
0.0
  0
SPLINE
  5
14A
330
1F
100
AcDbEntity
  8
AXIS
 62
   250
100
AcDbSpline
210
0.0
220
0.0
230
1.0
 70
    24
 71
     3
 72
     8
 73
     4
 74
     0
 42
0.0000000001
 43
0.0000000001
 40
0.0
 40
0.0
 40
0.0
 40
0.0
 40
1.0
 40
1.0
 40
1.0
 40
1.0
 10
22.7345
 20
-1.7858
 30
0.0
 10
22.7345
 20
-1.7858
 30
0.0
 10
51.295
 20
-1.7858
 30
0.0
 10
51.295
 20
-1.7858
 30
0.0
  0
SPLINE
  5
14B
330
1F
100
AcDbEntity
  8
AXIS
 62
   250
100
AcDbSpline
210
0.0
220
0.0
230
1.0
 70
    24
 71
     3
 72
     8
 73
     4
 74
     0
 42
0.0000000001
 43
0.0000000001
 40
0.0
 40
0.0
 40
0.0
 40
0.0
 40
1.0
 40
1.0
 40
1.0
 40
1.0
 10
27.2848
 20
0.1482
 30
0.0
 10
27.2848
 20
0.1482
 30
0.0
 10
27.991
 20
0.1482
 30
0.0
 10
27.991
 20
0.1482
 30
0.0
  0
SPLINE
  5
14C
330
1F
100
AcDbEntity
  8
AXIS
 62
   250
100
AcDbSpline
210
0.0
220
0.0
230
1.0
 70
    24
 71
     3
 72
     8
 73
     4
 74
     0
 42
0.0000000001
 43
0.0000000001
 40
0.0
 40
0.0
 40
0.0
 40
0.0
 40
1.0
 40
1.0
 40
1.0
 40
1.0
 10
22.8006
 20
1.463
 30
0.0
 10
22.8006
 20
1.463
 30
0.0
 10
27.2848
 20
1.463
 30
0.0
 10
27.2848
 20
1.463
 30
0.0
  0
SPLINE
  5
14D
330
1F
100
AcDbEntity
  8
AXIS
 62
   250
100
AcDbSpline
210
0.0
220
0.0
230
1.0
 70
    24
 71
     3
 72
     8
 73
     4
 74
     0
 42
0.0000000001
 43
0.0000000001
 40
0.0
 40
0.0
 40
0.0
 40
0.0
 40
1.0
 40
1.0
 40
1.0
 40
1.0
 10
27.991
 20
1.463
 30
0.0
 10
27.991
 20
1.463
 30
0.0
 10
51.295
 20
1.463
 30
0.0
 10
51.295
 20
1.463
 30
0.0
  0
SPLINE
  5
14E
330
1F
100
AcDbEntity
  8
AXIS
 62
   250
100
AcDbSpline
210
0.0
220
0.0
230
1.0
 70
    24
 71
     3
 72
     8
 73
     4
 74
     0
 42
0.0000000001
 43
0.0000000001
 40
0.0
 40
0.0
 40
0.0
 40
0.0
 40
1.0
 40
1.0
 40
1.0
 40
1.0
 10
22.7345
 20
2.0823
 30
0.0
 10
22.7345
 20
2.0823
 30
0.0
 10
51.295
 20
2.0823
 30
0.0
 10
51.295
 20
2.0823
 30
0.0
  0
SPLINE
  5
14F
330
1F
100
AcDbEntity
  8
AXIS
 62
   250
100
AcDbSpline
210
0.0
220
0.0
230
1.0
 70
    24
 71
     3
 72
     8
 73
     4
 74
     0
 42
0.0000000001
 43
0.0000000001
 40
0.0
 40
0.0
 40
0.0
 40
0.0
 40
1.0
 40
1.0
 40
1.0
 40
1.0
 10
22.7345
 20
3.0976
 30
0.0
 10
22.7345
 20
3.0976
 30
0.0
 10
51.295
 20
3.0976
 30
0.0
 10
51.295
 20
3.0976
 30
0.0
  0
SPLINE
  5
150
330
1F
100
AcDbEntity
  8
AXIS
 62
   250
100
AcDbSpline
210
0.0
220
0.0
230
1.0
 70
    24
 71
     3
 72
     8
 73
     4
 74
     0
 42
0.0000000001
 43
0.0000000001
 40
0.0
 40
0.0
 40
0.0
 40
0.0
 40
1.0
 40
1.0
 40
1.0
 40
1.0
 10
27.2848
 20
5.0317
 30
0.0
 10
27.2848
 20
5.0317
 30
0.0
 10
27.991
 20
5.0317
 30
0.0
 10
27.991
 20
5.0317
 30
0.0
  0
SPLINE
  5
151
330
1F
100
AcDbEntity
  8
AXIS
 62
   250
100
AcDbSpline
210
0.0
220
0.0
230
1.0
 70
    24
 71
     3
 72
     8
 73
     4
 74
     0
 42
0.0000000001
 43
0.0000000001
 40
0.0
 40
0.0
 40
0.0
 40
0.0
 40
1.0
 40
1.0
 40
1.0
 40
1.0
 10
22.8006
 20
6.3464
 30
0.0
 10
22.8006
 20
6.3464
 30
0.0
 10
27.2848
 20
6.3464
 30
0.0
 10
27.2848
 20
6.3464
 30
0.0
  0
SPLINE
  5
152
330
1F
100
AcDbEntity
  8
AXIS
 62
   250
100
AcDbSpline
210
0.0
220
0.0
230
1.0
 70
    24
 71
     3
 72
     8
 73
     4
 74
     0
 42
0.0000000001
 43
0.0000000001
 40
0.0
 40
0.0
 40
0.0
 40
0.0
 40
1.0
 40
1.0
 40
1.0
 40
1.0
 10
27.991
 20
6.3464
 30
0.0
 10
27.991
 20
6.3464
 30
0.0
 10
51.295
 20
6.3464
 30
0.0
 10
51.295
 20
6.3464
 30
0.0
  0
SPLINE
  5
153
330
1F
100
AcDbEntity
  8
AXIS
 62
   250
100
AcDbSpline
210
0.0
220
0.0
230
1.0
 70
    24
 71
     3
 72
     8
 73
     4
 74
     0
 42
0.0000000001
 43
0.0000000001
 40
0.0
 40
0.0
 40
0.0
 40
0.0
 40
1.0
 40
1.0
 40
1.0
 40
1.0
 10
22.7345
 20
6.9657
 30
0.0
 10
22.7345
 20
6.9657
 30
0.0
 10
51.295
 20
6.9657
 30
0.0
 10
51.295
 20
6.9657
 30
0.0
  0
SPLINE
  5
154
330
1F
100
AcDbEntity
  8
AXIS
 62
   250
100
AcDbSpline
210
0.0
220
0.0
230
1.0
 70
    24
 71
     3
 72
     8
 73
     4
 74
     0
 42
0.0000000001
 43
0.0000000001
 40
0.0
 40
0.0
 40
0.0
 40
0.0
 40
1.0
 40
1.0
 40
1.0
 40
1.0
 10
22.7345
 20
7.981
 30
0.0
 10
22.7345
 20
7.981
 30
0.0
 10
51.295
 20
7.981
 30
0.0
 10
51.295
 20
7.981
 30
0.0
  0
SPLINE
  5
155
330
1F
100
AcDbEntity
  8
AXIS
 62
   250
100
AcDbSpline
210
0.0
220
0.0
230
1.0
 70
    24
 71
     3
 72
     8
 73
     4
 74
     0
 42
0.0000000001
 43
0.0000000001
 40
0.0
 40
0.0
 40
0.0
 40
0.0
 40
1.0
 40
1.0
 40
1.0
 40
1.0
 10
27.2848
 20
9.9151
 30
0.0
 10
27.2848
 20
9.9151
 30
0.0
 10
27.991
 20
9.9151
 30
0.0
 10
27.991
 20
9.9151
 30
0.0
  0
SPLINE
  5
156
330
1F
100
AcDbEntity
  8
AXIS
 62
   250
100
AcDbSpline
210
0.0
220
0.0
230
1.0
 70
    24
 71
     3
 72
     8
 73
     4
 74
     0
 42
0.0000000001
 43
0.0000000001
 40
0.0
 40
0.0
 40
0.0
 40
0.0
 40
1.0
 40
1.0
 40
1.0
 40
1.0
 10
22.8006
 20
11.2298
 30
0.0
 10
22.8006
 20
11.2298
 30
0.0
 10
27.2848
 20
11.2298
 30
0.0
 10
27.2848
 20
11.2298
 30
0.0
  0
SPLINE
  5
157
330
1F
100
AcDbEntity
  8
AXIS
 62
   250
100
AcDbSpline
210
0.0
220
0.0
230
1.0
 70
    24
 71
     3
 72
     8
 73
     4
 74
     0
 42
0.0000000001
 43
0.0000000001
 40
0.0
 40
0.0
 40
0.0
 40
0.0
 40
1.0
 40
1.0
 40
1.0
 40
1.0
 10
27.991
 20
11.2298
 30
0.0
 10
27.991
 20
11.2298
 30
0.0
 10
51.295
 20
11.2298
 30
0.0
 10
51.295
 20
11.2298
 30
0.0
  0
SPLINE
  5
158
330
1F
100
AcDbEntity
  8
AXIS
 62
   250
100
AcDbSpline
210
0.0
220
0.0
230
1.0
 70
    24
 71
     3
 72
     8
 73
     4
 74
     0
 42
0.0000000001
 43
0.0000000001
 40
0.0
 40
0.0
 40
0.0
 40
0.0
 40
1.0
 40
1.0
 40
1.0
 40
1.0
 10
22.7345
 20
11.8491
 30
0.0
 10
22.7345
 20
11.8491
 30
0.0
 10
51.295
 20
11.8491
 30
0.0
 10
51.295
 20
11.8491
 30
0.0
  0
SPLINE
  5
159
330
1F
100
AcDbEntity
  8
AXIS
 62
   250
100
AcDbSpline
210
0.0
220
0.0
230
1.0
 70
    24
 71
     3
 72
     8
 73
     4
 74
     0
 42
0.0000000001
 43
0.0000000001
 40
0.0
 40
0.0
 40
0.0
 40
0.0
 40
1.0
 40
1.0
 40
1.0
 40
1.0
 10
22.7345
 20
12.8644
 30
0.0
 10
22.7345
 20
12.8644
 30
0.0
 10
51.295
 20
12.8644
 30
0.0
 10
51.295
 20
12.8644
 30
0.0
  0
SPLINE
  5
15A
330
1F
100
AcDbEntity
  8
AXIS
 62
   250
100
AcDbSpline
210
0.0
220
0.0
230
1.0
 70
    24
 71
     3
 72
     8
 73
     4
 74
     0
 42
0.0000000001
 43
0.0000000001
 40
0.0
 40
0.0
 40
0.0
 40
0.0
 40
1.0
 40
1.0
 40
1.0
 40
1.0
 10
27.2848
 20
14.7985
 30
0.0
 10
27.2848
 20
14.7985
 30
0.0
 10
27.991
 20
14.7985
 30
0.0
 10
27.991
 20
14.7985
 30
0.0
  0
SPLINE
  5
15B
330
1F
100
AcDbEntity
  8
AXIS
 62
   250
100
AcDbSpline
210
0.0
220
0.0
230
1.0
 70
    24
 71
     3
 72
     8
 73
     4
 74
     0
 42
0.0000000001
 43
0.0000000001
 40
0.0
 40
0.0
 40
0.0
 40
0.0
 40
1.0
 40
1.0
 40
1.0
 40
1.0
 10
22.8006
 20
16.1132
 30
0.0
 10
22.8006
 20
16.1132
 30
0.0
 10
27.2848
 20
16.1132
 30
0.0
 10
27.2848
 20
16.1132
 30
0.0
  0
SPLINE
  5
15C
330
1F
100
AcDbEntity
  8
AXIS
 62
   250
100
AcDbSpline
210
0.0
220
0.0
230
1.0
 70
    24
 71
     3
 72
     8
 73
     4
 74
     0
 42
0.0000000001
 43
0.0000000001
 40
0.0
 40
0.0
 40
0.0
 40
0.0
 40
1.0
 40
1.0
 40
1.0
 40
1.0
 10
27.991
 20
16.1132
 30
0.0
 10
27.991
 20
16.1132
 30
0.0
 10
51.295
 20
16.1132
 30
0.0
 10
51.295
 20
16.1132
 30
0.0
  0
SPLINE
  5
15D
330
1F
100
AcDbEntity
  8
AXIS
 62
   250
100
AcDbSpline
210
0.0
220
0.0
230
1.0
 70
    24
 71
     3
 72
     8
 73
     4
 74
     0
 42
0.0000000001
 43
0.0000000001
 40
0.0
 40
0.0
 40
0.0
 40
0.0
 40
1.0
 40
1.0
 40
1.0
 40
1.0
 10
22.7345
 20
16.7325
 30
0.0
 10
22.7345
 20
16.7325
 30
0.0
 10
51.295
 20
16.7325
 30
0.0
 10
51.295
 20
16.7325
 30
0.0
  0
SPLINE
  5
15E
330
1F
100
AcDbEntity
  8
AXIS
 62
   250
100
AcDbSpline
210
0.0
220
0.0
230
1.0
 70
    24
 71
     3
 72
     8
 73
     4
 74
     0
 42
0.0000000001
 43
0.0000000001
 40
0.0
 40
0.0
 40
0.0
 40
0.0
 40
1.0
 40
1.0
 40
1.0
 40
1.0
 10
22.7345
 20
17.7478
 30
0.0
 10
22.7345
 20
17.7478
 30
0.0
 10
51.295
 20
17.7478
 30
0.0
 10
51.295
 20
17.7478
 30
0.0
  0
SPLINE
  5
15F
330
1F
100
AcDbEntity
  8
AXIS
 62
   250
100
AcDbSpline
210
0.0
220
0.0
230
1.0
 70
    24
 71
     3
 72
     8
 73
     4
 74
     0
 42
0.0000000001
 43
0.0000000001
 40
0.0
 40
0.0
 40
0.0
 40
0.0
 40
1.0
 40
1.0
 40
1.0
 40
1.0
 10
27.2848
 20
19.6819
 30
0.0
 10
27.2848
 20
19.6819
 30
0.0
 10
27.991
 20
19.6819
 30
0.0
 10
27.991
 20
19.6819
 30
0.0
  0
SPLINE
  5
160
330
1F
100
AcDbEntity
  8
AXIS
 62
   250
100
AcDbSpline
210
0.0
220
0.0
230
1.0
 70
    24
 71
     3
 72
     8
 73
     4
 74
     0
 42
0.0000000001
 43
0.0000000001
 40
0.0
 40
0.0
 40
0.0
 40
0.0
 40
1.0
 40
1.0
 40
1.0
 40
1.0
 10
22.8006
 20
20.9967
 30
0.0
 10
22.8006
 20
20.9967
 30
0.0
 10
27.2848
 20
20.9967
 30
0.0
 10
27.2848
 20
20.9967
 30
0.0
  0
SPLINE
  5
161
330
1F
100
AcDbEntity
  8
AXIS
 62
   250
100
AcDbSpline
210
0.0
220
0.0
230
1.0
 70
    24
 71
     3
 72
     8
 73
     4
 74
     0
 42
0.0000000001
 43
0.0000000001
 40
0.0
 40
0.0
 40
0.0
 40
0.0
 40
1.0
 40
1.0
 40
1.0
 40
1.0
 10
27.991
 20
20.9967
 30
0.0
 10
27.991
 20
20.9967
 30
0.0
 10
51.295
 20
20.9967
 30
0.0
 10
51.295
 20
20.9967
 30
0.0
  0
SPLINE
  5
162
330
1F
100
AcDbEntity
  8
AXIS
 62
   250
100
AcDbSpline
210
0.0
220
0.0
230
1.0
 70
    24
 71
     3
 72
     8
 73
     4
 74
     0
 42
0.0000000001
 43
0.0000000001
 40
0.0
 40
0.0
 40
0.0
 40
0.0
 40
1.0
 40
1.0
 40
1.0
 40
1.0
 10
22.7345
 20
21.6159
 30
0.0
 10
22.7345
 20
21.6159
 30
0.0
 10
51.295
 20
21.6159
 30
0.0
 10
51.295
 20
21.6159
 30
0.0
  0
SPLINE
  5
163
330
1F
100
AcDbEntity
  8
AXIS
 62
   250
100
AcDbSpline
210
0.0
220
0.0
230
1.0
 70
    24
 71
     3
 72
     8
 73
     4
 74
     0
 42
0.0000000001
 43
0.0000000001
 40
0.0
 40
0.0
 40
0.0
 40
0.0
 40
1.0
 40
1.0
 40
1.0
 40
1.0
 10
22.7345
 20
22.6312
 30
0.0
 10
22.7345
 20
22.6312
 30
0.0
 10
51.295
 20
22.6312
 30
0.0
 10
51.295
 20
22.6312
 30
0.0
  0
SPLINE
  5
164
330
1F
100
AcDbEntity
  8
AXIS
 62
   250
100
AcDbSpline
210
0.0
220
0.0
230
1.0
 70
    24
 71
     3
 72
     8
 73
     4
 74
     0
 42
0.0000000001
 43
0.0000000001
 40
0.0
 40
0.0
 40
0.0
 40
0.0
 40
1.0
 40
1.0
 40
1.0
 40
1.0
 10
51.295
 20
25.1288
 30
0.0
 10
51.295
 20
25.1288
 30
0.0
 10
22.7345
 20
25.1288
 30
0.0
 10
22.7345
 20
25.1288
 30
0.0
  0
SPLINE
  5
165
330
1F
100
AcDbEntity
  8
AXIS
 62
   250
100
AcDbSpline
210
0.0
220
0.0
230
1.0
 70
    24
 71
     3
 72
     8
 73
     4
 74
     0
 42
0.0000000001
 43
0.0000000001
 40
0.0
 40
0.0
 40
0.0
 40
0.0
 40
1.0
 40
1.0
 40
1.0
 40
1.0
 10
56.9444
 20
27.3827
 30
0.0
 10
56.9444
 20
27.3827
 30
0.0
 10
56.9444
 20
-33.6041
 30
0.0
 10
56.9444
 20
-33.6041
 30
0.0
  0
SPLINE
  5
166
330
1F
100
AcDbEntity
  8
AXIS
 62
   250
100
AcDbSpline
210
0.0
220
0.0
230
1.0
 70
    24
 71
     3
 72
     8
 73
     4
 74
     0
 42
0.0000000001
 43
0.0000000001
 40
0.0
 40
0.0
 40
0.0
 40
0.0
 40
1.0
 40
1.0
 40
1.0
 40
1.0
 10
55.0024
 20
27.3827
 30
0.0
 10
55.0024
 20
27.3827
 30
0.0
 10
55.0024
 20
-33.6041
 30
0.0
 10
55.0024
 20
-33.6041
 30
0.0
  0
SPLINE
  5
167
330
1F
100
AcDbEntity
  8
AXIS
 62
   250
100
AcDbSpline
210
0.0
220
0.0
230
1.0
 70
    24
 71
     3
 72
     8
 73
     4
 74
     0
 42
0.0000000001
 43
0.0000000001
 40
0.0
 40
0.0
 40
0.0
 40
0.0
 40
1.0
 40
1.0
 40
1.0
 40
1.0
 10
53.4135
 20
-37.3605
 30
0.0
 10
53.4135
 20
-37.3605
 30
0.0
 10
22.6354
 20
-37.3605
 30
0.0
 10
22.6354
 20
-37.3605
 30
0.0
  0
SPLINE
  5
168
330
1F
100
AcDbEntity
  8
AXIS
 62
   250
100
AcDbSpline
210
0.0
220
0.0
230
1.0
 70
    24
 71
     3
 72
     8
 73
     4
 74
     0
 42
0.0000000001
 43
0.0000000001
 40
0.0
 40
0.0
 40
0.0
 40
0.0
 40
1.0
 40
1.0
 40
1.0
 40
1.0
 10
53.4135
 20
-35.2945
 30
0.0
 10
53.4135
 20
-35.2945
 30
0.0
 10
22.5692
 20
-35.2945
 30
0.0
 10
22.5692
 20
-35.2945
 30
0.0
  0
SPLINE
  5
169
330
1F
100
AcDbEntity
  8
AXIS
 62
   250
100
AcDbSpline
210
0.0
220
0.0
230
1.0
 70
    24
 71
     3
 72
     8
 73
     4
 74
     0
 42
0.0000000001
 43
0.0000000001
 40
0.0
 40
0.0
 40
0.0
 40
0.0
 40
1.0
 40
1.0
 40
1.0
 40
1.0
 10
22.6022
 20
29.0731
 30
0.0
 10
22.6022
 20
29.0731
 30
0.0
 10
53.4135
 20
29.0731
 30
0.0
 10
53.4135
 20
29.0731
 30
0.0
  0
SPLINE
  5
16A
330
1F
100
AcDbEntity
  8
AXIS
 62
   250
100
AcDbSpline
210
0.0
220
0.0
230
1.0
 70
    24
 71
     3
 72
     8
 73
     4
 74
     0
 42
0.0000000001
 43
0.0000000001
 40
0.0
 40
0.0
 40
0.0
 40
0.0
 40
1.0
 40
1.0
 40
1.0
 40
1.0
 10
22.6022
 20
31.1391
 30
0.0
 10
22.6022
 20
31.1391
 30
0.0
 10
53.4135
 20
31.1391
 30
0.0
 10
53.4135
 20
31.1391
 30
0.0
  0
SPLINE
  5
16B
330
1F
100
AcDbEntity
  8
AXIS
 62
   250
100
AcDbSpline
210
0.0
220
0.0
230
1.0
 70
     8
 71
     3
 72
     8
 73
     4
 74
     0
 42
0.0000000001
 43
0.0000000001
 40
0.0
 40
0.0
 40
0.0
 40
0.0
 40
1.0
 40
1.0
 40
1.0
 40
1.0
 10
56.9444
 20
-33.6041
 30
0.0
 10
56.9444
 20
-35.6787
 30
0.0
 10
55.3636
 20
-37.3605
 30
0.0
 10
53.4135
 20
-37.3605
 30
0.0
  0
SPLINE
  5
16C
330
1F
100
AcDbEntity
  8
AXIS
 62
   250
100
AcDbSpline
210
0.0
220
0.0
230
1.0
 70
     8
 71
     3
 72
     8
 73
     4
 74
     0
 42
0.0000000001
 43
0.0000000001
 40
0.0
 40
0.0
 40
0.0
 40
0.0
 40
1.0
 40
1.0
 40
1.0
 40
1.0
 10
53.4135
 20
31.1391
 30
0.0
 10
55.3636
 20
31.1391
 30
0.0
 10
56.9444
 20
29.4573
 30
0.0
 10
56.9444
 20
27.3827
 30
0.0
  0
SPLINE
  5
16D
330
1F
100
AcDbEntity
  8
AXIS
 62
   250
100
AcDbSpline
210
0.0
220
0.0
230
1.0
 70
     8
 71
     3
 72
     8
 73
     4
 74
     0
 42
0.0000000001
 43
0.0000000001
 40
0.0
 40
0.0
 40
0.0
 40
0.0
 40
1.0
 40
1.0
 40
1.0
 40
1.0
 10
53.4135
 20
29.0731
 30
0.0
 10
54.2911
 20
29.0731
 30
0.0
 10
55.0024
 20
28.3162
 30
0.0
 10
55.0024
 20
27.3827
 30
0.0
  0
SPLINE
  5
16E
330
1F
100
AcDbEntity
  8
AXIS
 62
   250
100
AcDbSpline
210
0.0
220
0.0
230
1.0
 70
     8
 71
     3
 72
     8
 73
     4
 74
     0
 42
0.0000000001
 43
0.0000000001
 40
0.0
 40
0.0
 40
0.0
 40
0.0
 40
1.0
 40
1.0
 40
1.0
 40
1.0
 10
55.0024
 20
-33.6041
 30
0.0
 10
55.0024
 20
-34.5377
 30
0.0
 10
54.2911
 20
-35.2945
 30
0.0
 10
53.4135
 20
-35.2945
 30
0.0
  0
ENDSEC
  0
SECTION
  2
OBJECTS
  0
DICTIONARY
  5
C
330
0
100
AcDbDictionary
  3
ACAD_GROUP
350
D
  3
ACAD_LAYOUT
350
1A
  3
ACAD_MATERIAL
350
3B
  3
ACAD_MLEADERSTYLE
350
191
  3
ACAD_MLINESTYLE
350
17
  3
ACAD_PLOTSETTINGS
350
19
  3
ACAD_VISUALSTYLE
350
2A
  3
ACDBHEADERROUNDTRIPXREC
350
16F
  3
ACDBVARIABLEDICTIONARY
350
18F
  0
DICTIONARY
  5
D
102
{ACAD_REACTORS
330
C
102
}
330
C
100
AcDbDictionary
  0
DICTIONARY
  5
1A
102
{ACAD_REACTORS
330
C
102
}
330
C
100
AcDbDictionary
  0
DICTIONARY
  5
3B
102
{ACAD_REACTORS
330
C
102
}
330
C
100
AcDbDictionary
  3
BYBLOCK
350
3D
  3
BYLAYER
350
3C
  3
GLOBAL
350
3E
  0
DICTIONARY
  5
191
102
{ACAD_REACTORS
330
C
102
}
330
C
100
AcDbDictionary
  0
DICTIONARY
  5
17
102
{ACAD_REACTORS
330
C
102
}
330
C
100
AcDbDictionary
  3
STANDARD
350
18
  0
DICTIONARY
  5
19
102
{ACAD_REACTORS
330
C
102
}
330
C
100
AcDbDictionary
  0
DICTIONARY
  5
2A
102
{ACAD_REACTORS
330
C
102
}
330
C
100
AcDbDictionary
  3
2DWIREFRAME
350
2F
  3
3D_HIDDEN
350
31
  3
3DWIREFRAME
350
30
  3
BASIC
350
32
  3
BRIGHTEN
350
36
  3
COLORCHANGE
350
3A
  3
CONCEPTUAL
350
34
  3
DIM
350
35
  3
FACEPATTERN
350
39
  3
FLAT
350
2B
  3
FLATWITHEDGES
350
2C
  3
GOURAUD
350
2D
  3
GOURAUDWITHEDGES
350
2E
  3
LINEPATTERN
350
38
  3
REALISTIC
350
33
  3
THICKEN
350
37
  0
DICTIONARY
  5
16F
102
{ACAD_REACTORS
330
C
102
}
330
C
100
AcDbDictionary
  3
CEPSNTYPE
350
178
  3
DIMSTYLEDATA
350
18E
  3
FINGERPRINTGUID
350
179
  3
HYPERLINKBASE
350
172
  3
INSUNITS
350
177
  3
LAYOUTDICT
350
174
  3
LWETCUNION
350
176
  3
PLOTSETDICT
350
175
  3
PSVPSCALE
350
17B
  3
PUCSBASE
350
17E
  3
PUCSORGBACK
350
184
  3
PUCSORGBOTTOM
350
180
  3
PUCSORGFRONT
350
183
  3
PUCSORGLEFT
350
181
  3
PUCSORGRIGHT
350
182
  3
PUCSORGTOP
350
17F
  3
PUCSORTHOREF
350
17C
  3
PUCSORTHOVIEW
350
17D
  3
STYLESHEET
350
173
  3
TSTACKALIGN
350
170
  3
TSTACKSIZE
350
171
  3
UCSBASE
350
187
  3
UCSORGBACK
350
18D
  3
UCSORGBOTTOM
350
189
  3
UCSORGFRONT
350
18C
  3
UCSORGLEFT
350
18A
  3
UCSORGRIGHT
350
18B
  3
UCSORGTOP
350
188
  3
UCSORTHOREF
350
185
  3
UCSORTHOVIEW
350
186
  3
VERSIONGUID
350
17A
  0
DICTIONARY
  5
18F
102
{ACAD_REACTORS
330
C
102
}
330
C
100
AcDbDictionary
  3
DIMASSOC
350
192
  3
HIDETEXT
350
193
  0
MATERIAL
  5
3D
102
{ACAD_REACTORS
330
3B
102
}
102
{ACAD_XDICTIONARY
360
196
102
}
330
3B
100
AcDbMaterial
  1
ByBlock
  0
MATERIAL
  5
3C
102
{ACAD_REACTORS
330
3B
102
}
102
{ACAD_XDICTIONARY
360
194
102
}
330
3B
100
AcDbMaterial
  1
ByLayer
  0
MATERIAL
  5
3E
102
{ACAD_REACTORS
330
3B
102
}
102
{ACAD_XDICTIONARY
360
198
102
}
330
3B
100
AcDbMaterial
  1
Global
  0
MLINESTYLE
  5
18
102
{ACAD_REACTORS
330
17
102
}
330
17
100
AcDbMlineStyle
  2
Standard
 70
     0
  3

 62
   256
 51
90.0
 52
90.0
 71
     2
 49
0.5
 62
   256
  6
BYLAYER
 49
-0.5
 62
   256
  6
BYLAYER
  0
ACAD_PROXY_OBJECT
  5
2F
102
{ACAD_REACTORS
330
2A
102
}
330
2A
100
AcDbProxyObject
 90
      499
 91
      501
 93
      436
310
42CC9915DA5C99599C985B595049028333333333333E3BF0000000000000FB0107901411070040501600405405064090741402480A0340
1001
ACAD
1000
AcDbSavedByObjectVersion
1070
     0
  0
ACAD_PROXY_OBJECT
  5
31
102
{ACAD_REACTORS
330
2A
102
}
330
2A
100
AcDbProxyObject
 90
      499
 91
      501
 93
      500
310
424CD108121A5919195B90640502408333333333333E3BF0000000000000FB01079024090700405020000000000001110200405405064090740C02480A0340
1001
ACAD
1000
AcDbSavedByObjectVersion
1070
     0
  0
ACAD_PROXY_OBJECT
  5
30
102
{ACAD_REACTORS
330
2A
102
}
330
2A
100
AcDbProxyObject
 90
      499
 91
      501
 93
      436
310
42CCD915DA5C99599C985B595059028333333333333E3BF0000000000000FB0107901411070040501600405405064090741402480A0340
1001
ACAD
1000
AcDbSavedByObjectVersion
1070
     0
  0
ACAD_PROXY_OBJECT
  5
32
102
{ACAD_REACTORS
330
2A
102
}
330
2A
100
AcDbProxyObject
 90
      499
 91
      501
 93
      388
310
4150985CDA58D07406404333333333333E3BF0000000000000FB0107A41107004050150841D405064090741402480A0350
1001
ACAD
1000
AcDbSavedByObjectVersion
1070
     0
  0
ACAD_PROXY_OBJECT
  5
36
102
{ACAD_REACTORS
330
2A
102
}
330
2A
100
AcDbProxyObject
 90
      499
 91
      501
 93
      428
310
42109C9A59DA1D195B90C409028333333333333E3BF0000000000000FB010790141107004050150841D405064090741402480A029950
1001
ACAD
1000
AcDbSavedByObjectVersion
1070
     0
  0
ACAD_PROXY_OBJECT
  5
3A
102
{ACAD_REACTORS
330
2A
102
}
330
2A
100
AcDbProxyObject
 90
      499
 91
      501
 93
      452
310
42D0DBDB1BDC90DA185B99D95104090240C333333333333E3BF0000000000000FB0108901411070040501508421405064090741402480A0350
1001
ACAD
1000
AcDbSavedByObjectVersion
1070
     0
  0
ACAD_PROXY_OBJECT
  5
34
102
{ACAD_REACTORS
330
2A
102
}
330
2A
100
AcDbProxyObject
 90
      499
 91
      501
 93
      500
310
4290DBDB98D95C1D1D585B10940D028333333333333E3BF0000000000000FB0107902409070040501000000000000111010841D405064090740C02480A0340
1001
ACAD
1000
AcDbSavedByObjectVersion
1070
     0
  0
ACAD_PROXY_OBJECT
  5
35
102
{ACAD_REACTORS
330
2A
102
}
330
2A
100
AcDbProxyObject
 90
      499
 91
      501
 93
      412
310
40D11A5B50B409028333333333333E3BF0000000000000FB010790141107004050150841D405064090741402480A02677FFFFFD0
1001
ACAD
1000
AcDbSavedByObjectVersion
1070
     0
  0
ACAD_PROXY_OBJECT
  5
39
102
{ACAD_REACTORS
330
2A
102
}
330
2A
100
AcDbProxyObject
 90
      499
 91
      501
 93
      444
310
42D19858D95C185D1D195C9B90F409028333333333333E3BF0000000000000FB010790141107004050150841D405064090741402480A0350
1001
ACAD
1000
AcDbSavedByObjectVersion
1070
     0
  0
ACAD_PROXY_OBJECT
  5
2B
102
{ACAD_REACTORS
330
2A
102
}
330
2A
100
AcDbProxyObject
 90
      499
 91
      501
 93
      388
310
41119B185D240901404333333333333E3BF0000000000000F9010740A41107004050150841D405064090741402480A1B50
1001
ACAD
1000
AcDbSavedByObjectVersion
1070
     0
  0
ACAD_PROXY_OBJECT
  5
2C
102
{ACAD_REACTORS
330
2A
102
}
330
2A
100
AcDbProxyObject
 90
      499
 91
      501
 93
      476
310
43519B185D15DA5D1A115919D95CD0140901404333333333333E3BF0000000000000F9010740901411070040501600405405064090741402480A1B50
1001
ACAD
1000
AcDbSavedByObjectVersion
1070
     0
  0
ACAD_PROXY_OBJECT
  5
2D
102
{ACAD_REACTORS
330
2A
102
}
330
2A
100
AcDbProxyObject
 90
      499
 91
      501
 93
      412
310
41D1DBDD5C985D5910240902404333333333333E3BF0000000000000F9010740A411070040501641D405064090741402480A1B50
1001
ACAD
1000
AcDbSavedByObjectVersion
1070
     0
  0
ACAD_PROXY_OBJECT
  5
2E
102
{ACAD_REACTORS
330
2A
102
}
330
2A
100
AcDbProxyObject
 90
      499
 91
      501
 93
      500
310
4411DBDD5C985D5915DA5D1A115919D95CD0340902404333333333333E3BF0000000000000F9010740901411070040501600405405064090741402480A1B50
1001
ACAD
1000
AcDbSavedByObjectVersion
1070
     0
  0
ACAD_PROXY_OBJECT
  5
38
102
{ACAD_REACTORS
330
2A
102
}
330
2A
100
AcDbProxyObject
 90
      499
 91
      501
 93
      444
310
42D31A5B995C185D1D195C9B90E409028333333333333E3BF0000000000000FB010790141107004050750841D405064090741402483A0350
1001
ACAD
1000
AcDbSavedByObjectVersion
1070
     0
  0
ACAD_PROXY_OBJECT
  5
33
102
{ACAD_REACTORS
330
2A
102
}
330
2A
100
AcDbProxyObject
 90
      499
 91
      501
 93
      420
310
425499585B1A5CDD1A58D08409028333333333333E3BF0000000000000FB01079019070040501508421405064090741402480A1B40
1001
ACAD
1000
AcDbSavedByObjectVersion
1070
     0
  0
ACAD_PROXY_OBJECT
  5
37
102
{ACAD_REACTORS
330
2A
102
}
330
2A
100
AcDbProxyObject
 90
      499
 91
      501
 93
      412
310
41D51A1A58DAD95B90D409028333333333333E3BF0000000000000FB010790141107004050150C41D405064090741402480A0350
1001
ACAD
1000
AcDbSavedByObjectVersion
1070
     0
  0
XRECORD
  5
178
102
{ACAD_REACTORS
330
16F
102
}
330
16F
100
AcDbXrecord
 90
        0
  0
XRECORD
  5
18E
102
{ACAD_REACTORS
330
16F
102
}
330
16F
100
AcDbXrecord
1000
DSTYLE
1002
{
1070
   340
340
11
1002
}
  0
XRECORD
  5
179
102
{ACAD_REACTORS
330
16F
102
}
330
16F
100
AcDbXrecord
  1
{CA67FA0C-7D9C-4903-8075-08A42BD321CF}
  0
XRECORD
  5
172
102
{ACAD_REACTORS
330
16F
102
}
330
16F
100
AcDbXrecord
  1

  0
XRECORD
  5
177
102
{ACAD_REACTORS
330
16F
102
}
330
16F
100
AcDbXrecord
 90
        4
  0
XRECORD
  5
174
102
{ACAD_REACTORS
330
16F
102
}
330
16F
100
AcDbXrecord
340
1A
  0
XRECORD
  5
176
102
{ACAD_REACTORS
330
16F
102
}
330
16F
100
AcDbXrecord
 90
    10781
  0
XRECORD
  5
175
102
{ACAD_REACTORS
330
16F
102
}
330
16F
100
AcDbXrecord
340
19
  0
XRECORD
  5
17B
102
{ACAD_REACTORS
330
16F
102
}
330
16F
100
AcDbXrecord
 40
0.0
  0
XRECORD
  5
17E
102
{ACAD_REACTORS
330
16F
102
}
330
16F
100
AcDbXrecord
340
0
  0
XRECORD
  5
184
102
{ACAD_REACTORS
330
16F
102
}
330
16F
100
AcDbXrecord
 10
0.0
 20
0.0
 30
0.0
  0
XRECORD
  5
180
102
{ACAD_REACTORS
330
16F
102
}
330
16F
100
AcDbXrecord
 10
0.0
 20
0.0
 30
0.0
  0
XRECORD
  5
183
102
{ACAD_REACTORS
330
16F
102
}
330
16F
100
AcDbXrecord
 10
0.0
 20
0.0
 30
0.0
  0
XRECORD
  5
181
102
{ACAD_REACTORS
330
16F
102
}
330
16F
100
AcDbXrecord
 10
0.0
 20
0.0
 30
0.0
  0
XRECORD
  5
182
102
{ACAD_REACTORS
330
16F
102
}
330
16F
100
AcDbXrecord
 10
0.0
 20
0.0
 30
0.0
  0
XRECORD
  5
17F
102
{ACAD_REACTORS
330
16F
102
}
330
16F
100
AcDbXrecord
 10
0.0
 20
0.0
 30
0.0
  0
XRECORD
  5
17C
102
{ACAD_REACTORS
330
16F
102
}
330
16F
100
AcDbXrecord
340
0
  0
XRECORD
  5
17D
102
{ACAD_REACTORS
330
16F
102
}
330
16F
100
AcDbXrecord
 70
     0
  0
XRECORD
  5
173
102
{ACAD_REACTORS
330
16F
102
}
330
16F
100
AcDbXrecord
  1

  0
XRECORD
  5
170
102
{ACAD_REACTORS
330
16F
102
}
330
16F
100
AcDbXrecord
 90
        1
  0
XRECORD
  5
171
102
{ACAD_REACTORS
330
16F
102
}
330
16F
100
AcDbXrecord
 90
       70
  0
XRECORD
  5
187
102
{ACAD_REACTORS
330
16F
102
}
330
16F
100
AcDbXrecord
340
0
  0
XRECORD
  5
18D
102
{ACAD_REACTORS
330
16F
102
}
330
16F
100
AcDbXrecord
 10
0.0
 20
0.0
 30
0.0
  0
XRECORD
  5
189
102
{ACAD_REACTORS
330
16F
102
}
330
16F
100
AcDbXrecord
 10
0.0
 20
0.0
 30
0.0
  0
XRECORD
  5
18C
102
{ACAD_REACTORS
330
16F
102
}
330
16F
100
AcDbXrecord
 10
0.0
 20
0.0
 30
0.0
  0
XRECORD
  5
18A
102
{ACAD_REACTORS
330
16F
102
}
330
16F
100
AcDbXrecord
 10
0.0
 20
0.0
 30
0.0
  0
XRECORD
  5
18B
102
{ACAD_REACTORS
330
16F
102
}
330
16F
100
AcDbXrecord
 10
0.0
 20
0.0
 30
0.0
  0
XRECORD
  5
188
102
{ACAD_REACTORS
330
16F
102
}
330
16F
100
AcDbXrecord
 10
0.0
 20
0.0
 30
0.0
  0
XRECORD
  5
185
102
{ACAD_REACTORS
330
16F
102
}
330
16F
100
AcDbXrecord
340
0
  0
XRECORD
  5
186
102
{ACAD_REACTORS
330
16F
102
}
330
16F
100
AcDbXrecord
 70
     0
  0
XRECORD
  5
17A
102
{ACAD_REACTORS
330
16F
102
}
330
16F
100
AcDbXrecord
  1
{FAEB1C32-E019-11D5-929B-00C0DF256EC4}
  0
DICTIONARYVAR
  5
192
102
{ACAD_REACTORS
330
18F
102
}
330
18F
100
DictionaryVariables
280
     0
  1
2
  0
DICTIONARYVAR
  5
193
102
{ACAD_REACTORS
330
18F
102
}
330
18F
100
DictionaryVariables
280
     0
  1
1
  0
DICTIONARY
  5
196
330
3D
100
AcDbDictionary
280
     1
  3
ACAD_XREC_ROUNDTRIP
360
197
  0
DICTIONARY
  5
194
330
3C
100
AcDbDictionary
280
     1
  3
ACAD_XREC_ROUNDTRIP
360
195
  0
DICTIONARY
  5
198
330
3E
100
AcDbDictionary
280
     1
  3
ACAD_XREC_ROUNDTRIP
360
199
  0
XRECORD
  5
197
102
{ACAD_REACTORS
330
196
102
}
330
196
100
AcDbXrecord
102
MATERIAL
148
0.0
149
0.0
149
0.0
 93
        0
 94
      127
282
     0
 72
     1
 77
     1
171
     1
175
     1
179
     1
273
     0
  0
XRECORD
  5
195
102
{ACAD_REACTORS
330
194
102
}
330
194
100
AcDbXrecord
102
MATERIAL
148
0.0
149
0.0
149
0.0
 93
        0
 94
      127
282
     0
 72
     1
 77
     1
171
     1
175
     1
179
     1
273
     0
  0
XRECORD
  5
199
102
{ACAD_REACTORS
330
198
102
}
330
198
100
AcDbXrecord
102
MATERIAL
148
0.0
149
0.0
149
0.0
 93
        0
 94
      127
282
     0
 72
     1
 77
     1
171
     1
175
     1
179
     1
273
     0
  0
ENDSEC
  0
EOF
