  0
SECTION
  2
HEADER
  9
$ACADVER
  1
AC1014
  9
$ACADMAINTVER
 70
     9
  9
$DWGCODEPAGE
  3
ANSI_1250
  9
$INSBASE
 10
0.0
 20
0.0
 30
0.0
  9
$EXTMIN
 10
-33.7334
 20
-24.5434
 30
0.0
  9
$EXTMAX
 10
33.7334
 20
24.5434
 30
0.0
  9
$LIMMIN
 10
0.0
 20
0.0
  9
$LIMMAX
 10
12.0
 20
9.0
  9
$ORTHOMODE
 70
     0
  9
$REGENMODE
 70
     1
  9
$FILLMODE
 70
     1
  9
$QTEXTMODE
 70
     0
  9
$MIRRTEXT
 70
     1
  9
$DRAGMODE
 70
     2
  9
$LTSCALE
 40
1.0
  9
$OSMODE
 70
    37
  9
$ATTMODE
 70
     1
  9
$TEXTSIZE
 40
0.2
  9
$TRACEWID
 40
0.05
  9
$TEXTSTYLE
  7
STANDARD
  9
$CLAYER
  8
0
  9
$CELTYPE
  6
BYLAYER
  9
$CECOLOR
 62
   256
  9
$CELTSCALE
 40
1.0
  9
$DELOBJ
 70
     1
  9
$DISPSILH
 70
     0
  9
$DIMSCALE
 40
1.0
  9
$DIMASZ
 40
0.18
  9
$DIMEXO
 40
0.0625
  9
$DIMDLI
 40
0.38
  9
$DIMRND
 40
0.0
  9
$DIMDLE
 40
0.0
  9
$DIMEXE
 40
0.18
  9
$DIMTP
 40
0.0
  9
$DIMTM
 40
0.0
  9
$DIMTXT
 40
0.18
  9
$DIMCEN
 40
0.09
  9
$DIMTSZ
 40
0.0
  9
$DIMTOL
 70
     0
  9
$DIMLIM
 70
     0
  9
$DIMTIH
 70
     1
  9
$DIMTOH
 70
     1
  9
$DIMSE1
 70
     0
  9
$DIMSE2
 70
     0
  9
$DIMTAD
 70
     0
  9
$DIMZIN
 70
     0
  9
$DIMBLK
  1

  9
$DIMASO
 70
     1
  9
$DIMSHO
 70
     1
  9
$DIMPOST
  1

  9
$DIMAPOST
  1

  9
$DIMALT
 70
     0
  9
$DIMALTD
 70
     2
  9
$DIMALTF
 40
25.4
  9
$DIMLFAC
 40
1.0
  9
$DIMTOFL
 70
     0
  9
$DIMTVP
 40
0.0
  9
$DIMTIX
 70
     0
  9
$DIMSOXD
 70
     0
  9
$DIMSAH
 70
     0
  9
$DIMBLK1
  1

  9
$DIMBLK2
  1

  9
$DIMSTYLE
  2
STANDARD
  9
$DIMCLRD
 70
     0
  9
$DIMCLRE
 70
     0
  9
$DIMCLRT
 70
     0
  9
$DIMTFAC
 40
1.0
  9
$DIMGAP
 40
0.09
  9
$DIMJUST
 70
     0
  9
$DIMSD1
 70
     0
  9
$DIMSD2
 70
     0
  9
$DIMTOLJ
 70
     1
  9
$DIMTZIN
 70
     0
  9
$DIMALTZ
 70
     0
  9
$DIMALTTZ
 70
     0
  9
$DIMFIT
 70
     3
  9
$DIMUPT
 70
     0
  9
$DIMUNIT
 70
     2
  9
$DIMDEC
 70
     4
  9
$DIMTDEC
 70
     4
  9
$DIMALTU
 70
     2
  9
$DIMALTTD
 70
     2
  9
$DIMTXSTY
  7
STANDARD
  9
$DIMAUNIT
 70
     0
  9
$LUNITS
 70
     2
  9
$LUPREC
 70
     4
  9
$SKETCHINC
 40
0.1
  9
$FILLETRAD
 40
0.5
  9
$AUNITS
 70
     0
  9
$AUPREC
 70
     0
  9
$MENU
  1
.
  9
$ELEVATION
 40
0.0
  9
$PELEVATION
 40
0.0
  9
$THICKNESS
 40
0.0
  9
$LIMCHECK
 70
     0
  9
$CHAMFERA
 40
0.5
  9
$CHAMFERB
 40
0.5
  9
$CHAMFERC
 40
1.0
  9
$CHAMFERD
 40
0.0
  9
$SKPOLY
 70
     0
  9
$TDCREATE
 40
2456247.442505671
  9
$TDUPDATE
 40
2456247.442505683
  9
$TDINDWG
 40
0.0000000116
  9
$TDUSRTIMER
 40
0.0000000116
  9
$USRTIMER
 70
     1
  9
$ANGBASE
 50
0.0
  9
$ANGDIR
 70
     0
  9
$PDMODE
 70
     0
  9
$PDSIZE
 40
0.0
  9
$PLINEWID
 40
0.0
  9
$COORDS
 70
     1
  9
$SPLFRAME
 70
     0
  9
$SPLINETYPE
 70
     6
  9
$SPLINESEGS
 70
     8
  9
$ATTDIA
 70
     0
  9
$ATTREQ
 70
     1
  9
$HANDLING
 70
     1
  9
$HANDSEED
  5
DD
  9
$SURFTAB1
 70
     6
  9
$SURFTAB2
 70
     6
  9
$SURFTYPE
 70
     6
  9
$SURFU
 70
     6
  9
$SURFV
 70
     6
  9
$UCSNAME
  2

  9
$UCSORG
 10
0.0
 20
0.0
 30
0.0
  9
$UCSXDIR
 10
1.0
 20
0.0
 30
0.0
  9
$UCSYDIR
 10
0.0
 20
1.0
 30
0.0
  9
$PUCSNAME
  2

  9
$PUCSORG
 10
0.0
 20
0.0
 30
0.0
  9
$PUCSXDIR
 10
1.0
 20
0.0
 30
0.0
  9
$PUCSYDIR
 10
0.0
 20
1.0
 30
0.0
  9
$USERI1
 70
     0
  9
$USERI2
 70
     0
  9
$USERI3
 70
     0
  9
$USERI4
 70
     0
  9
$USERI5
 70
     0
  9
$USERR1
 40
0.0
  9
$USERR2
 40
0.0
  9
$USERR3
 40
0.0
  9
$USERR4
 40
0.0
  9
$USERR5
 40
0.0
  9
$WORLDVIEW
 70
     1
  9
$SHADEDGE
 70
     3
  9
$SHADEDIF
 70
    70
  9
$TILEMODE
 70
     1
  9
$MAXACTVP
 70
    64
  9
$PINSBASE
 10
0.0
 20
0.0
 30
0.0
  9
$PLIMCHECK
 70
     0
  9
$PEXTMIN
 10
1.000000000000000E+20
 20
1.000000000000000E+20
 30
1.000000000000000E+20
  9
$PEXTMAX
 10
-1.000000000000000E+20
 20
-1.000000000000000E+20
 30
-1.000000000000000E+20
  9
$PLIMMIN
 10
0.0
 20
0.0
  9
$PLIMMAX
 10
12.0
 20
9.0
  9
$UNITMODE
 70
     0
  9
$VISRETAIN
 70
     1
  9
$PLINEGEN
 70
     0
  9
$PSLTSCALE
 70
     1
  9
$TREEDEPTH
 70
  3020
  9
$PICKSTYLE
 70
     1
  9
$CMLSTYLE
  2
STANDARD
  9
$CMLJUST
 70
     0
  9
$CMLSCALE
 40
1.0
  9
$PROXYGRAPHICS
 70
     1
  9
$MEASUREMENT
 70
     0
  0
ENDSEC
  0
SECTION
  2
CLASSES
  0
CLASS
  1
ACDBDICTIONARYWDFLT
  2
AcDbDictionaryWithDefault
  3
ObjectDBX Classes
 90
        0
280
     0
281
     0
  0
CLASS
  1
VISUALSTYLE
  2
AcDbVisualStyle
  3
ObjectDBX Classes
 90
     4095
280
     0
281
     0
  0
CLASS
  1
MATERIAL
  2
AcDbMaterial
  3
ObjectDBX Classes
 90
     1153
280
     0
281
     0
  0
CLASS
  1
DICTIONARYVAR
  2
AcDbDictionaryVar
  3
ObjectDBX Classes
 90
        0
280
     0
281
     0
  0
CLASS
  1
XRECORD
  2
AcDbXrecord
  3
AutoCAD 2000
 90
        0
280
     0
281
     0
  0
CLASS
  1
LWPOLYLINE
  2
AcDbPolyline
  3
AutoCAD 2000
 90
        0
280
     0
281
     1
  0
CLASS
  1
HATCH
  2
AcDbHatch
  3
AutoCAD 2000
 90
        0
280
     0
281
     1
  0
CLASS
  1
ACDBPLACEHOLDER
  2
AcDbPlaceHolder
  3
ObjectDBX Classes
 90
        0
280
     0
281
     0
  0
CLASS
  1
LAYOUT
  2
AcDbLayout
  3
ObjectDBX Classes
 90
        0
280
     0
281
     0
  0
ENDSEC
  0
SECTION
  2
TABLES
  0
TABLE
  2
VPORT
  5
8
330
0
100
AcDbSymbolTable
 70
     1
  0
VPORT
  5
29
330
8
100
AcDbSymbolTableRecord
100
AcDbViewportTableRecord
  2
*ACTIVE
 70
     0
 10
0.0
 20
0.0
 11
1.0
 21
1.0
 12
10.42990654205607
 22
4.5
 13
0.0
 23
0.0
 14
0.5
 24
0.5
 15
0.5
 25
0.5
 16
0.0
 26
0.0
 36
1.0
 17
0.0
 27
0.0
 37
0.0
 40
9.0
 41
1.972972972850329
 42
50.0
 43
0.0
 44
0.0
 50
0.0
 51
0.0
 71
     0
 72
   100
 73
     1
 74
     3
 75
     0
 76
     0
 77
     0
 78
     0
  0
ENDTAB
  0
TABLE
  2
LTYPE
  5
5
330
0
100
AcDbSymbolTable
 70
     4
  0
LTYPE
  5
14
330
5
100
AcDbSymbolTableRecord
100
AcDbLinetypeTableRecord
  2
BYBLOCK
 70
     0
  3

 72
    65
 73
     0
 40
0.0
  0
LTYPE
  5
15
330
5
100
AcDbSymbolTableRecord
100
AcDbLinetypeTableRecord
  2
BYLAYER
 70
     0
  3

 72
    65
 73
     0
 40
0.0
  0
LTYPE
  5
16
330
5
100
AcDbSymbolTableRecord
100
AcDbLinetypeTableRecord
  2
CONTINUOUS
 70
     0
  3
Solid line
 72
    65
 73
     0
 40
0.0
  0
LTYPE
  5
68
330
5
100
AcDbSymbolTableRecord
100
AcDbLinetypeTableRecord
  2
NEW_LINE1
 70
     0
  3

 72
    65
 73
     4
 40
1.2
 49
0.5
 74
     4
 75
     0
340
0
 46
1.0
 50
0.0
 44
0.0
 45
0.0
 49
-0.3
 74
     4
 75
     0
340
0
 46
1.0
 50
0.0
 44
0.0
 45
0.0
 49
0.1
 74
     4
 75
     0
340
0
 46
1.0
 50
0.0
 44
0.0
 45
0.0
 49
-0.3
 74
     4
 75
     0
340
0
 46
1.0
 50
0.0
 44
0.0
 45
0.0
  0
LTYPE
  5
9A
330
5
100
AcDbSymbolTableRecord
100
AcDbLinetypeTableRecord
  2
NEW_LINE2
 70
     0
  3

 72
    65
 73
     4
 40
1.2
 49
0.5
 74
     4
 75
     0
340
0
 46
1.0
 50
0.0
 44
0.0
 45
0.0
 49
-0.3
 74
     4
 75
     0
340
0
 46
1.0
 50
0.0
 44
0.0
 45
0.0
 49
0.1
 74
     4
 75
     0
340
0
 46
1.0
 50
0.0
 44
0.0
 45
0.0
 49
-0.3
 74
     4
 75
     0
340
0
 46
1.0
 50
0.0
 44
0.0
 45
0.0
  0
LTYPE
  5
9C
330
5
100
AcDbSymbolTableRecord
100
AcDbLinetypeTableRecord
  2
NEW_LINE3
 70
     0
  3

 72
    65
 73
     4
 40
1.2
 49
0.5
 74
     4
 75
     0
340
0
 46
1.0
 50
0.0
 44
0.0
 45
0.0
 49
-0.3
 74
     4
 75
     0
340
0
 46
1.0
 50
0.0
 44
0.0
 45
0.0
 49
0.1
 74
     4
 75
     0
340
0
 46
1.0
 50
0.0
 44
0.0
 45
0.0
 49
-0.3
 74
     4
 75
     0
340
0
 46
1.0
 50
0.0
 44
0.0
 45
0.0
  0
ENDTAB
  0
TABLE
  2
LAYER
  5
2
330
0
100
AcDbSymbolTable
 70
     2
  0
LAYER
  5
10
330
2
100
AcDbSymbolTableRecord
100
AcDbLayerTableRecord
  2
0
 70
     0
 62
     7
  6
CONTINUOUS
  0
LAYER
  5
40
330
2
100
AcDbSymbolTableRecord
100
AcDbLayerTableRecord
  2
ROUND
 70
     0
 62
     7
  6
CONTINUOUS
  0
ENDTAB
  0
TABLE
  2
STYLE
  5
3
330
0
100
AcDbSymbolTable
 70
     1
  0
STYLE
  5
11
330
3
100
AcDbSymbolTableRecord
100
AcDbTextStyleTableRecord
  2
STANDARD
 70
     0
 40
0.0
 41
1.0
 50
0.0
 71
     0
 42
0.2
  3
txt
  4

  0
ENDTAB
  0
TABLE
  2
VIEW
  5
6
330
0
100
AcDbSymbolTable
 70
     0
  0
ENDTAB
  0
TABLE
  2
UCS
  5
7
330
0
100
AcDbSymbolTable
 70
     0
  0
ENDTAB
  0
TABLE
  2
APPID
  5
9
330
0
100
AcDbSymbolTable
 70
     2
  0
APPID
  5
12
330
9
100
AcDbSymbolTableRecord
100
AcDbRegAppTableRecord
  2
ACAD
 70
     0
  0
APPID
  5
3F
330
9
100
AcDbSymbolTableRecord
100
AcDbRegAppTableRecord
  2
ODA
 70
     0
  0
ENDTAB
  0
TABLE
  2
DIMSTYLE
  5
A
330
0
100
AcDbSymbolTable
 70
     1
  0
DIMSTYLE
105
27
330
A
100
AcDbSymbolTableRecord
100
AcDbDimStyleTableRecord
  2
STANDARD
 70
     0
  3

  4

  5

  6

  7

 40
1.0
 41
0.18
 42
0.0625
 43
0.38
 44
0.18
 45
0.0
 46
0.0
 47
0.0
 48
0.0
140
0.18
141
0.09
142
0.0
143
25.4
144
1.0
145
0.0
146
1.0
147
0.09
 71
     0
 72
     0
 73
     1
 74
     1
 75
     0
 76
     0
 77
     0
 78
     0
170
     0
171
     2
172
     0
173
     0
174
     0
175
     0
176
     0
177
     0
178
     0
270
     2
271
     4
272
     4
273
     2
274
     2
340
11
275
     0
280
     0
281
     0
282
     0
283
     1
284
     0
285
     0
286
     0
287
     3
288
     0
  0
ENDTAB
  0
TABLE
  2
BLOCK_RECORD
  5
1
330
0
100
AcDbSymbolTable
 70
     1
  0
BLOCK_RECORD
  5
1F
330
1
100
AcDbSymbolTableRecord
100
AcDbBlockTableRecord
  2
*MODEL_SPACE
  0
BLOCK_RECORD
  5
1B
330
1
100
AcDbSymbolTableRecord
100
AcDbBlockTableRecord
  2
*PAPER_SPACE
  0
ENDTAB
  0
ENDSEC
  0
SECTION
  2
BLOCKS
  0
BLOCK
  5
20
330
1F
100
AcDbEntity
  8
0
100
AcDbBlockBegin
  2
*MODEL_SPACE
 70
     0
 10
0.0
 20
0.0
 30
0.0
  3
*MODEL_SPACE
  1

  0
ENDBLK
  5
21
330
1F
100
AcDbEntity
  8
0
100
AcDbBlockEnd
  0
BLOCK
  5
1C
330
1B
100
AcDbEntity
 67
     1
  8
0
100
AcDbBlockBegin
  2
*PAPER_SPACE
 70
     0
 10
0.0
 20
0.0
 30
0.0
  3
*PAPER_SPACE
  1

  0
ENDBLK
  5
1D
330
1B
100
AcDbEntity
 67
     1
  8
0
100
AcDbBlockEnd
  0
ENDSEC
  0
SECTION
  2
ENTITIES
  0
SPLINE
  5
41
330
1F
100
AcDbEntity
  8
ROUND
 62
   250
100
AcDbSpline
210
0.0
220
0.0
230
1.0
 70
    11
 71
     3
 72
    20
 73
    16
 74
     0
 42
0.0000000001
 43
0.0000000001
 40
0.0
 40
0.0
 40
0.0
 40
0.0
 40
0.2
 40
0.2
 40
0.2
 40
0.2
 40
0.4
 40
0.4
 40
0.4
 40
0.4
 40
0.6
 40
0.6
 40
0.6
 40
0.6
 40
1.0
 40
1.0
 40
1.0
 40
1.0
 10
-31.4175
 20
-0.7391
 30
0.0
 10
-31.4175
 20
-0.7391
 30
0.0
 10
-30.9941
 20
2.261
 30
0.0
 10
-30.9941
 20
2.261
 30
0.0
 10
-30.9941
 20
2.261
 30
0.0
 10
-30.9941
 20
2.261
 30
0.0
 10
-30.9
 20
2.261
 30
0.0
 10
-30.9
 20
2.261
 30
0.0
 10
-30.9
 20
2.261
 30
0.0
 10
-30.9
 20
2.261
 30
0.0
 10
-30.4485
 20
-0.7391
 30
0.0
 10
-30.4485
 20
-0.7391
 30
0.0
 10
-30.4485
 20
-0.7391
 30
0.0
 10
-30.4485
 20
-0.7391
 30
0.0
 10
-31.4175
 20
-0.7391
 30
0.0
 10
-31.4175
 20
-0.7391
 30
0.0
  0
SPLINE
  5
42
330
1F
100
AcDbEntity
  8
ROUND
 62
   250
100
AcDbSpline
210
0.0
220
0.0
230
1.0
 70
    11
 71
     3
 72
    20
 73
    16
 74
     0
 42
0.0000000001
 43
0.0000000001
 40
0.0
 40
0.0
 40
0.0
 40
0.0
 40
0.2
 40
0.2
 40
0.2
 40
0.2
 40
0.4
 40
0.4
 40
0.4
 40
0.4
 40
0.6
 40
0.6
 40
0.6
 40
0.6
 40
1.0
 40
1.0
 40
1.0
 40
1.0
 10
-30.4733
 20
-7.9915
 30
0.0
 10
-30.4733
 20
-7.9915
 30
0.0
 10
-30.8967
 20
-10.9915
 30
0.0
 10
-30.8967
 20
-10.9915
 30
0.0
 10
-30.8967
 20
-10.9915
 30
0.0
 10
-30.8967
 20
-10.9915
 30
0.0
 10
-30.9908
 20
-10.9915
 30
0.0
 10
-30.9908
 20
-10.9915
 30
0.0
 10
-30.9908
 20
-10.9915
 30
0.0
 10
-30.9908
 20
-10.9915
 30
0.0
 10
-31.4423
 20
-7.9915
 30
0.0
 10
-31.4423
 20
-7.9915
 30
0.0
 10
-31.4423
 20
-7.9915
 30
0.0
 10
-31.4423
 20
-7.9915
 30
0.0
 10
-30.4733
 20
-7.9915
 30
0.0
 10
-30.4733
 20
-7.9915
 30
0.0
  0
SPLINE
  5
43
330
1F
100
AcDbEntity
  8
ROUND
 62
   250
100
AcDbSpline
210
0.0
220
0.0
230
1.0
 70
    11
 71
     3
 72
    20
 73
    16
 74
     0
 42
0.0000000001
 43
0.0000000001
 40
0.0
 40
0.0
 40
0.0
 40
0.0
 40
0.2
 40
0.2
 40
0.2
 40
0.2
 40
0.4
 40
0.4
 40
0.4
 40
0.4
 40
0.6
 40
0.6
 40
0.6
 40
0.6
 40
1.0
 40
1.0
 40
1.0
 40
1.0
 10
-23.7108
 20
-23.7409
 30
0.0
 10
-23.7108
 20
-23.7409
 30
0.0
 10
-26.7109
 20
-23.3175
 30
0.0
 10
-26.7109
 20
-23.3175
 30
0.0
 10
-26.7109
 20
-23.3175
 30
0.0
 10
-26.7109
 20
-23.3175
 30
0.0
 10
-26.7109
 20
-23.2234
 30
0.0
 10
-26.7109
 20
-23.2234
 30
0.0
 10
-26.7109
 20
-23.2234
 30
0.0
 10
-26.7109
 20
-23.2234
 30
0.0
 10
-23.7108
 20
-22.7719
 30
0.0
 10
-23.7108
 20
-22.7719
 30
0.0
 10
-23.7108
 20
-22.7719
 30
0.0
 10
-23.7108
 20
-22.7719
 30
0.0
 10
-23.7108
 20
-23.7409
 30
0.0
 10
-23.7108
 20
-23.7409
 30
0.0
  0
SPLINE
  5
44
330
1F
100
AcDbEntity
  8
ROUND
 62
   250
100
AcDbSpline
210
0.0
220
0.0
230
1.0
 70
    11
 71
     3
 72
    20
 73
    16
 74
     0
 42
0.0000000001
 43
0.0000000001
 40
0.0
 40
0.0
 40
0.0
 40
0.0
 40
0.2
 40
0.2
 40
0.2
 40
0.2
 40
0.4
 40
0.4
 40
0.4
 40
0.4
 40
0.6
 40
0.6
 40
0.6
 40
0.6
 40
1.0
 40
1.0
 40
1.0
 40
1.0
 10
18.475
 20
-22.7869
 30
0.0
 10
18.475
 20
-22.7869
 30
0.0
 10
21.475
 20
-23.2103
 30
0.0
 10
21.475
 20
-23.2103
 30
0.0
 10
21.475
 20
-23.2103
 30
0.0
 10
21.475
 20
-23.2103
 30
0.0
 10
21.475
 20
-23.3044
 30
0.0
 10
21.475
 20
-23.3044
 30
0.0
 10
21.475
 20
-23.3044
 30
0.0
 10
21.475
 20
-23.3044
 30
0.0
 10
18.475
 20
-23.7559
 30
0.0
 10
18.475
 20
-23.7559
 30
0.0
 10
18.475
 20
-23.7559
 30
0.0
 10
18.475
 20
-23.7559
 30
0.0
 10
18.475
 20
-22.7869
 30
0.0
 10
18.475
 20
-22.7869
 30
0.0
  0
SPLINE
  5
45
330
1F
100
AcDbEntity
  8
ROUND
 62
   250
100
AcDbSpline
210
0.0
220
0.0
230
1.0
 70
    11
 71
     3
 72
    20
 73
    16
 74
     0
 42
0.0000000001
 43
0.0000000001
 40
0.0
 40
0.0
 40
0.0
 40
0.0
 40
0.2
 40
0.2
 40
0.2
 40
0.2
 40
0.4
 40
0.4
 40
0.4
 40
0.4
 40
0.6
 40
0.6
 40
0.6
 40
0.6
 40
1.0
 40
1.0
 40
1.0
 40
1.0
 10
24.6102
 20
11.3695
 30
0.0
 10
24.6102
 20
11.3695
 30
0.0
 10
21.6101
 20
11.7929
 30
0.0
 10
21.6101
 20
11.7929
 30
0.0
 10
21.6101
 20
11.7929
 30
0.0
 10
21.6101
 20
11.7929
 30
0.0
 10
21.6101
 20
11.8869
 30
0.0
 10
21.6101
 20
11.8869
 30
0.0
 10
21.6101
 20
11.8869
 30
0.0
 10
21.6101
 20
11.8869
 30
0.0
 10
24.6102
 20
12.3384
 30
0.0
 10
24.6102
 20
12.3384
 30
0.0
 10
24.6102
 20
12.3384
 30
0.0
 10
24.6102
 20
12.3384
 30
0.0
 10
24.6102
 20
11.3695
 30
0.0
 10
24.6102
 20
11.3695
 30
0.0
  0
SPLINE
  5
46
330
1F
100
AcDbEntity
  8
ROUND
 62
   250
100
AcDbSpline
210
0.0
220
0.0
230
1.0
 70
    11
 71
     3
 72
    20
 73
    16
 74
     0
 42
0.0000000001
 43
0.0000000001
 40
0.0
 40
0.0
 40
0.0
 40
0.0
 40
0.2
 40
0.2
 40
0.2
 40
0.2
 40
0.4
 40
0.4
 40
0.4
 40
0.4
 40
0.6
 40
0.6
 40
0.6
 40
0.6
 40
1.0
 40
1.0
 40
1.0
 40
1.0
 10
7.9895
 20
12.3041
 30
0.0
 10
7.9895
 20
12.3041
 30
0.0
 10
10.9896
 20
11.8807
 30
0.0
 10
10.9896
 20
11.8807
 30
0.0
 10
10.9896
 20
11.8807
 30
0.0
 10
10.9896
 20
11.8807
 30
0.0
 10
10.9896
 20
11.7867
 30
0.0
 10
10.9896
 20
11.7867
 30
0.0
 10
10.9896
 20
11.7867
 30
0.0
 10
10.9896
 20
11.7867
 30
0.0
 10
7.9895
 20
11.3352
 30
0.0
 10
7.9895
 20
11.3352
 30
0.0
 10
7.9895
 20
11.3352
 30
0.0
 10
7.9895
 20
11.3352
 30
0.0
 10
7.9895
 20
12.3041
 30
0.0
 10
7.9895
 20
12.3041
 30
0.0
  0
SPLINE
  5
47
330
1F
100
AcDbEntity
  8
ROUND
 62
   250
100
AcDbSpline
210
0.0
220
0.0
230
1.0
 70
    11
 71
     3
 72
    20
 73
    16
 74
     0
 42
0.0000000001
 43
0.0000000001
 40
0.0
 40
0.0
 40
0.0
 40
0.0
 40
0.2
 40
0.2
 40
0.2
 40
0.2
 40
0.4
 40
0.4
 40
0.4
 40
0.4
 40
0.6
 40
0.6
 40
0.6
 40
0.6
 40
1.0
 40
1.0
 40
1.0
 40
1.0
 10
26.8996
 20
-12.5705
 30
0.0
 10
26.8996
 20
-12.5705
 30
0.0
 10
27.323
 20
-9.5705
 30
0.0
 10
27.323
 20
-9.5705
 30
0.0
 10
27.323
 20
-9.5705
 30
0.0
 10
27.323
 20
-9.5705
 30
0.0
 10
27.4171
 20
-9.5705
 30
0.0
 10
27.4171
 20
-9.5705
 30
0.0
 10
27.4171
 20
-9.5705
 30
0.0
 10
27.4171
 20
-9.5705
 30
0.0
 10
27.8686
 20
-12.5705
 30
0.0
 10
27.8686
 20
-12.5705
 30
0.0
 10
27.8686
 20
-12.5705
 30
0.0
 10
27.8686
 20
-12.5705
 30
0.0
 10
26.8996
 20
-12.5705
 30
0.0
 10
26.8996
 20
-12.5705
 30
0.0
  0
SPLINE
  5
48
330
1F
100
AcDbEntity
  8
ROUND
 62
   250
100
AcDbSpline
210
0.0
220
0.0
230
1.0
 70
    11
 71
     3
 72
    20
 73
    16
 74
     0
 42
0.0000000001
 43
0.0000000001
 40
0.0
 40
0.0
 40
0.0
 40
0.0
 40
0.2
 40
0.2
 40
0.2
 40
0.2
 40
0.4
 40
0.4
 40
0.4
 40
0.4
 40
0.6
 40
0.6
 40
0.6
 40
0.6
 40
1.0
 40
1.0
 40
1.0
 40
1.0
 10
27.8686
 20
3.7248
 30
0.0
 10
27.8686
 20
3.7248
 30
0.0
 10
27.4452
 20
0.7248
 30
0.0
 10
27.4452
 20
0.7248
 30
0.0
 10
27.4452
 20
0.7248
 30
0.0
 10
27.4452
 20
0.7248
 30
0.0
 10
27.3511
 20
0.7248
 30
0.0
 10
27.3511
 20
0.7248
 30
0.0
 10
27.3511
 20
0.7248
 30
0.0
 10
27.3511
 20
0.7248
 30
0.0
 10
26.8996
 20
3.7248
 30
0.0
 10
26.8996
 20
3.7248
 30
0.0
 10
26.8996
 20
3.7248
 30
0.0
 10
26.8996
 20
3.7248
 30
0.0
 10
27.8686
 20
3.7248
 30
0.0
 10
27.8686
 20
3.7248
 30
0.0
  0
SPLINE
  5
49
330
1F
100
AcDbEntity
  8
ROUND
 62
   250
100
AcDbSpline
210
0.0
220
0.0
230
1.0
 70
    11
 71
     3
 72
    20
 73
    16
 74
     0
 42
0.0000000001
 43
0.0000000001
 40
0.0
 40
0.0
 40
0.0
 40
0.0
 40
0.2
 40
0.2
 40
0.2
 40
0.2
 40
0.4
 40
0.4
 40
0.4
 40
0.4
 40
0.6
 40
0.6
 40
0.6
 40
0.6
 40
1.0
 40
1.0
 40
1.0
 40
1.0
 10
32.4074
 20
6.4137
 30
0.0
 10
32.4074
 20
6.4137
 30
0.0
 10
32.8308
 20
9.4137
 30
0.0
 10
32.8308
 20
9.4137
 30
0.0
 10
32.8308
 20
9.4137
 30
0.0
 10
32.8308
 20
9.4137
 30
0.0
 10
32.9249
 20
9.4137
 30
0.0
 10
32.9249
 20
9.4137
 30
0.0
 10
32.9249
 20
9.4137
 30
0.0
 10
32.9249
 20
9.4137
 30
0.0
 10
33.3764
 20
6.4137
 30
0.0
 10
33.3764
 20
6.4137
 30
0.0
 10
33.3764
 20
6.4137
 30
0.0
 10
33.3764
 20
6.4137
 30
0.0
 10
32.4074
 20
6.4137
 30
0.0
 10
32.4074
 20
6.4137
 30
0.0
  0
SPLINE
  5
4A
330
1F
100
AcDbEntity
  8
ROUND
 62
   250
100
AcDbSpline
210
0.0
220
0.0
230
1.0
 70
    11
 71
     3
 72
    20
 73
    16
 74
     0
 42
0.0000000001
 43
0.0000000001
 40
0.0
 40
0.0
 40
0.0
 40
0.0
 40
0.2
 40
0.2
 40
0.2
 40
0.2
 40
0.4
 40
0.4
 40
0.4
 40
0.4
 40
0.6
 40
0.6
 40
0.6
 40
0.6
 40
1.0
 40
1.0
 40
1.0
 40
1.0
 10
33.368
 20
-15.2424
 30
0.0
 10
33.368
 20
-15.2424
 30
0.0
 10
32.9446
 20
-18.2424
 30
0.0
 10
32.9446
 20
-18.2424
 30
0.0
 10
32.9446
 20
-18.2424
 30
0.0
 10
32.9446
 20
-18.2424
 30
0.0
 10
32.8505
 20
-18.2424
 30
0.0
 10
32.8505
 20
-18.2424
 30
0.0
 10
32.8505
 20
-18.2424
 30
0.0
 10
32.8505
 20
-18.2424
 30
0.0
 10
32.399
 20
-15.2424
 30
0.0
 10
32.399
 20
-15.2424
 30
0.0
 10
32.399
 20
-15.2424
 30
0.0
 10
32.399
 20
-15.2424
 30
0.0
 10
33.368
 20
-15.2424
 30
0.0
 10
33.368
 20
-15.2424
 30
0.0
  0
SPLINE
  5
4B
330
1F
100
AcDbEntity
  8
ROUND
 62
   250
100
AcDbSpline
210
0.0
220
0.0
230
1.0
 70
    11
 71
     3
 72
    20
 73
    16
 74
     0
 42
0.0000000001
 43
0.0000000001
 40
0.0
 40
0.0
 40
0.0
 40
0.0
 40
0.2
 40
0.2
 40
0.2
 40
0.2
 40
0.4
 40
0.4
 40
0.4
 40
0.4
 40
0.6
 40
0.6
 40
0.6
 40
0.6
 40
1.0
 40
1.0
 40
1.0
 40
1.0
 10
-23.7028
 20
21.6354
 30
0.0
 10
-23.7028
 20
21.6354
 30
0.0
 10
-26.7028
 20
22.0588
 30
0.0
 10
-26.7028
 20
22.0588
 30
0.0
 10
-26.7028
 20
22.0588
 30
0.0
 10
-26.7028
 20
22.0588
 30
0.0
 10
-26.7028
 20
22.1529
 30
0.0
 10
-26.7028
 20
22.1529
 30
0.0
 10
-26.7028
 20
22.1529
 30
0.0
 10
-26.7028
 20
22.1529
 30
0.0
 10
-23.7028
 20
22.6044
 30
0.0
 10
-23.7028
 20
22.6044
 30
0.0
 10
-23.7028
 20
22.6044
 30
0.0
 10
-23.7028
 20
22.6044
 30
0.0
 10
-23.7028
 20
21.6354
 30
0.0
 10
-23.7028
 20
21.6354
 30
0.0
  0
SPLINE
  5
4C
330
1F
100
AcDbEntity
  8
ROUND
 62
   250
100
AcDbSpline
210
0.0
220
0.0
230
1.0
 70
    11
 71
     3
 72
    20
 73
    16
 74
     0
 42
0.0000000001
 43
0.0000000001
 40
0.0
 40
0.0
 40
0.0
 40
0.0
 40
0.2
 40
0.2
 40
0.2
 40
0.2
 40
0.4
 40
0.4
 40
0.4
 40
0.4
 40
0.6
 40
0.6
 40
0.6
 40
0.6
 40
1.0
 40
1.0
 40
1.0
 40
1.0
 10
-10.6756
 20
22.4732
 30
0.0
 10
-10.6756
 20
22.4732
 30
0.0
 10
-7.6756
 20
22.0498
 30
0.0
 10
-7.6756
 20
22.0498
 30
0.0
 10
-7.6756
 20
22.0498
 30
0.0
 10
-7.6756
 20
22.0498
 30
0.0
 10
-7.6756
 20
21.9558
 30
0.0
 10
-7.6756
 20
21.9558
 30
0.0
 10
-7.6756
 20
21.9558
 30
0.0
 10
-7.6756
 20
21.9558
 30
0.0
 10
-10.6756
 20
21.5042
 30
0.0
 10
-10.6756
 20
21.5042
 30
0.0
 10
-10.6756
 20
21.5042
 30
0.0
 10
-10.6756
 20
21.5042
 30
0.0
 10
-10.6756
 20
22.4732
 30
0.0
 10
-10.6756
 20
22.4732
 30
0.0
  0
SPLINE
  5
4D
330
1F
100
AcDbEntity
  8
ROUND
 62
   250
100
AcDbSpline
210
0.0
220
0.0
230
1.0
 70
    24
 71
     3
 72
     8
 73
     4
 74
     0
 42
0.0000000001
 43
0.0000000001
 40
0.0
 40
0.0
 40
0.0
 40
0.0
 40
1.0
 40
1.0
 40
1.0
 40
1.0
 10
19.9783
 20
-9.3168
 30
0.0
 10
19.9783
 20
-9.3168
 30
0.0
 10
19.7791
 20
0.61
 30
0.0
 10
19.7791
 20
0.61
 30
0.0
  0
SPLINE
  5
4E
330
1F
100
AcDbEntity
  8
ROUND
 62
   250
100
AcDbSpline
210
0.0
220
0.0
230
1.0
 70
    24
 71
     3
 72
     8
 73
     4
 74
     0
 42
0.0000000001
 43
0.0000000001
 40
0.0
 40
0.0
 40
0.0
 40
0.0
 40
1.0
 40
1.0
 40
1.0
 40
1.0
 10
16.1103
 20
-9.267
 30
0.0
 10
16.1103
 20
-9.267
 30
0.0
 10
15.9111
 20
0.6598
 30
0.0
 10
15.9111
 20
0.6598
 30
0.0
  0
SPLINE
  5
4F
330
1F
100
AcDbEntity
  8
ROUND
 62
   250
100
AcDbSpline
210
0.0
220
0.0
230
1.0
 70
    24
 71
     3
 72
     8
 73
     4
 74
     0
 42
0.0000000001
 43
0.0000000001
 40
0.0
 40
0.0
 40
0.0
 40
0.0
 40
1.0
 40
1.0
 40
1.0
 40
1.0
 10
16.8075
 20
-9.267
 30
0.0
 10
16.8075
 20
-9.267
 30
0.0
 10
16.6083
 20
0.6598
 30
0.0
 10
16.6083
 20
0.6598
 30
0.0
  0
SPLINE
  5
50
330
1F
100
AcDbEntity
  8
ROUND
 62
   250
100
AcDbSpline
210
0.0
220
0.0
230
1.0
 70
    24
 71
     3
 72
     8
 73
     4
 74
     0
 42
0.0000000001
 43
0.0000000001
 40
0.0
 40
0.0
 40
0.0
 40
0.0
 40
1.0
 40
1.0
 40
1.0
 40
1.0
 10
17.4383
 20
-9.3168
 30
0.0
 10
17.4383
 20
-9.3168
 30
0.0
 10
17.2391
 20
0.61
 30
0.0
 10
17.2391
 20
0.61
 30
0.0
  0
SPLINE
  5
51
330
1F
100
AcDbEntity
  8
ROUND
 62
   250
100
AcDbSpline
210
0.0
220
0.0
230
1.0
 70
    24
 71
     3
 72
     8
 73
     4
 74
     0
 42
0.0000000001
 43
0.0000000001
 40
0.0
 40
0.0
 40
0.0
 40
0.0
 40
1.0
 40
1.0
 40
1.0
 40
1.0
 10
18.0195
 20
-9.3002
 30
0.0
 10
18.0195
 20
-9.3002
 30
0.0
 10
17.8203
 20
0.6266
 30
0.0
 10
17.8203
 20
0.6266
 30
0.0
  0
SPLINE
  5
52
330
1F
100
AcDbEntity
  8
ROUND
 62
   250
100
AcDbSpline
210
0.0
220
0.0
230
1.0
 70
    24
 71
     3
 72
     8
 73
     4
 74
     0
 42
0.0000000001
 43
0.0000000001
 40
0.0
 40
0.0
 40
0.0
 40
0.0
 40
1.0
 40
1.0
 40
1.0
 40
1.0
 10
18.6503
 20
-9.267
 30
0.0
 10
18.6503
 20
-9.267
 30
0.0
 10
18.4511
 20
0.6598
 30
0.0
 10
18.4511
 20
0.6598
 30
0.0
  0
SPLINE
  5
53
330
1F
100
AcDbEntity
  8
ROUND
 62
   250
100
AcDbSpline
210
0.0
220
0.0
230
1.0
 70
    24
 71
     3
 72
     8
 73
     4
 74
     0
 42
0.0000000001
 43
0.0000000001
 40
0.0
 40
0.0
 40
0.0
 40
0.0
 40
1.0
 40
1.0
 40
1.0
 40
1.0
 10
19.3475
 20
-9.267
 30
0.0
 10
19.3475
 20
-9.267
 30
0.0
 10
19.1483
 20
0.6598
 30
0.0
 10
19.1483
 20
0.6598
 30
0.0
  0
SPLINE
  5
54
330
1F
100
AcDbEntity
  8
ROUND
 62
   250
100
AcDbSpline
210
0.0
220
0.0
230
1.0
 70
    24
 71
     3
 72
     8
 73
     4
 74
     0
 42
0.0000000001
 43
0.0000000001
 40
0.0
 40
0.0
 40
0.0
 40
0.0
 40
1.0
 40
1.0
 40
1.0
 40
1.0
 10
15.4795
 20
-9.3002
 30
0.0
 10
15.4795
 20
-9.3002
 30
0.0
 10
15.2803
 20
0.6266
 30
0.0
 10
15.2803
 20
0.6266
 30
0.0
  0
SPLINE
  5
55
330
1F
100
AcDbEntity
  8
ROUND
 62
   250
100
AcDbSpline
210
0.0
220
0.0
230
1.0
 70
    24
 71
     3
 72
     8
 73
     4
 74
     0
 42
0.0000000001
 43
0.0000000001
 40
0.0
 40
0.0
 40
0.0
 40
0.0
 40
1.0
 40
1.0
 40
1.0
 40
1.0
 10
22.3798
 20
-9.4038
 30
0.0
 10
22.3798
 20
-9.4038
 30
0.0
 10
28.0634
 20
-9.4038
 30
0.0
 10
28.0634
 20
-9.4038
 30
0.0
  0
SPLINE
  5
56
330
1F
100
AcDbEntity
  8
ROUND
 62
   250
100
AcDbSpline
210
0.0
220
0.0
230
1.0
 70
    24
 71
     3
 72
     8
 73
     4
 74
     0
 42
0.0000000001
 43
0.0000000001
 40
0.0
 40
0.0
 40
0.0
 40
0.0
 40
1.0
 40
1.0
 40
1.0
 40
1.0
 10
22.3236
 20
0.6448
 30
0.0
 10
22.3236
 20
0.6448
 30
0.0
 10
27.9734
 20
0.6448
 30
0.0
 10
27.9734
 20
0.6448
 30
0.0
  0
SPLINE
  5
57
330
1F
100
AcDbEntity
  8
ROUND
 62
   250
100
AcDbSpline
210
0.0
220
0.0
230
1.0
 70
    24
 71
     3
 72
     8
 73
     4
 74
     0
 42
0.0000000001
 43
0.0000000001
 40
0.0
 40
0.0
 40
0.0
 40
0.0
 40
1.0
 40
1.0
 40
1.0
 40
1.0
 10
27.3841
 20
4.4726
 30
0.0
 10
27.3841
 20
4.4726
 30
0.0
 10
27.3841
 20
-13.3554
 30
0.0
 10
27.3841
 20
-13.3554
 30
0.0
  0
SPLINE
  5
58
330
1F
100
AcDbEntity
  8
ROUND
 62
   250
100
AcDbSpline
210
0.0
220
0.0
230
1.0
 70
    24
 71
     3
 72
     8
 73
     4
 74
     0
 42
0.0000000001
 43
0.0000000001
 40
0.0
 40
0.0
 40
0.0
 40
0.0
 40
1.0
 40
1.0
 40
1.0
 40
1.0
 10
16.1528
 20
-18.2553
 30
0.0
 10
16.1528
 20
-18.2553
 30
0.0
 10
33.6434
 20
-18.2553
 30
0.0
 10
33.6434
 20
-18.2553
 30
0.0
  0
SPLINE
  5
59
330
1F
100
AcDbEntity
  8
ROUND
 62
   250
100
AcDbSpline
210
0.0
220
0.0
230
1.0
 70
    24
 71
     3
 72
     8
 73
     4
 74
     0
 42
0.0000000001
 43
0.0000000001
 40
0.0
 40
0.0
 40
0.0
 40
0.0
 40
1.0
 40
1.0
 40
1.0
 40
1.0
 10
16.5128
 20
9.4967
 30
0.0
 10
16.5128
 20
9.4967
 30
0.0
 10
33.7334
 20
9.4967
 30
0.0
 10
33.7334
 20
9.4967
 30
0.0
  0
SPLINE
  5
5A
330
1F
100
AcDbEntity
  8
ROUND
 62
   250
100
AcDbSpline
210
0.0
220
0.0
230
1.0
 70
    24
 71
     3
 72
     8
 73
     4
 74
     0
 42
0.0000000001
 43
0.0000000001
 40
0.0
 40
0.0
 40
0.0
 40
0.0
 40
1.0
 40
1.0
 40
1.0
 40
1.0
 10
32.8835
 20
9.4966
 30
0.0
 10
32.8835
 20
9.4966
 30
0.0
 10
32.8835
 20
-18.193
 30
0.0
 10
32.8835
 20
-18.193
 30
0.0
  0
SPLINE
  5
5B
330
1F
100
AcDbEntity
  8
ROUND
 62
   250
100
AcDbSpline
210
0.0
220
0.0
230
1.0
 70
    24
 71
     3
 72
     8
 73
     4
 74
     0
 42
0.0000000001
 43
0.0000000001
 40
0.0
 40
0.0
 40
0.0
 40
0.0
 40
1.0
 40
1.0
 40
1.0
 40
1.0
 10
11.0256
 20
12.658
 30
0.0
 10
11.0256
 20
12.658
 30
0.0
 10
11.0256
 20
4.4652
 30
0.0
 10
11.0256
 20
4.4652
 30
0.0
  0
SPLINE
  5
5C
330
1F
100
AcDbEntity
  8
ROUND
 62
   250
100
AcDbSpline
210
0.0
220
0.0
230
1.0
 70
    24
 71
     3
 72
     8
 73
     4
 74
     0
 42
0.0000000001
 43
0.0000000001
 40
0.0
 40
0.0
 40
0.0
 40
0.0
 40
1.0
 40
1.0
 40
1.0
 40
1.0
 10
25.38
 20
11.8197
 30
0.0
 10
25.38
 20
11.8197
 30
0.0
 10
7.5007
 20
11.8197
 30
0.0
 10
7.5007
 20
11.8197
 30
0.0
  0
SPLINE
  5
5D
330
1F
100
AcDbEntity
  8
ROUND
 62
   250
100
AcDbSpline
210
0.0
220
0.0
230
1.0
 70
    24
 71
     3
 72
     8
 73
     4
 74
     0
 42
0.0000000001
 43
0.0000000001
 40
0.0
 40
0.0
 40
0.0
 40
0.0
 40
1.0
 40
1.0
 40
1.0
 40
1.0
 10
21.5522
 20
-9.405
 30
0.0
 10
21.5522
 20
-9.405
 30
0.0
 10
21.5522
 20
-24.2122
 30
0.0
 10
21.5522
 20
-24.2122
 30
0.0
  0
SPLINE
  5
5E
330
1F
100
AcDbEntity
  8
ROUND
 62
   250
100
AcDbSpline
210
0.0
220
0.0
230
1.0
 70
    24
 71
     3
 72
     8
 73
     4
 74
     0
 42
0.0000000001
 43
0.0000000001
 40
0.0
 40
0.0
 40
0.0
 40
0.0
 40
1.0
 40
1.0
 40
1.0
 40
1.0
 10
-26.7744
 20
-12.3876
 30
0.0
 10
-26.7744
 20
-12.3876
 30
0.0
 10
-26.7744
 20
-24.5434
 30
0.0
 10
-26.7744
 20
-24.5434
 30
0.0
  0
SPLINE
  5
5F
330
1F
100
AcDbEntity
  8
ROUND
 62
   250
100
AcDbSpline
210
0.0
220
0.0
230
1.0
 70
    24
 71
     3
 72
     8
 73
     4
 74
     0
 42
0.0000000001
 43
0.0000000001
 40
0.0
 40
0.0
 40
0.0
 40
0.0
 40
1.0
 40
1.0
 40
1.0
 40
1.0
 10
-26.7743
 20
-23.2564
 30
0.0
 10
-26.7743
 20
-23.2564
 30
0.0
 10
21.4416
 20
-23.2564
 30
0.0
 10
21.4416
 20
-23.2564
 30
0.0
  0
SPLINE
  5
60
330
1F
100
AcDbEntity
  8
ROUND
 62
   250
100
AcDbSpline
210
0.0
220
0.0
230
1.0
 70
    24
 71
     3
 72
     8
 73
     4
 74
     0
 42
0.0000000001
 43
0.0000000001
 40
0.0
 40
0.0
 40
0.0
 40
0.0
 40
1.0
 40
1.0
 40
1.0
 40
1.0
 10
-26.7744
 20
3.2017
 30
0.0
 10
-26.7744
 20
3.2017
 30
0.0
 10
-26.7744
 20
23.2206
 30
0.0
 10
-26.7744
 20
23.2206
 30
0.0
  0
SPLINE
  5
61
330
1F
100
AcDbEntity
  8
ROUND
 62
   250
100
AcDbSpline
210
0.0
220
0.0
230
1.0
 70
    24
 71
     3
 72
     8
 73
     4
 74
     0
 42
0.0000000001
 43
0.0000000001
 40
0.0
 40
0.0
 40
0.0
 40
0.0
 40
1.0
 40
1.0
 40
1.0
 40
1.0
 10
-7.6352
 20
21.1276
 30
0.0
 10
-7.6352
 20
21.1276
 30
0.0
 10
-7.6352
 20
22.8124
 30
0.0
 10
-7.6352
 20
22.8124
 30
0.0
  0
SPLINE
  5
62
330
1F
100
AcDbEntity
  8
ROUND
 62
   250
100
AcDbSpline
210
0.0
220
0.0
230
1.0
 70
    24
 71
     3
 72
     8
 73
     4
 74
     0
 42
0.0000000001
 43
0.0000000001
 40
0.0
 40
0.0
 40
0.0
 40
0.0
 40
1.0
 40
1.0
 40
1.0
 40
1.0
 10
-7.6351
 20
22.0432
 30
0.0
 10
-7.6351
 20
22.0432
 30
0.0
 10
-26.6722
 20
22.0432
 30
0.0
 10
-26.6722
 20
22.0432
 30
0.0
  0
SPLINE
  5
63
330
1F
100
AcDbEntity
  8
ROUND
 62
   250
100
AcDbSpline
210
0.0
220
0.0
230
1.0
 70
    24
 71
     3
 72
     8
 73
     4
 74
     0
 42
0.0000000001
 43
0.0000000001
 40
0.0
 40
0.0
 40
0.0
 40
0.0
 40
1.0
 40
1.0
 40
1.0
 40
1.0
 10
-27.6472
 20
-11.0782
 30
0.0
 10
-27.6472
 20
-11.0782
 30
0.0
 10
-31.8766
 20
-11.0782
 30
0.0
 10
-31.8766
 20
-11.0782
 30
0.0
  0
SPLINE
  5
64
330
1F
100
AcDbEntity
  8
ROUND
 62
   250
100
AcDbSpline
210
0.0
220
0.0
230
1.0
 70
    24
 71
     3
 72
     8
 73
     4
 74
     0
 42
0.0000000001
 43
0.0000000001
 40
0.0
 40
0.0
 40
0.0
 40
0.0
 40
1.0
 40
1.0
 40
1.0
 40
1.0
 10
-27.4472
 20
2.3192
 30
0.0
 10
-27.4472
 20
2.3192
 30
0.0
 10
-31.8766
 20
2.3192
 30
0.0
 10
-31.8766
 20
2.3192
 30
0.0
  0
SPLINE
  5
65
330
1F
100
AcDbEntity
  8
ROUND
 62
   250
100
AcDbSpline
210
0.0
220
0.0
230
1.0
 70
    24
 71
     3
 72
     8
 73
     4
 74
     0
 42
0.0000000001
 43
0.0000000001
 40
0.0
 40
0.0
 40
0.0
 40
0.0
 40
1.0
 40
1.0
 40
1.0
 40
1.0
 10
-30.9578
 20
0.6974
 30
0.0
 10
-30.9578
 20
0.6974
 30
0.0
 10
-30.9578
 20
-10.078
 30
0.0
 10
-30.9578
 20
-10.078
 30
0.0
  0
SPLINE
  5
66
330
1F
100
AcDbEntity
  8
ROUND
 62
   250
100
AcDbSpline
210
0.0
220
0.0
230
1.0
 70
    11
 71
     3
 72
    52
 73
    48
 74
     0
 42
0.0000000001
 43
0.0000000001
 40
0.0
 40
0.0
 40
0.0
 40
0.0
 40
0.0769230769230769
 40
0.0769230769230769
 40
0.0769230769230769
 40
0.0769230769230769
 40
0.1538461538461539
 40
0.1538461538461539
 40
0.1538461538461539
 40
0.1538461538461539
 40
0.2307692307692308
 40
0.2307692307692308
 40
0.2307692307692308
 40
0.2307692307692308
 40
0.3076923076923077
 40
0.3076923076923077
 40
0.3076923076923077
 40
0.3076923076923077
 40
0.3846153846153846
 40
0.3846153846153846
 40
0.3846153846153846
 40
0.3846153846153846
 40
0.4615384615384616
 40
0.4615384615384616
 40
0.4615384615384616
 40
0.4615384615384616
 40
0.5384615384615384
 40
0.5384615384615384
 40
0.5384615384615384
 40
0.5384615384615384
 40
0.6153846153846154
 40
0.6153846153846154
 40
0.6153846153846154
 40
0.6153846153846154
 40
0.6923076923076923
 40
0.6923076923076923
 40
0.6923076923076923
 40
0.6923076923076923
 40
0.7692307692307693
 40
0.7692307692307693
 40
0.7692307692307693
 40
0.7692307692307693
 40
0.8461538461538461
 40
0.8461538461538461
 40
0.8461538461538461
 40
0.8461538461538461
 40
1.0
 40
1.0
 40
1.0
 40
1.0
 10
11.0279
 20
2.5001
 30
0.0
 10
11.0279
 20
2.5001
 30
0.0
 10
11.0956
 20
3.0404
 30
0.0
 10
11.0956
 20
3.0404
 30
0.0
 10
11.0956
 20
3.0404
 30
0.0
 10
11.0956
 20
3.0404
 30
0.0
 10
12.6522
 20
9.2766
 30
0.0
 10
12.6522
 20
9.2766
 30
0.0
 10
12.6522
 20
9.2766
 30
0.0
 10
12.6522
 20
9.2766
 30
0.0
 10
12.8101
 20
9.4567
 30
0.0
 10
12.8101
 20
9.4567
 30
0.0
 10
12.8101
 20
9.4567
 30
0.0
 10
12.8101
 20
9.4567
 30
0.0
 10
13.1259
 20
9.4792
 30
0.0
 10
13.1259
 20
9.4792
 30
0.0
 10
13.1259
 20
9.4792
 30
0.0
 10
13.1259
 20
9.4792
 30
0.0
 10
14.8535
 20
9.4967
 30
0.0
 10
14.8535
 20
9.4967
 30
0.0
 10
14.8535
 20
9.4967
 30
0.0
 10
14.8535
 20
9.4967
 30
0.0
 10
14.8535
 20
-18.2553
 30
0.0
 10
14.8535
 20
-18.2553
 30
0.0
 10
14.8535
 20
-18.2553
 30
0.0
 10
14.8535
 20
-18.2553
 30
0.0
 10
12.9906
 20
-18.2571
 30
0.0
 10
12.9906
 20
-18.2571
 30
0.0
 10
12.9906
 20
-18.2571
 30
0.0
 10
12.9906
 20
-18.2571
 30
0.0
 10
12.7875
 20
-18.1896
 30
0.0
 10
12.7875
 20
-18.1896
 30
0.0
 10
12.7875
 20
-18.1896
 30
0.0
 10
12.7875
 20
-18.1896
 30
0.0
 10
12.6747
 20
-18.0545
 30
0.0
 10
12.6747
 20
-18.0545
 30
0.0
 10
12.6747
 20
-18.0545
 30
0.0
 10
12.6747
 20
-18.0545
 30
0.0
 10
11.073
 20
-11.5707
 30
0.0
 10
11.073
 20
-11.5707
 30
0.0
 10
11.073
 20
-11.5707
 30
0.0
 10
11.073
 20
-11.5707
 30
0.0
 10
11.0505
 20
-11.1429
 30
0.0
 10
11.0505
 20
-11.1429
 30
0.0
 10
11.0505
 20
-11.1429
 30
0.0
 10
11.0505
 20
-11.1429
 30
0.0
 10
11.0279
 20
2.5001
 30
0.0
 10
11.0279
 20
2.5001
 30
0.0
  0
SPLINE
  5
67
330
1F
100
AcDbEntity
  8
ROUND
  6
NEW_LINE1
 62
   250
100
AcDbSpline
210
0.0
220
0.0
230
1.0
 70
    24
 71
     3
 72
     8
 73
     4
 74
     0
 42
0.0000000001
 43
0.0000000001
 40
0.0
 40
0.0
 40
0.0
 40
0.0
 40
1.0
 40
1.0
 40
1.0
 40
1.0
 10
-27.7313
 20
-4.3793
 30
0.0
 10
-27.7313
 20
-4.3793
 30
0.0
 10
22.5092
 20
-4.3793
 30
0.0
 10
22.5092
 20
-4.3793
 30
0.0
  0
SPLINE
  5
69
330
1F
100
AcDbEntity
  8
ROUND
 62
   250
100
AcDbSpline
210
0.0
220
0.0
230
1.0
 70
    27
 71
     3
 72
    20
 73
    16
 74
     0
 42
0.0000000001
 43
0.0000000001
 40
0.0
 40
0.0
 40
0.0
 40
0.0
 40
0.2
 40
0.2
 40
0.2
 40
0.2
 40
0.4
 40
0.4
 40
0.4
 40
0.4
 40
0.6
 40
0.6
 40
0.6
 40
0.6
 40
1.0
 40
1.0
 40
1.0
 40
1.0
 10
11.0255
 20
1.9831
 30
0.0
 10
11.0255
 20
1.9831
 30
0.0
 10
7.2951
 20
1.9831
 30
0.0
 10
7.2951
 20
1.9831
 30
0.0
 10
7.2951
 20
1.9831
 30
0.0
 10
7.2951
 20
1.9831
 30
0.0
 10
7.2934
 20
1.9831
 30
0.0
 10
7.2934
 20
1.9831
 30
0.0
 10
7.2934
 20
1.9831
 30
0.0
 10
7.2934
 20
1.9831
 30
0.0
 10
7.2951
 20
1.9831
 30
0.0
 10
7.2951
 20
1.9831
 30
0.0
 10
7.2951
 20
1.9831
 30
0.0
 10
7.2951
 20
1.9831
 30
0.0
 10
11.0255
 20
1.9831
 30
0.0
 10
11.0255
 20
1.9831
 30
0.0
  0
SPLINE
  5
6A
330
1F
100
AcDbEntity
  8
ROUND
 62
   250
100
AcDbSpline
210
0.0
220
0.0
230
1.0
 70
    27
 71
     3
 72
    20
 73
    16
 74
     0
 42
0.0000000001
 43
0.0000000001
 40
0.0
 40
0.0
 40
0.0
 40
0.0
 40
0.2
 40
0.2
 40
0.2
 40
0.2
 40
0.4
 40
0.4
 40
0.4
 40
0.4
 40
0.6
 40
0.6
 40
0.6
 40
0.6
 40
1.0
 40
1.0
 40
1.0
 40
1.0
 10
11.0255
 20
-2.2833
 30
0.0
 10
11.0255
 20
-2.2833
 30
0.0
 10
7.2946
 20
-2.2833
 30
0.0
 10
7.2946
 20
-2.2833
 30
0.0
 10
7.2946
 20
-2.2833
 30
0.0
 10
7.2946
 20
-2.2833
 30
0.0
 10
7.2934
 20
-2.2833
 30
0.0
 10
7.2934
 20
-2.2833
 30
0.0
 10
7.2934
 20
-2.2833
 30
0.0
 10
7.2934
 20
-2.2833
 30
0.0
 10
7.2946
 20
-2.2833
 30
0.0
 10
7.2946
 20
-2.2833
 30
0.0
 10
7.2946
 20
-2.2833
 30
0.0
 10
7.2946
 20
-2.2833
 30
0.0
 10
11.0255
 20
-2.2833
 30
0.0
 10
11.0255
 20
-2.2833
 30
0.0
  0
SPLINE
  5
6B
330
1F
100
AcDbEntity
  8
ROUND
 62
   250
100
AcDbSpline
210
0.0
220
0.0
230
1.0
 70
     8
 71
     3
 72
    24
 73
    20
 74
     0
 42
0.0000000001
 43
0.0000000001
 40
0.0
 40
0.0
 40
0.0
 40
0.0
 40
0.1666666666666667
 40
0.1666666666666667
 40
0.1666666666666667
 40
0.1666666666666667
 40
0.3333333333333333
 40
0.3333333333333333
 40
0.3333333333333333
 40
0.3333333333333333
 40
0.5
 40
0.5
 40
0.5
 40
0.5
 40
0.6666666666666666
 40
0.6666666666666666
 40
0.6666666666666666
 40
0.6666666666666666
 40
1.0
 40
1.0
 40
1.0
 40
1.0
 10
11.0256
 20
-11.0781
 30
0.0
 10
11.0256
 20
-11.0781
 30
0.0
 10
7.2935
 20
-11.0781
 30
0.0
 10
7.2935
 20
-11.0781
 30
0.0
 10
7.2935
 20
-11.0781
 30
0.0
 10
7.2935
 20
-11.0781
 30
0.0
 10
7.2946
 20
-2.2833
 30
0.0
 10
7.2946
 20
-2.2833
 30
0.0
 10
7.2946
 20
-2.2833
 30
0.0
 10
7.2946
 20
-2.2833
 30
0.0
 10
7.2951
 20
1.9831
 30
0.0
 10
7.2951
 20
1.9831
 30
0.0
 10
7.2951
 20
1.9831
 30
0.0
 10
7.2951
 20
1.9831
 30
0.0
 10
7.2951
 20
2.3329
 30
0.0
 10
7.2951
 20
2.3329
 30
0.0
 10
7.2951
 20
2.3329
 30
0.0
 10
7.2951
 20
2.3329
 30
0.0
 10
11.1066
 20
2.3561
 30
0.0
 10
11.1066
 20
2.3561
 30
0.0
  0
SPLINE
  5
6C
330
1F
100
AcDbEntity
  8
ROUND
 62
   250
100
AcDbSpline
210
0.0
220
0.0
230
1.0
 70
     8
 71
     3
 72
    16
 73
    12
 74
     0
 42
0.0000000001
 43
0.0000000001
 40
0.0
 40
0.0
 40
0.0
 40
0.0
 40
0.25
 40
0.25
 40
0.25
 40
0.25
 40
0.5
 40
0.5
 40
0.5
 40
0.5
 40
1.0
 40
1.0
 40
1.0
 40
1.0
 10
20.1196
 20
-8.689
 30
0.0
 10
20.1196
 20
-8.689
 30
0.0
 10
21.5522
 20
-8.6857
 30
0.0
 10
21.5522
 20
-8.6857
 30
0.0
 10
21.5522
 20
-8.6857
 30
0.0
 10
21.5522
 20
-8.6857
 30
0.0
 10
21.5522
 20
-0.073
 30
0.0
 10
21.5522
 20
-0.073
 30
0.0
 10
21.5522
 20
-0.073
 30
0.0
 10
21.5522
 20
-0.073
 30
0.0
 10
20.0798
 20
-0.0677
 30
0.0
 10
20.0798
 20
-0.0677
 30
0.0
  0
SPLINE
  5
6D
330
1F
100
AcDbEntity
  8
ROUND
 62
   250
100
AcDbSpline
210
0.0
220
0.0
230
1.0
 70
     8
 71
     3
 72
    16
 73
    12
 74
     0
 42
0.0000000001
 43
0.0000000001
 40
0.0
 40
0.0
 40
0.0
 40
0.0
 40
0.25
 40
0.25
 40
0.25
 40
0.25
 40
0.5
 40
0.5
 40
0.5
 40
0.5
 40
1.0
 40
1.0
 40
1.0
 40
1.0
 10
14.8646
 20
-9.4042
 30
0.0
 10
14.8646
 20
-9.4042
 30
0.0
 10
20.1168
 20
-9.4034
 30
0.0
 10
20.1168
 20
-9.4034
 30
0.0
 10
20.1168
 20
-9.4034
 30
0.0
 10
20.1168
 20
-9.4034
 30
0.0
 10
20.1168
 20
0.6447
 30
0.0
 10
20.1168
 20
0.6447
 30
0.0
 10
20.1168
 20
0.6447
 30
0.0
 10
20.1168
 20
0.6447
 30
0.0
 10
14.8779
 20
0.6607
 30
0.0
 10
14.8779
 20
0.6607
 30
0.0
  0
SPLINE
  5
6E
330
1F
100
AcDbEntity
  8
ROUND
 62
   250
100
AcDbSpline
210
0.0
220
0.0
230
1.0
 70
     8
 71
     3
 72
    40
 73
    36
 74
     0
 42
0.0000000001
 43
0.0000000001
 40
0.0
 40
0.0
 40
0.0
 40
0.0
 40
0.1
 40
0.1
 40
0.1
 40
0.1
 40
0.2
 40
0.2
 40
0.2
 40
0.2
 40
0.3
 40
0.3
 40
0.3
 40
0.3
 40
0.4
 40
0.4
 40
0.4
 40
0.4
 40
0.5
 40
0.5
 40
0.5
 40
0.5
 40
0.6
 40
0.6
 40
0.6
 40
0.6
 40
0.7
 40
0.7
 40
0.7
 40
0.7
 40
0.8
 40
0.8
 40
0.8
 40
0.8
 40
1.0
 40
1.0
 40
1.0
 40
1.0
 10
-25.9965
 20
-11.0842
 30
0.0
 10
-25.9965
 20
-11.0842
 30
0.0
 10
-26.3683
 20
-11.0844
 30
0.0
 10
-26.3683
 20
-11.0844
 30
0.0
 10
-26.3683
 20
-11.0844
 30
0.0
 10
-26.3683
 20
-11.0844
 30
0.0
 10
-26.6049
 20
-11.0484
 30
0.0
 10
-26.6049
 20
-11.0484
 30
0.0
 10
-26.6049
 20
-11.0484
 30
0.0
 10
-26.6049
 20
-11.0484
 30
0.0
 10
-26.7235
 20
-10.9419
 30
0.0
 10
-26.7235
 20
-10.9419
 30
0.0
 10
-26.7235
 20
-10.9419
 30
0.0
 10
-26.7235
 20
-10.9419
 30
0.0
 10
-26.7828
 20
-10.7644
 30
0.0
 10
-26.7828
 20
-10.7644
 30
0.0
 10
-26.7828
 20
-10.7644
 30
0.0
 10
-26.7828
 20
-10.7644
 30
0.0
 10
-26.7828
 20
-3.7347
 30
0.0
 10
-26.7828
 20
-3.7347
 30
0.0
 10
-26.7828
 20
-3.7347
 30
0.0
 10
-26.7828
 20
-3.7347
 30
0.0
 10
-26.7878
 20
2.0931
 30
0.0
 10
-26.7878
 20
2.0931
 30
0.0
 10
-26.7878
 20
2.0931
 30
0.0
 10
-26.7878
 20
2.0931
 30
0.0
 10
-26.6958
 20
2.2886
 30
0.0
 10
-26.6958
 20
2.2886
 30
0.0
 10
-26.6958
 20
2.2886
 30
0.0
 10
-26.6958
 20
2.2886
 30
0.0
 10
-26.5808
 20
2.3346
 30
0.0
 10
-26.5808
 20
2.3346
 30
0.0
 10
-26.5808
 20
2.3346
 30
0.0
 10
-26.5808
 20
2.3346
 30
0.0
 10
-25.8793
 20
2.3346
 30
0.0
 10
-25.8793
 20
2.3346
 30
0.0
  0
SPLINE
  5
6F
330
1F
100
AcDbEntity
  8
ROUND
 62
   250
100
AcDbSpline
210
0.0
220
0.0
230
1.0
 70
     8
 71
     3
 72
    16
 73
    12
 74
     0
 42
0.0000000001
 43
0.0000000001
 40
0.0
 40
0.0
 40
0.0
 40
0.0
 40
0.25
 40
0.25
 40
0.25
 40
0.25
 40
0.5
 40
0.5
 40
0.5
 40
0.5
 40
1.0
 40
1.0
 40
1.0
 40
1.0
 10
-21.8779
 20
2.3397
 30
0.0
 10
-21.8779
 20
2.3397
 30
0.0
 10
-14.3338
 20
2.3194
 30
0.0
 10
-14.3338
 20
2.3194
 30
0.0
 10
-14.3338
 20
2.3194
 30
0.0
 10
-14.3338
 20
2.3194
 30
0.0
 10
-14.3338
 20
-11.0781
 30
0.0
 10
-14.3338
 20
-11.0781
 30
0.0
 10
-14.3338
 20
-11.0781
 30
0.0
 10
-14.3338
 20
-11.0781
 30
0.0
 10
-26.052
 20
-11.082
 30
0.0
 10
-26.052
 20
-11.082
 30
0.0
  0
SPLINE
  5
70
330
1F
100
AcDbEntity
  8
ROUND
 62
   250
100
AcDbSpline
210
0.0
220
0.0
230
1.0
 70
    24
 71
     3
 72
     8
 73
     4
 74
     0
 42
0.0000000001
 43
0.0000000001
 40
0.0
 40
0.0
 40
0.0
 40
0.0
 40
1.0
 40
1.0
 40
1.0
 40
1.0
 10
-11.7059
 20
-11.0962
 30
0.0
 10
-11.7059
 20
-11.0962
 30
0.0
 10
7.2081
 20
-11.1115
 30
0.0
 10
7.2081
 20
-11.1115
 30
0.0
  0
SPLINE
  5
71
330
1F
100
AcDbEntity
  8
ROUND
 62
   250
100
AcDbSpline
210
0.0
220
0.0
230
1.0
 70
     8
 71
     3
 72
    16
 73
    12
 74
     0
 42
0.0000000001
 43
0.0000000001
 40
0.0
 40
0.0
 40
0.0
 40
0.0
 40
0.25
 40
0.25
 40
0.25
 40
0.25
 40
0.5
 40
0.5
 40
0.5
 40
0.5
 40
1.0
 40
1.0
 40
1.0
 40
1.0
 10
-11.4909
 20
2.313
 30
0.0
 10
-11.4909
 20
2.313
 30
0.0
 10
-14.1524
 20
2.3182
 30
0.0
 10
-14.1524
 20
2.3182
 30
0.0
 10
-14.1524
 20
2.3182
 30
0.0
 10
-14.1524
 20
2.3182
 30
0.0
 10
-14.1419
 20
-11.0815
 30
0.0
 10
-14.1419
 20
-11.0815
 30
0.0
 10
-14.1419
 20
-11.0815
 30
0.0
 10
-14.1419
 20
-11.0815
 30
0.0
 10
-11.5782
 20
-11.085
 30
0.0
 10
-11.5782
 20
-11.085
 30
0.0
  0
SPLINE
  5
72
330
1F
100
AcDbEntity
  8
ROUND
 62
   250
100
AcDbSpline
210
0.0
220
0.0
230
1.0
 70
     8
 71
     3
 72
    12
 73
     8
 74
     0
 42
0.0000000001
 43
0.0000000001
 40
0.0
 40
0.0
 40
0.0
 40
0.0
 40
0.3333333333333333
 40
0.3333333333333333
 40
0.3333333333333333
 40
0.3333333333333333
 40
1.0
 40
1.0
 40
1.0
 40
1.0
 10
7.2081
 20
-11.1115
 30
0.0
 10
7.2081
 20
-11.1115
 30
0.0
 10
7.19
 20
2.3259
 30
0.0
 10
7.19
 20
2.3259
 30
0.0
 10
7.19
 20
2.3259
 30
0.0
 10
7.19
 20
2.3259
 30
0.0
 10
-3.8239
 20
2.2982
 30
0.0
 10
-3.8239
 20
2.2982
 30
0.0
  0
SPLINE
  5
73
330
1F
100
AcDbEntity
  8
ROUND
 62
   250
100
AcDbSpline
210
0.0
220
0.0
230
1.0
 70
    11
 71
     3
 72
    92
 73
    88
 74
     0
 42
0.0000000001
 43
0.0000000001
 40
0.0
 40
0.0
 40
0.0
 40
0.0
 40
0.0434782608695652
 40
0.0434782608695652
 40
0.0434782608695652
 40
0.0434782608695652
 40
0.0869565217391304
 40
0.0869565217391304
 40
0.0869565217391304
 40
0.0869565217391304
 40
0.1304347826086956
 40
0.1304347826086956
 40
0.1304347826086956
 40
0.1304347826086956
 40
0.1739130434782609
 40
0.1739130434782609
 40
0.1739130434782609
 40
0.1739130434782609
 40
0.2173913043478261
 40
0.2173913043478261
 40
0.2173913043478261
 40
0.2173913043478261
 40
0.2608695652173913
 40
0.2608695652173913
 40
0.2608695652173913
 40
0.2608695652173913
 40
0.3043478260869565
 40
0.3043478260869565
 40
0.3043478260869565
 40
0.3043478260869565
 40
0.3478260869565217
 40
0.3478260869565217
 40
0.3478260869565217
 40
0.3478260869565217
 40
0.391304347826087
 40
0.391304347826087
 40
0.391304347826087
 40
0.391304347826087
 40
0.4347826086956522
 40
0.4347826086956522
 40
0.4347826086956522
 40
0.4347826086956522
 40
0.4782608695652174
 40
0.4782608695652174
 40
0.4782608695652174
 40
0.4782608695652174
 40
0.5217391304347826
 40
0.5217391304347826
 40
0.5217391304347826
 40
0.5217391304347826
 40
0.5652173913043478
 40
0.5652173913043478
 40
0.5652173913043478
 40
0.5652173913043478
 40
0.6086956521739131
 40
0.6086956521739131
 40
0.6086956521739131
 40
0.6086956521739131
 40
0.6521739130434783
 40
0.6521739130434783
 40
0.6521739130434783
 40
0.6521739130434783
 40
0.6956521739130435
 40
0.6956521739130435
 40
0.6956521739130435
 40
0.6956521739130435
 40
0.7391304347826086
 40
0.7391304347826086
 40
0.7391304347826086
 40
0.7391304347826086
 40
0.782608695652174
 40
0.782608695652174
 40
0.782608695652174
 40
0.782608695652174
 40
0.8260869565217391
 40
0.8260869565217391
 40
0.8260869565217391
 40
0.8260869565217391
 40
0.8695652173913043
 40
0.8695652173913043
 40
0.8695652173913043
 40
0.8695652173913043
 40
0.9130434782608695
 40
0.9130434782608695
 40
0.9130434782608695
 40
0.9130434782608695
 40
1.0
 40
1.0
 40
1.0
 40
1.0
 10
16.1273
 20
12.8041
 30
0.0
 10
16.1273
 20
12.8041
 30
0.0
 10
16.1273
 20
12.5656
 30
0.0
 10
16.1273
 20
12.5656
 30
0.0
 10
16.1273
 20
12.5656
 30
0.0
 10
16.1273
 20
12.5656
 30
0.0
 10
14.7919
 20
12.5656
 30
0.0
 10
14.7919
 20
12.5656
 30
0.0
 10
14.7919
 20
12.5656
 30
0.0
 10
14.79
 20
12.6253
 30
0.0
 10
14.7994
 20
12.6827
 30
0.0
 10
14.8206
 20
12.7378
 30
0.0
 10
14.8206
 20
12.7378
 30
0.0
 10
14.8545
 20
12.829
 30
0.0
 10
14.909
 20
12.9184
 30
0.0
 10
14.9838
 20
13.0068
 30
0.0
 10
14.9838
 20
13.0068
 30
0.0
 10
15.0591
 20
13.0948
 30
0.0
 10
15.1673
 20
13.1968
 30
0.0
 10
15.3084
 20
13.3125
 30
0.0
 10
15.3084
 20
13.3125
 30
0.0
 10
15.528
 20
13.4927
 30
0.0
 10
15.6767
 20
13.6352
 30
0.0
 10
15.7538
 20
13.7406
 30
0.0
 10
15.7538
 20
13.7406
 30
0.0
 10
15.8309
 20
13.8455
 30
0.0
 10
15.8695
 20
13.9452
 30
0.0
 10
15.8695
 20
14.0388
 30
0.0
 10
15.8695
 20
14.0388
 30
0.0
 10
15.8695
 20
14.1371
 30
0.0
 10
15.8342
 20
14.2199
 30
0.0
 10
15.7642
 20
14.2876
 30
0.0
 10
15.7642
 20
14.2876
 30
0.0
 10
15.6936
 20
14.3549
 30
0.0
 10
15.6019
 20
14.3887
 30
0.0
 10
15.489
 20
14.3887
 30
0.0
 10
15.489
 20
14.3887
 30
0.0
 10
15.3695
 20
14.3887
 30
0.0
 10
15.274
 20
14.353
 30
0.0
 10
15.2025
 20
14.281
 30
0.0
 10
15.2025
 20
14.281
 30
0.0
 10
15.1306
 20
14.2095
 30
0.0
 10
15.0944
 20
14.1103
 30
0.0
 10
15.0934
 20
13.9838
 30
0.0
 10
15.0934
 20
13.9838
 30
0.0
 10
15.0934
 20
13.9838
 30
0.0
 10
14.8385
 20
14.0096
 30
0.0
 10
14.8385
 20
14.0096
 30
0.0
 10
14.8385
 20
14.0096
 30
0.0
 10
14.8559
 20
14.2001
 30
0.0
 10
14.9217
 20
14.345
 30
0.0
 10
15.0356
 20
14.4447
 30
0.0
 10
15.0356
 20
14.4447
 30
0.0
 10
15.1494
 20
14.5444
 30
0.0
 10
15.3027
 20
14.5943
 30
0.0
 10
15.4946
 20
14.5943
 30
0.0
 10
15.4946
 20
14.5943
 30
0.0
 10
15.6884
 20
14.5943
 30
0.0
 10
15.8418
 20
14.5402
 30
0.0
 10
15.9547
 20
14.433
 30
0.0
 10
15.9547
 20
14.433
 30
0.0
 10
16.068
 20
14.3252
 30
0.0
 10
16.1245
 20
14.1921
 30
0.0
 10
16.1245
 20
14.0331
 30
0.0
 10
16.1245
 20
14.0331
 30
0.0
 10
16.1245
 20
13.9522
 30
0.0
 10
16.108
 20
13.8727
 30
0.0
 10
16.0746
 20
13.7947
 30
0.0
 10
16.0746
 20
13.7947
 30
0.0
 10
16.0417
 20
13.7166
 30
0.0
 10
15.9866
 20
13.6343
 30
0.0
 10
15.91
 20
13.5482
 30
0.0
 10
15.91
 20
13.5482
 30
0.0
 10
15.8333
 20
13.4616
 30
0.0
 10
15.7058
 20
13.3431
 30
0.0
 10
15.5276
 20
13.1926
 30
0.0
 10
15.5276
 20
13.1926
 30
0.0
 10
15.3789
 20
13.0675
 30
0.0
 10
15.2834
 20
12.9828
 30
0.0
 10
15.2411
 20
12.9381
 30
0.0
 10
15.2411
 20
12.9381
 30
0.0
 10
15.1988
 20
12.8939
 30
0.0
 10
15.164
 20
12.8492
 30
0.0
 10
15.1362
 20
12.8041
 30
0.0
 10
15.1362
 20
12.8041
 30
0.0
 10
15.1362
 20
12.8041
 30
0.0
 10
16.1273
 20
12.8041
 30
0.0
 10
16.1273
 20
12.8041
 30
0.0
  0
SPLINE
  5
74
330
1F
100
AcDbEntity
  8
ROUND
 62
   250
100
AcDbSpline
210
0.0
220
0.0
230
1.0
 70
    11
 71
     3
 72
    92
 73
    88
 74
     0
 42
0.0000000001
 43
0.0000000001
 40
0.0
 40
0.0
 40
0.0
 40
0.0
 40
0.0434782608695652
 40
0.0434782608695652
 40
0.0434782608695652
 40
0.0434782608695652
 40
0.0869565217391304
 40
0.0869565217391304
 40
0.0869565217391304
 40
0.0869565217391304
 40
0.1304347826086956
 40
0.1304347826086956
 40
0.1304347826086956
 40
0.1304347826086956
 40
0.1739130434782609
 40
0.1739130434782609
 40
0.1739130434782609
 40
0.1739130434782609
 40
0.2173913043478261
 40
0.2173913043478261
 40
0.2173913043478261
 40
0.2173913043478261
 40
0.2608695652173913
 40
0.2608695652173913
 40
0.2608695652173913
 40
0.2608695652173913
 40
0.3043478260869565
 40
0.3043478260869565
 40
0.3043478260869565
 40
0.3043478260869565
 40
0.3478260869565217
 40
0.3478260869565217
 40
0.3478260869565217
 40
0.3478260869565217
 40
0.391304347826087
 40
0.391304347826087
 40
0.391304347826087
 40
0.391304347826087
 40
0.4347826086956522
 40
0.4347826086956522
 40
0.4347826086956522
 40
0.4347826086956522
 40
0.4782608695652174
 40
0.4782608695652174
 40
0.4782608695652174
 40
0.4782608695652174
 40
0.5217391304347826
 40
0.5217391304347826
 40
0.5217391304347826
 40
0.5217391304347826
 40
0.5652173913043478
 40
0.5652173913043478
 40
0.5652173913043478
 40
0.5652173913043478
 40
0.6086956521739131
 40
0.6086956521739131
 40
0.6086956521739131
 40
0.6086956521739131
 40
0.6521739130434783
 40
0.6521739130434783
 40
0.6521739130434783
 40
0.6521739130434783
 40
0.6956521739130435
 40
0.6956521739130435
 40
0.6956521739130435
 40
0.6956521739130435
 40
0.7391304347826086
 40
0.7391304347826086
 40
0.7391304347826086
 40
0.7391304347826086
 40
0.782608695652174
 40
0.782608695652174
 40
0.782608695652174
 40
0.782608695652174
 40
0.8260869565217391
 40
0.8260869565217391
 40
0.8260869565217391
 40
0.8260869565217391
 40
0.8695652173913043
 40
0.8695652173913043
 40
0.8695652173913043
 40
0.8695652173913043
 40
0.9130434782608695
 40
0.9130434782608695
 40
0.9130434782608695
 40
0.9130434782608695
 40
1.0
 40
1.0
 40
1.0
 40
1.0
 10
17.6969
 20
12.8041
 30
0.0
 10
17.6969
 20
12.8041
 30
0.0
 10
17.6969
 20
12.5656
 30
0.0
 10
17.6969
 20
12.5656
 30
0.0
 10
17.6969
 20
12.5656
 30
0.0
 10
17.6969
 20
12.5656
 30
0.0
 10
16.3615
 20
12.5656
 30
0.0
 10
16.3615
 20
12.5656
 30
0.0
 10
16.3615
 20
12.5656
 30
0.0
 10
16.3596
 20
12.6253
 30
0.0
 10
16.369
 20
12.6827
 30
0.0
 10
16.3902
 20
12.7378
 30
0.0
 10
16.3902
 20
12.7378
 30
0.0
 10
16.4241
 20
12.829
 30
0.0
 10
16.4786
 20
12.9184
 30
0.0
 10
16.5534
 20
13.0068
 30
0.0
 10
16.5534
 20
13.0068
 30
0.0
 10
16.6287
 20
13.0948
 30
0.0
 10
16.7369
 20
13.1968
 30
0.0
 10
16.878
 20
13.3125
 30
0.0
 10
16.878
 20
13.3125
 30
0.0
 10
17.0976
 20
13.4927
 30
0.0
 10
17.2463
 20
13.6352
 30
0.0
 10
17.3234
 20
13.7406
 30
0.0
 10
17.3234
 20
13.7406
 30
0.0
 10
17.4005
 20
13.8455
 30
0.0
 10
17.4391
 20
13.9452
 30
0.0
 10
17.4391
 20
14.0388
 30
0.0
 10
17.4391
 20
14.0388
 30
0.0
 10
17.4391
 20
14.1371
 30
0.0
 10
17.4038
 20
14.2199
 30
0.0
 10
17.3338
 20
14.2876
 30
0.0
 10
17.3338
 20
14.2876
 30
0.0
 10
17.2632
 20
14.3549
 30
0.0
 10
17.1715
 20
14.3887
 30
0.0
 10
17.0586
 20
14.3887
 30
0.0
 10
17.0586
 20
14.3887
 30
0.0
 10
16.9391
 20
14.3887
 30
0.0
 10
16.8436
 20
14.353
 30
0.0
 10
16.7721
 20
14.281
 30
0.0
 10
16.7721
 20
14.281
 30
0.0
 10
16.7002
 20
14.2095
 30
0.0
 10
16.664
 20
14.1103
 30
0.0
 10
16.663
 20
13.9838
 30
0.0
 10
16.663
 20
13.9838
 30
0.0
 10
16.663
 20
13.9838
 30
0.0
 10
16.4081
 20
14.0096
 30
0.0
 10
16.4081
 20
14.0096
 30
0.0
 10
16.4081
 20
14.0096
 30
0.0
 10
16.4255
 20
14.2001
 30
0.0
 10
16.4913
 20
14.345
 30
0.0
 10
16.6052
 20
14.4447
 30
0.0
 10
16.6052
 20
14.4447
 30
0.0
 10
16.719
 20
14.5444
 30
0.0
 10
16.8723
 20
14.5943
 30
0.0
 10
17.0642
 20
14.5943
 30
0.0
 10
17.0642
 20
14.5943
 30
0.0
 10
17.258
 20
14.5943
 30
0.0
 10
17.4114
 20
14.5402
 30
0.0
 10
17.5243
 20
14.433
 30
0.0
 10
17.5243
 20
14.433
 30
0.0
 10
17.6376
 20
14.3252
 30
0.0
 10
17.6941
 20
14.1921
 30
0.0
 10
17.6941
 20
14.0331
 30
0.0
 10
17.6941
 20
14.0331
 30
0.0
 10
17.6941
 20
13.9522
 30
0.0
 10
17.6776
 20
13.8727
 30
0.0
 10
17.6442
 20
13.7947
 30
0.0
 10
17.6442
 20
13.7947
 30
0.0
 10
17.6113
 20
13.7166
 30
0.0
 10
17.5562
 20
13.6343
 30
0.0
 10
17.4796
 20
13.5482
 30
0.0
 10
17.4796
 20
13.5482
 30
0.0
 10
17.4029
 20
13.4616
 30
0.0
 10
17.2754
 20
13.3431
 30
0.0
 10
17.0972
 20
13.1926
 30
0.0
 10
17.0972
 20
13.1926
 30
0.0
 10
16.9485
 20
13.0675
 30
0.0
 10
16.853
 20
12.9828
 30
0.0
 10
16.8107
 20
12.9381
 30
0.0
 10
16.8107
 20
12.9381
 30
0.0
 10
16.7684
 20
12.8939
 30
0.0
 10
16.7336
 20
12.8492
 30
0.0
 10
16.7058
 20
12.8041
 30
0.0
 10
16.7058
 20
12.8041
 30
0.0
 10
16.7058
 20
12.8041
 30
0.0
 10
17.6969
 20
12.8041
 30
0.0
 10
17.6969
 20
12.8041
 30
0.0
  0
SPLINE
  5
75
330
1F
100
AcDbEntity
  8
ROUND
 62
   250
100
AcDbSpline
210
0.0
220
0.0
230
1.0
 70
    11
 71
     3
 72
    40
 73
    36
 74
     0
 42
0.0000000001
 43
0.0000000001
 40
0.0
 40
0.0
 40
0.0
 40
0.0
 40
0.1
 40
0.1
 40
0.1
 40
0.1
 40
0.2
 40
0.2
 40
0.2
 40
0.2
 40
0.3
 40
0.3
 40
0.3
 40
0.3
 40
0.4
 40
0.4
 40
0.4
 40
0.4
 40
0.5
 40
0.5
 40
0.5
 40
0.5
 40
0.6
 40
0.6
 40
0.6
 40
0.6
 40
0.7
 40
0.7
 40
0.7
 40
0.7
 40
0.8
 40
0.8
 40
0.8
 40
0.8
 40
1.0
 40
1.0
 40
1.0
 40
1.0
 10
-3.4813
 20
-22.4632
 30
0.0
 10
-3.4813
 20
-22.4632
 30
0.0
 10
-3.7292
 20
-22.4632
 30
0.0
 10
-3.7292
 20
-22.4632
 30
0.0
 10
-3.7292
 20
-22.4632
 30
0.0
 10
-3.7292
 20
-22.4632
 30
0.0
 10
-3.7292
 20
-20.8828
 30
0.0
 10
-3.7292
 20
-20.8828
 30
0.0
 10
-3.7292
 20
-20.8828
 30
0.0
 10
-3.789
 20
-20.9397
 30
0.0
 10
-3.867
 20
-20.9966
 30
0.0
 10
-3.9639
 20
-21.0535
 30
0.0
 10
-3.9639
 20
-21.0535
 30
0.0
 10
-4.0613
 20
-21.1104
 30
0.0
 10
-4.1483
 20
-21.1532
 30
0.0
 10
-4.2255
 20
-21.1815
 30
0.0
 10
-4.2255
 20
-21.1815
 30
0.0
 10
-4.2255
 20
-21.1815
 30
0.0
 10
-4.2255
 20
-20.942
 30
0.0
 10
-4.2255
 20
-20.942
 30
0.0
 10
-4.2255
 20
-20.942
 30
0.0
 10
-4.0867
 20
-20.8767
 30
0.0
 10
-3.9653
 20
-20.7976
 30
0.0
 10
-3.8614
 20
-20.705
 30
0.0
 10
-3.8614
 20
-20.705
 30
0.0
 10
-3.7579
 20
-20.6118
 30
0.0
 10
-3.6841
 20
-20.522
 30
0.0
 10
-3.6408
 20
-20.4345
 30
0.0
 10
-3.6408
 20
-20.4345
 30
0.0
 10
-3.6408
 20
-20.4345
 30
0.0
 10
-3.4813
 20
-20.4345
 30
0.0
 10
-3.4813
 20
-20.4345
 30
0.0
 10
-3.4813
 20
-20.4345
 30
0.0
 10
-3.4813
 20
-20.4345
 30
0.0
 10
-3.4813
 20
-22.4632
 30
0.0
 10
-3.4813
 20
-22.4632
 30
0.0
  0
SPLINE
  5
76
330
1F
100
AcDbEntity
  8
ROUND
 62
   250
100
AcDbSpline
210
0.0
220
0.0
230
1.0
 70
    11
 71
     3
 72
    52
 73
    48
 74
     0
 42
0.0000000001
 43
0.0000000001
 40
0.0
 40
0.0
 40
0.0
 40
0.0
 40
0.0769230769230769
 40
0.0769230769230769
 40
0.0769230769230769
 40
0.0769230769230769
 40
0.1538461538461539
 40
0.1538461538461539
 40
0.1538461538461539
 40
0.1538461538461539
 40
0.2307692307692308
 40
0.2307692307692308
 40
0.2307692307692308
 40
0.2307692307692308
 40
0.3076923076923077
 40
0.3076923076923077
 40
0.3076923076923077
 40
0.3076923076923077
 40
0.3846153846153846
 40
0.3846153846153846
 40
0.3846153846153846
 40
0.3846153846153846
 40
0.4615384615384616
 40
0.4615384615384616
 40
0.4615384615384616
 40
0.4615384615384616
 40
0.5384615384615384
 40
0.5384615384615384
 40
0.5384615384615384
 40
0.5384615384615384
 40
0.6153846153846154
 40
0.6153846153846154
 40
0.6153846153846154
 40
0.6153846153846154
 40
0.6923076923076923
 40
0.6923076923076923
 40
0.6923076923076923
 40
0.6923076923076923
 40
0.7692307692307693
 40
0.7692307692307693
 40
0.7692307692307693
 40
0.7692307692307693
 40
0.8461538461538461
 40
0.8461538461538461
 40
0.8461538461538461
 40
0.8461538461538461
 40
1.0
 40
1.0
 40
1.0
 40
1.0
 10
-2.8459
 20
-21.467
 30
0.0
 10
-2.8459
 20
-21.228
 30
0.0
 10
-2.8214
 20
-21.0356
 30
0.0
 10
-2.772
 20
-20.8903
 30
0.0
 10
-2.772
 20
-20.8903
 30
0.0
 10
-2.7231
 20
-20.7445
 30
0.0
 10
-2.6497
 20
-20.6321
 30
0.0
 10
-2.5528
 20
-20.553
 30
0.0
 10
-2.5528
 20
-20.553
 30
0.0
 10
-2.4559
 20
-20.474
 30
0.0
 10
-2.3341
 20
-20.4345
 30
0.0
 10
-2.1874
 20
-20.4345
 30
0.0
 10
-2.1874
 20
-20.4345
 30
0.0
 10
-2.0787
 20
-20.4345
 30
0.0
 10
-1.9837
 20
-20.4566
 30
0.0
 10
-1.9019
 20
-20.5004
 30
0.0
 10
-1.9019
 20
-20.5004
 30
0.0
 10
-1.82
 20
-20.5436
 30
0.0
 10
-1.7527
 20
-20.6067
 30
0.0
 10
-1.6991
 20
-20.689
 30
0.0
 10
-1.6991
 20
-20.689
 30
0.0
 10
-1.646
 20
-20.7713
 30
0.0
 10
-1.6041
 20
-20.8715
 30
0.0
 10
-1.574
 20
-20.9895
 30
0.0
 10
-1.574
 20
-20.9895
 30
0.0
 10
-1.5434
 20
-21.1076
 30
0.0
 10
-1.5284
 20
-21.2666
 30
0.0
 10
-1.5284
 20
-21.467
 30
0.0
 10
-1.5284
 20
-21.467
 30
0.0
 10
-1.5284
 20
-21.704
 30
0.0
 10
-1.5528
 20
-21.895
 30
0.0
 10
-1.6013
 20
-22.0408
 30
0.0
 10
-1.6013
 20
-22.0408
 30
0.0
 10
-1.6502
 20
-22.1866
 30
0.0
 10
-1.7231
 20
-22.299
 30
0.0
 10
-1.82
 20
-22.3785
 30
0.0
 10
-1.82
 20
-22.3785
 30
0.0
 10
-1.9169
 20
-22.458
 30
0.0
 10
-2.0392
 20
-22.4975
 30
0.0
 10
-2.1874
 20
-22.4975
 30
0.0
 10
-2.1874
 20
-22.4975
 30
0.0
 10
-2.3821
 20
-22.4975
 30
0.0
 10
-2.535
 20
-22.4279
 30
0.0
 10
-2.646
 20
-22.2882
 30
0.0
 10
-2.646
 20
-22.2882
 30
0.0
 10
-2.7791
 20
-22.1203
 30
0.0
 10
-2.8459
 20
-21.8461
 30
0.0
 10
-2.8459
 20
-21.467
 30
0.0
  0
SPLINE
  5
77
330
1F
100
AcDbEntity
  8
ROUND
 62
   250
100
AcDbSpline
210
0.0
220
0.0
230
1.0
 70
    11
 71
     3
 72
    36
 73
    32
 74
     0
 42
0.0000000001
 43
0.0000000001
 40
0.0
 40
0.0
 40
0.0
 40
0.0
 40
0.1111111111111111
 40
0.1111111111111111
 40
0.1111111111111111
 40
0.1111111111111111
 40
0.2222222222222222
 40
0.2222222222222222
 40
0.2222222222222222
 40
0.2222222222222222
 40
0.3333333333333333
 40
0.3333333333333333
 40
0.3333333333333333
 40
0.3333333333333333
 40
0.4444444444444444
 40
0.4444444444444444
 40
0.4444444444444444
 40
0.4444444444444444
 40
0.5555555555555556
 40
0.5555555555555556
 40
0.5555555555555556
 40
0.5555555555555556
 40
0.6666666666666666
 40
0.6666666666666666
 40
0.6666666666666666
 40
0.6666666666666666
 40
0.7777777777777778
 40
0.7777777777777778
 40
0.7777777777777778
 40
0.7777777777777778
 40
1.0
 40
1.0
 40
1.0
 40
1.0
 10
-2.5909
 20
-21.467
 30
0.0
 10
-2.5909
 20
-21.7986
 30
0.0
 10
-2.5519
 20
-22.0192
 30
0.0
 10
-2.4743
 20
-22.1292
 30
0.0
 10
-2.4743
 20
-22.1292
 30
0.0
 10
-2.3967
 20
-22.2388
 30
0.0
 10
-2.3012
 20
-22.2939
 30
0.0
 10
-2.1874
 20
-22.2939
 30
0.0
 10
-2.1874
 20
-22.2939
 30
0.0
 10
-2.0731
 20
-22.2939
 30
0.0
 10
-1.9776
 20
-22.2384
 30
0.0
 10
-1.9
 20
-22.1283
 30
0.0
 10
-1.9
 20
-22.1283
 30
0.0
 10
-1.8224
 20
-22.0182
 30
0.0
 10
-1.7833
 20
-21.7976
 30
0.0
 10
-1.7833
 20
-21.467
 30
0.0
 10
-1.7833
 20
-21.467
 30
0.0
 10
-1.7833
 20
-21.1344
 30
0.0
 10
-1.8224
 20
-20.9133
 30
0.0
 10
-1.9
 20
-20.8042
 30
0.0
 10
-1.9
 20
-20.8042
 30
0.0
 10
-1.9776
 20
-20.6946
 30
0.0
 10
-2.074
 20
-20.6401
 30
0.0
 10
-2.1897
 20
-20.6401
 30
0.0
 10
-2.1897
 20
-20.6401
 30
0.0
 10
-2.304
 20
-20.6401
 30
0.0
 10
-2.3948
 20
-20.6885
 30
0.0
 10
-2.463
 20
-20.7849
 30
0.0
 10
-2.463
 20
-20.7849
 30
0.0
 10
-2.5481
 20
-20.9077
 30
0.0
 10
-2.5909
 20
-21.1354
 30
0.0
 10
-2.5909
 20
-21.467
 30
0.0
  0
SPLINE
  5
78
330
1F
100
AcDbEntity
  8
ROUND
 62
   250
100
AcDbSpline
210
0.0
220
0.0
230
1.0
 70
    11
 71
     3
 72
    40
 73
    36
 74
     0
 42
0.0000000001
 43
0.0000000001
 40
0.0
 40
0.0
 40
0.0
 40
0.0
 40
0.1
 40
0.1
 40
0.1
 40
0.1
 40
0.2
 40
0.2
 40
0.2
 40
0.2
 40
0.3
 40
0.3
 40
0.3
 40
0.3
 40
0.4
 40
0.4
 40
0.4
 40
0.4
 40
0.5
 40
0.5
 40
0.5
 40
0.5
 40
0.6
 40
0.6
 40
0.6
 40
0.6
 40
0.7
 40
0.7
 40
0.7
 40
0.7
 40
0.8
 40
0.8
 40
0.8
 40
0.8
 40
1.0
 40
1.0
 40
1.0
 40
1.0
 10
-0.3421
 20
-22.4632
 30
0.0
 10
-0.3421
 20
-22.4632
 30
0.0
 10
-0.59
 20
-22.4632
 30
0.0
 10
-0.59
 20
-22.4632
 30
0.0
 10
-0.59
 20
-22.4632
 30
0.0
 10
-0.59
 20
-22.4632
 30
0.0
 10
-0.59
 20
-20.8828
 30
0.0
 10
-0.59
 20
-20.8828
 30
0.0
 10
-0.59
 20
-20.8828
 30
0.0
 10
-0.6498
 20
-20.9397
 30
0.0
 10
-0.7278
 20
-20.9966
 30
0.0
 10
-0.8247
 20
-21.0535
 30
0.0
 10
-0.8247
 20
-21.0535
 30
0.0
 10
-0.9221
 20
-21.1104
 30
0.0
 10
-1.0091
 20
-21.1532
 30
0.0
 10
-1.0863
 20
-21.1815
 30
0.0
 10
-1.0863
 20
-21.1815
 30
0.0
 10
-1.0863
 20
-21.1815
 30
0.0
 10
-1.0863
 20
-20.942
 30
0.0
 10
-1.0863
 20
-20.942
 30
0.0
 10
-1.0863
 20
-20.942
 30
0.0
 10
-0.9475
 20
-20.8767
 30
0.0
 10
-0.8261
 20
-20.7976
 30
0.0
 10
-0.7222
 20
-20.705
 30
0.0
 10
-0.7222
 20
-20.705
 30
0.0
 10
-0.6187
 20
-20.6118
 30
0.0
 10
-0.5449
 20
-20.522
 30
0.0
 10
-0.5016
 20
-20.4345
 30
0.0
 10
-0.5016
 20
-20.4345
 30
0.0
 10
-0.5016
 20
-20.4345
 30
0.0
 10
-0.3421
 20
-20.4345
 30
0.0
 10
-0.3421
 20
-20.4345
 30
0.0
 10
-0.3421
 20
-20.4345
 30
0.0
 10
-0.3421
 20
-20.4345
 30
0.0
 10
-0.3421
 20
-22.4632
 30
0.0
 10
-0.3421
 20
-22.4632
 30
0.0
  0
SPLINE
  5
79
330
1F
100
AcDbEntity
  8
ROUND
 62
   250
100
AcDbSpline
210
0.0
220
0.0
230
1.0
 70
    11
 71
     3
 72
    84
 73
    80
 74
     0
 42
0.0000000001
 43
0.0000000001
 40
0.0
 40
0.0
 40
0.0
 40
0.0
 40
0.0476190476190476
 40
0.0476190476190476
 40
0.0476190476190476
 40
0.0476190476190476
 40
0.0952380952380952
 40
0.0952380952380952
 40
0.0952380952380952
 40
0.0952380952380952
 40
0.1428571428571428
 40
0.1428571428571428
 40
0.1428571428571428
 40
0.1428571428571428
 40
0.1904761904761905
 40
0.1904761904761905
 40
0.1904761904761905
 40
0.1904761904761905
 40
0.2380952380952381
 40
0.2380952380952381
 40
0.2380952380952381
 40
0.2380952380952381
 40
0.2857142857142857
 40
0.2857142857142857
 40
0.2857142857142857
 40
0.2857142857142857
 40
0.3333333333333333
 40
0.3333333333333333
 40
0.3333333333333333
 40
0.3333333333333333
 40
0.3809523809523809
 40
0.3809523809523809
 40
0.3809523809523809
 40
0.3809523809523809
 40
0.4285714285714285
 40
0.4285714285714285
 40
0.4285714285714285
 40
0.4285714285714285
 40
0.4761904761904762
 40
0.4761904761904762
 40
0.4761904761904762
 40
0.4761904761904762
 40
0.5238095238095238
 40
0.5238095238095238
 40
0.5238095238095238
 40
0.5238095238095238
 40
0.5714285714285714
 40
0.5714285714285714
 40
0.5714285714285714
 40
0.5714285714285714
 40
0.6190476190476191
 40
0.6190476190476191
 40
0.6190476190476191
 40
0.6190476190476191
 40
0.6666666666666666
 40
0.6666666666666666
 40
0.6666666666666666
 40
0.6666666666666666
 40
0.7142857142857143
 40
0.7142857142857143
 40
0.7142857142857143
 40
0.7142857142857143
 40
0.7619047619047619
 40
0.7619047619047619
 40
0.7619047619047619
 40
0.7619047619047619
 40
0.8095238095238095
 40
0.8095238095238095
 40
0.8095238095238095
 40
0.8095238095238095
 40
0.8571428571428571
 40
0.8571428571428571
 40
0.8571428571428571
 40
0.8571428571428571
 40
0.9047619047619048
 40
0.9047619047619048
 40
0.9047619047619048
 40
0.9047619047619048
 40
1.0
 40
1.0
 40
1.0
 40
1.0
 10
-33.4743
 20
-4.8264
 30
0.0
 10
-33.4743
 20
-4.8264
 30
0.0
 10
-33.7334
 20
-4.595
 30
0.0
 10
-33.7334
 20
-4.595
 30
0.0
 10
-33.7334
 20
-4.595
 30
0.0
 10
-33.7334
 20
-4.595
 30
0.0
 10
-33.6177
 20
-4.4586
 30
0.0
 10
-33.6177
 20
-4.4586
 30
0.0
 10
-33.6177
 20
-4.4586
 30
0.0
 10
-33.6177
 20
-4.4586
 30
0.0
 10
-33.3449
 20
-4.7008
 30
0.0
 10
-33.3449
 20
-4.7008
 30
0.0
 10
-33.3449
 20
-4.7008
 30
0.0
 10
-33.2273
 20
-4.6218
 30
0.0
 10
-33.1243
 20
-4.5687
 30
0.0
 10
-33.0364
 20
-4.5409
 30
0.0
 10
-33.0364
 20
-4.5409
 30
0.0
 10
-32.9206
 20
-4.5042
 30
0.0
 10
-32.7908
 20
-4.4859
 30
0.0
 10
-32.6478
 20
-4.4859
 30
0.0
 10
-32.6478
 20
-4.4859
 30
0.0
 10
-32.4409
 20
-4.4859
 30
0.0
 10
-32.2565
 20
-4.5277
 30
0.0
 10
-32.0952
 20
-4.6115
 30
0.0
 10
-32.0952
 20
-4.6115
 30
0.0
 10
-31.9333
 20
-4.6952
 30
0.0
 10
-31.8111
 20
-4.8123
 30
0.0
 10
-31.7283
 20
-4.9633
 30
0.0
 10
-31.7283
 20
-4.9633
 30
0.0
 10
-31.646
 20
-5.1148
 30
0.0
 10
-31.6046
 20
-5.2751
 30
0.0
 10
-31.6046
 20
-5.4449
 30
0.0
 10
-31.6046
 20
-5.4449
 30
0.0
 10
-31.6046
 20
-5.5719
 30
0.0
 10
-31.6224
 20
-5.6867
 30
0.0
 10
-31.6582
 20
-5.7897
 30
0.0
 10
-31.6582
 20
-5.7897
 30
0.0
 10
-31.6859
 20
-5.8687
 30
0.0
 10
-31.7386
 20
-5.9609
 30
0.0
 10
-31.8167
 20
-6.0668
 30
0.0
 10
-31.8167
 20
-6.0668
 30
0.0
 10
-31.8167
 20
-6.0668
 30
0.0
 10
-31.5575
 20
-6.2982
 30
0.0
 10
-31.5575
 20
-6.2982
 30
0.0
 10
-31.5575
 20
-6.2982
 30
0.0
 10
-31.5575
 20
-6.2982
 30
0.0
 10
-31.6732
 20
-6.4346
 30
0.0
 10
-31.6732
 20
-6.4346
 30
0.0
 10
-31.6732
 20
-6.4346
 30
0.0
 10
-31.6732
 20
-6.4346
 30
0.0
 10
-31.9446
 20
-6.1919
 30
0.0
 10
-31.9446
 20
-6.1919
 30
0.0
 10
-31.9446
 20
-6.1919
 30
0.0
 10
-32.0815
 20
-6.2822
 30
0.0
 10
-32.1986
 20
-6.3424
 30
0.0
 10
-32.2955
 20
-6.3725
 30
0.0
 10
-32.2955
 20
-6.3725
 30
0.0
 10
-32.3924
 20
-6.4026
 30
0.0
 10
-32.5091
 20
-6.4181
 30
0.0
 10
-32.645
 20
-6.4181
 30
0.0
 10
-32.645
 20
-6.4181
 30
0.0
 10
-32.8524
 20
-6.4181
 30
0.0
 10
-33.0373
 20
-6.3767
 30
0.0
 10
-33.1996
 20
-6.294
 30
0.0
 10
-33.1996
 20
-6.294
 30
0.0
 10
-33.3619
 20
-6.2112
 30
0.0
 10
-33.4846
 20
-6.0955
 30
0.0
 10
-33.5683
 20
-5.9459
 30
0.0
 10
-33.5683
 20
-5.9459
 30
0.0
 10
-33.6516
 20
-5.7968
 30
0.0
 10
-33.6935
 20
-5.6307
 30
0.0
 10
-33.6935
 20
-5.4478
 30
0.0
 10
-33.6935
 20
-5.4478
 30
0.0
 10
-33.6935
 20
-5.3245
 30
0.0
 10
-33.6775
 20
-5.2168
 30
0.0
 10
-33.6445
 20
-5.1246
 30
0.0
 10
-33.6445
 20
-5.1246
 30
0.0
 10
-33.6121
 20
-5.0324
 30
0.0
 10
-33.5552
 20
-4.9327
 30
0.0
 10
-33.4743
 20
-4.8264
 30
0.0
  0
SPLINE
  5
7A
330
1F
100
AcDbEntity
  8
ROUND
 62
   250
100
AcDbSpline
210
0.0
220
0.0
230
1.0
 70
    11
 71
     3
 72
    32
 73
    28
 74
     0
 42
0.0000000001
 43
0.0000000001
 40
0.0
 40
0.0
 40
0.0
 40
0.0
 40
0.125
 40
0.125
 40
0.125
 40
0.125
 40
0.25
 40
0.25
 40
0.25
 40
0.25
 40
0.375
 40
0.375
 40
0.375
 40
0.375
 40
0.5
 40
0.5
 40
0.5
 40
0.5
 40
0.625
 40
0.625
 40
0.625
 40
0.625
 40
0.75
 40
0.75
 40
0.75
 40
0.75
 40
1.0
 40
1.0
 40
1.0
 40
1.0
 10
-33.2885
 20
-4.9915
 30
0.0
 10
-33.3562
 20
-5.0781
 30
0.0
 10
-33.4028
 20
-5.1538
 30
0.0
 10
-33.4277
 20
-5.2182
 30
0.0
 10
-33.4277
 20
-5.2182
 30
0.0
 10
-33.4522
 20
-5.2831
 30
0.0
 10
-33.4649
 20
-5.3593
 30
0.0
 10
-33.4649
 20
-5.4464
 30
0.0
 10
-33.4649
 20
-5.4464
 30
0.0
 10
-33.4649
 20
-5.6477
 30
0.0
 10
-33.3967
 20
-5.8137
 30
0.0
 10
-33.2603
 20
-5.9454
 30
0.0
 10
-33.2603
 20
-5.9454
 30
0.0
 10
-33.1238
 20
-6.0767
 30
0.0
 10
-32.9202
 20
-6.1425
 30
0.0
 10
-32.6488
 20
-6.1425
 30
0.0
 10
-32.6488
 20
-6.1425
 30
0.0
 10
-32.5425
 20
-6.1425
 30
0.0
 10
-32.4479
 20
-6.1322
 30
0.0
 10
-32.3651
 20
-6.1119
 30
0.0
 10
-32.3651
 20
-6.1119
 30
0.0
 10
-32.3035
 20
-6.0973
 30
0.0
 10
-32.2278
 20
-6.0668
 30
0.0
 10
-32.138
 20
-6.0197
 30
0.0
 10
-32.138
 20
-6.0197
 30
0.0
 10
-32.138
 20
-6.0197
 30
0.0
 10
-33.2885
 20
-4.9915
 30
0.0
 10
-33.2885
 20
-4.9915
 30
0.0
  0
SPLINE
  5
7B
330
1F
100
AcDbEntity
  8
ROUND
 62
   250
100
AcDbSpline
210
0.0
220
0.0
230
1.0
 70
    11
 71
     3
 72
    28
 73
    24
 74
     0
 42
0.0000000001
 43
0.0000000001
 40
0.0
 40
0.0
 40
0.0
 40
0.0
 40
0.1428571428571428
 40
0.1428571428571428
 40
0.1428571428571428
 40
0.1428571428571428
 40
0.2857142857142857
 40
0.2857142857142857
 40
0.2857142857142857
 40
0.2857142857142857
 40
0.4285714285714285
 40
0.4285714285714285
 40
0.4285714285714285
 40
0.4285714285714285
 40
0.5714285714285714
 40
0.5714285714285714
 40
0.5714285714285714
 40
0.5714285714285714
 40
0.7142857142857143
 40
0.7142857142857143
 40
0.7142857142857143
 40
0.7142857142857143
 40
1.0
 40
1.0
 40
1.0
 40
1.0
 10
-33.1464
 20
-4.8786
 30
0.0
 10
-33.1464
 20
-4.8786
 30
0.0
 10
-32.0001
 20
-5.9026
 30
0.0
 10
-32.0001
 20
-5.9026
 30
0.0
 10
-32.0001
 20
-5.9026
 30
0.0
 10
-31.9423
 20
-5.8321
 30
0.0
 10
-31.9018
 20
-5.7667
 30
0.0
 10
-31.8788
 20
-5.7069
 30
0.0
 10
-31.8788
 20
-5.7069
 30
0.0
 10
-31.8482
 20
-5.6289
 30
0.0
 10
-31.8332
 20
-5.5442
 30
0.0
 10
-31.8332
 20
-5.4534
 30
0.0
 10
-31.8332
 20
-5.4534
 30
0.0
 10
-31.8332
 20
-5.253
 30
0.0
 10
-31.9037
 20
-5.0879
 30
0.0
 10
-32.0453
 20
-4.9572
 30
0.0
 10
-32.0453
 20
-4.9572
 30
0.0
 10
-32.1869
 20
-4.8269
 30
0.0
 10
-32.3854
 20
-4.7615
 30
0.0
 10
-32.6408
 20
-4.7615
 30
0.0
 10
-32.6408
 20
-4.7615
 30
0.0
 10
-32.8317
 20
-4.7615
 30
0.0
 10
-33.0006
 20
-4.8005
 30
0.0
 10
-33.1464
 20
-4.8786
 30
0.0
  0
SPLINE
  5
7C
330
1F
100
AcDbEntity
  8
ROUND
 62
   250
100
AcDbSpline
210
0.0
220
0.0
230
1.0
 70
    11
 71
     3
 72
    92
 73
    88
 74
     0
 42
0.0000000001
 43
0.0000000001
 40
0.0
 40
0.0
 40
0.0
 40
0.0
 40
0.0434782608695652
 40
0.0434782608695652
 40
0.0434782608695652
 40
0.0434782608695652
 40
0.0869565217391304
 40
0.0869565217391304
 40
0.0869565217391304
 40
0.0869565217391304
 40
0.1304347826086956
 40
0.1304347826086956
 40
0.1304347826086956
 40
0.1304347826086956
 40
0.1739130434782609
 40
0.1739130434782609
 40
0.1739130434782609
 40
0.1739130434782609
 40
0.2173913043478261
 40
0.2173913043478261
 40
0.2173913043478261
 40
0.2173913043478261
 40
0.2608695652173913
 40
0.2608695652173913
 40
0.2608695652173913
 40
0.2608695652173913
 40
0.3043478260869565
 40
0.3043478260869565
 40
0.3043478260869565
 40
0.3043478260869565
 40
0.3478260869565217
 40
0.3478260869565217
 40
0.3478260869565217
 40
0.3478260869565217
 40
0.391304347826087
 40
0.391304347826087
 40
0.391304347826087
 40
0.391304347826087
 40
0.4347826086956522
 40
0.4347826086956522
 40
0.4347826086956522
 40
0.4347826086956522
 40
0.4782608695652174
 40
0.4782608695652174
 40
0.4782608695652174
 40
0.4782608695652174
 40
0.5217391304347826
 40
0.5217391304347826
 40
0.5217391304347826
 40
0.5217391304347826
 40
0.5652173913043478
 40
0.5652173913043478
 40
0.5652173913043478
 40
0.5652173913043478
 40
0.6086956521739131
 40
0.6086956521739131
 40
0.6086956521739131
 40
0.6086956521739131
 40
0.6521739130434783
 40
0.6521739130434783
 40
0.6521739130434783
 40
0.6521739130434783
 40
0.6956521739130435
 40
0.6956521739130435
 40
0.6956521739130435
 40
0.6956521739130435
 40
0.7391304347826086
 40
0.7391304347826086
 40
0.7391304347826086
 40
0.7391304347826086
 40
0.782608695652174
 40
0.782608695652174
 40
0.782608695652174
 40
0.782608695652174
 40
0.8260869565217391
 40
0.8260869565217391
 40
0.8260869565217391
 40
0.8260869565217391
 40
0.8695652173913043
 40
0.8695652173913043
 40
0.8695652173913043
 40
0.8695652173913043
 40
0.9130434782608695
 40
0.9130434782608695
 40
0.9130434782608695
 40
0.9130434782608695
 40
1.0
 40
1.0
 40
1.0
 40
1.0
 10
-31.8774
 20
-2.9327
 30
0.0
 10
-31.8774
 20
-2.9327
 30
0.0
 10
-31.6389
 20
-2.9327
 30
0.0
 10
-31.6389
 20
-2.9327
 30
0.0
 10
-31.6389
 20
-2.9327
 30
0.0
 10
-31.6389
 20
-2.9327
 30
0.0
 10
-31.6389
 20
-4.2681
 30
0.0
 10
-31.6389
 20
-4.2681
 30
0.0
 10
-31.6389
 20
-4.2681
 30
0.0
 10
-31.6986
 20
-4.27
 30
0.0
 10
-31.756
 20
-4.2606
 30
0.0
 10
-31.8111
 20
-4.2394
 30
0.0
 10
-31.8111
 20
-4.2394
 30
0.0
 10
-31.9023
 20
-4.2055
 30
0.0
 10
-31.9917
 20
-4.151
 30
0.0
 10
-32.0801
 20
-4.0762
 30
0.0
 10
-32.0801
 20
-4.0762
 30
0.0
 10
-32.1681
 20
-4.0009
 30
0.0
 10
-32.2701
 20
-3.8927
 30
0.0
 10
-32.3858
 20
-3.7516
 30
0.0
 10
-32.3858
 20
-3.7516
 30
0.0
 10
-32.566
 20
-3.532
 30
0.0
 10
-32.7085
 20
-3.3833
 30
0.0
 10
-32.8139
 20
-3.3062
 30
0.0
 10
-32.8139
 20
-3.3062
 30
0.0
 10
-32.9188
 20
-3.2291
 30
0.0
 10
-33.0185
 20
-3.1905
 30
0.0
 10
-33.1121
 20
-3.1905
 30
0.0
 10
-33.1121
 20
-3.1905
 30
0.0
 10
-33.2104
 20
-3.1905
 30
0.0
 10
-33.2932
 20
-3.2258
 30
0.0
 10
-33.3609
 20
-3.2958
 30
0.0
 10
-33.3609
 20
-3.2958
 30
0.0
 10
-33.4282
 20
-3.3664
 30
0.0
 10
-33.462
 20
-3.4581
 30
0.0
 10
-33.462
 20
-3.571
 30
0.0
 10
-33.462
 20
-3.571
 30
0.0
 10
-33.462
 20
-3.6905
 30
0.0
 10
-33.4263
 20
-3.786
 30
0.0
 10
-33.3543
 20
-3.8575
 30
0.0
 10
-33.3543
 20
-3.8575
 30
0.0
 10
-33.2828
 20
-3.9294
 30
0.0
 10
-33.1836
 20
-3.9656
 30
0.0
 10
-33.0571
 20
-3.9666
 30
0.0
 10
-33.0571
 20
-3.9666
 30
0.0
 10
-33.0571
 20
-3.9666
 30
0.0
 10
-33.0829
 20
-4.2215
 30
0.0
 10
-33.0829
 20
-4.2215
 30
0.0
 10
-33.0829
 20
-4.2215
 30
0.0
 10
-33.2734
 20
-4.2041
 30
0.0
 10
-33.4183
 20
-4.1383
 30
0.0
 10
-33.518
 20
-4.0244
 30
0.0
 10
-33.518
 20
-4.0244
 30
0.0
 10
-33.6177
 20
-3.9106
 30
0.0
 10
-33.6676
 20
-3.7573
 30
0.0
 10
-33.6676
 20
-3.5654
 30
0.0
 10
-33.6676
 20
-3.5654
 30
0.0
 10
-33.6676
 20
-3.3716
 30
0.0
 10
-33.6135
 20
-3.2182
 30
0.0
 10
-33.5063
 20
-3.1053
 30
0.0
 10
-33.5063
 20
-3.1053
 30
0.0
 10
-33.3985
 20
-2.992
 30
0.0
 10
-33.2654
 20
-2.9355
 30
0.0
 10
-33.1064
 20
-2.9355
 30
0.0
 10
-33.1064
 20
-2.9355
 30
0.0
 10
-33.0255
 20
-2.9355
 30
0.0
 10
-32.946
 20
-2.952
 30
0.0
 10
-32.868
 20
-2.9854
 30
0.0
 10
-32.868
 20
-2.9854
 30
0.0
 10
-32.7899
 20
-3.0183
 30
0.0
 10
-32.7076
 20
-3.0734
 30
0.0
 10
-32.6215
 20
-3.15
 30
0.0
 10
-32.6215
 20
-3.15
 30
0.0
 10
-32.5349
 20
-3.2267
 30
0.0
 10
-32.4164
 20
-3.3542
 30
0.0
 10
-32.2659
 20
-3.5324
 30
0.0
 10
-32.2659
 20
-3.5324
 30
0.0
 10
-32.1408
 20
-3.6811
 30
0.0
 10
-32.0561
 20
-3.7766
 30
0.0
 10
-32.0114
 20
-3.8189
 30
0.0
 10
-32.0114
 20
-3.8189
 30
0.0
 10
-31.9672
 20
-3.8612
 30
0.0
 10
-31.9225
 20
-3.896
 30
0.0
 10
-31.8774
 20
-3.9238
 30
0.0
 10
-31.8774
 20
-3.9238
 30
0.0
 10
-31.8774
 20
-3.9238
 30
0.0
 10
-31.8774
 20
-2.9327
 30
0.0
 10
-31.8774
 20
-2.9327
 30
0.0
  0
SPLINE
  5
7D
330
1F
100
AcDbEntity
  8
ROUND
 62
   250
100
AcDbSpline
210
0.0
220
0.0
230
1.0
 70
    11
 71
     3
 72
    68
 73
    64
 74
     0
 42
0.0000000001
 43
0.0000000001
 40
0.0
 40
0.0
 40
0.0
 40
0.0
 40
0.0588235294117647
 40
0.0588235294117647
 40
0.0588235294117647
 40
0.0588235294117647
 40
0.1176470588235294
 40
0.1176470588235294
 40
0.1176470588235294
 40
0.1176470588235294
 40
0.1764705882352941
 40
0.1764705882352941
 40
0.1764705882352941
 40
0.1764705882352941
 40
0.2352941176470588
 40
0.2352941176470588
 40
0.2352941176470588
 40
0.2352941176470588
 40
0.2941176470588235
 40
0.2941176470588235
 40
0.2941176470588235
 40
0.2941176470588235
 40
0.3529411764705883
 40
0.3529411764705883
 40
0.3529411764705883
 40
0.3529411764705883
 40
0.4117647058823529
 40
0.4117647058823529
 40
0.4117647058823529
 40
0.4117647058823529
 40
0.4705882352941176
 40
0.4705882352941176
 40
0.4705882352941176
 40
0.4705882352941176
 40
0.5294117647058824
 40
0.5294117647058824
 40
0.5294117647058824
 40
0.5294117647058824
 40
0.5882352941176471
 40
0.5882352941176471
 40
0.5882352941176471
 40
0.5882352941176471
 40
0.6470588235294118
 40
0.6470588235294118
 40
0.6470588235294118
 40
0.6470588235294118
 40
0.7058823529411765
 40
0.7058823529411765
 40
0.7058823529411765
 40
0.7058823529411765
 40
0.7647058823529411
 40
0.7647058823529411
 40
0.7647058823529411
 40
0.7647058823529411
 40
0.8235294117647058
 40
0.8235294117647058
 40
0.8235294117647058
 40
0.8235294117647058
 40
0.8823529411764706
 40
0.8823529411764706
 40
0.8823529411764706
 40
0.8823529411764706
 40
1.0
 40
1.0
 40
1.0
 40
1.0
 10
-32.7344
 20
-2.285
 30
0.0
 10
-32.772
 20
-2.3881
 30
0.0
 10
-32.8256
 20
-2.4643
 30
0.0
 10
-32.8957
 20
-2.5141
 30
0.0
 10
-32.8957
 20
-2.5141
 30
0.0
 10
-32.9653
 20
-2.5635
 30
0.0
 10
-33.0491
 20
-2.5884
 30
0.0
 10
-33.1464
 20
-2.5884
 30
0.0
 10
-33.1464
 20
-2.5884
 30
0.0
 10
-33.2936
 20
-2.5884
 30
0.0
 10
-33.4169
 20
-2.5357
 30
0.0
 10
-33.5171
 20
-2.4299
 30
0.0
 10
-33.5171
 20
-2.4299
 30
0.0
 10
-33.6173
 20
-2.3241
 30
0.0
 10
-33.6676
 20
-2.1839
 30
0.0
 10
-33.6676
 20
-2.0085
 30
0.0
 10
-33.6676
 20
-2.0085
 30
0.0
 10
-33.6676
 20
-1.8321
 30
0.0
 10
-33.6163
 20
-1.69
 30
0.0
 10
-33.5138
 20
-1.5823
 30
0.0
 10
-33.5138
 20
-1.5823
 30
0.0
 10
-33.4112
 20
-1.4751
 30
0.0
 10
-33.2866
 20
-1.4214
 30
0.0
 10
-33.1394
 20
-1.4214
 30
0.0
 10
-33.1394
 20
-1.4214
 30
0.0
 10
-33.0458
 20
-1.4214
 30
0.0
 10
-32.9644
 20
-1.4459
 30
0.0
 10
-32.8948
 20
-1.4948
 30
0.0
 10
-32.8948
 20
-1.4948
 30
0.0
 10
-32.8256
 20
-1.5442
 30
0.0
 10
-32.772
 20
-1.6185
 30
0.0
 10
-32.7344
 20
-1.7187
 30
0.0
 10
-32.7344
 20
-1.7187
 30
0.0
 10
-32.6939
 20
-1.595
 30
0.0
 10
-32.629
 20
-1.5005
 30
0.0
 10
-32.5387
 20
-1.4356
 30
0.0
 10
-32.5387
 20
-1.4356
 30
0.0
 10
-32.4489
 20
-1.3711
 30
0.0
 10
-32.3412
 20
-1.3387
 30
0.0
 10
-32.2165
 20
-1.3387
 30
0.0
 10
-32.2165
 20
-1.3387
 30
0.0
 10
-32.0434
 20
-1.3387
 30
0.0
 10
-31.8985
 20
-1.3998
 30
0.0
 10
-31.781
 20
-1.5216
 30
0.0
 10
-31.781
 20
-1.5216
 30
0.0
 10
-31.6634
 20
-1.6439
 30
0.0
 10
-31.6046
 20
-1.8048
 30
0.0
 10
-31.6046
 20
-2.0042
 30
0.0
 10
-31.6046
 20
-2.0042
 30
0.0
 10
-31.6046
 20
-2.2037
 30
0.0
 10
-31.6634
 20
-2.3641
 30
0.0
 10
-31.7814
 20
-2.4864
 30
0.0
 10
-31.7814
 20
-2.4864
 30
0.0
 10
-31.8995
 20
-2.6087
 30
0.0
 10
-32.0467
 20
-2.6698
 30
0.0
 10
-32.2231
 20
-2.6698
 30
0.0
 10
-32.2231
 20
-2.6698
 30
0.0
 10
-32.3543
 20
-2.6698
 30
0.0
 10
-32.4644
 20
-2.6364
 30
0.0
 10
-32.5533
 20
-2.5696
 30
0.0
 10
-32.5533
 20
-2.5696
 30
0.0
 10
-32.6417
 20
-2.5033
 30
0.0
 10
-32.7024
 20
-2.4083
 30
0.0
 10
-32.7344
 20
-2.285
 30
0.0
  0
SPLINE
  5
7E
330
1F
100
AcDbEntity
  8
ROUND
 62
   250
100
AcDbSpline
210
0.0
220
0.0
230
1.0
 70
    11
 71
     3
 72
    36
 73
    32
 74
     0
 42
0.0000000001
 43
0.0000000001
 40
0.0
 40
0.0
 40
0.0
 40
0.0
 40
0.1111111111111111
 40
0.1111111111111111
 40
0.1111111111111111
 40
0.1111111111111111
 40
0.2222222222222222
 40
0.2222222222222222
 40
0.2222222222222222
 40
0.2222222222222222
 40
0.3333333333333333
 40
0.3333333333333333
 40
0.3333333333333333
 40
0.3333333333333333
 40
0.4444444444444444
 40
0.4444444444444444
 40
0.4444444444444444
 40
0.4444444444444444
 40
0.5555555555555556
 40
0.5555555555555556
 40
0.5555555555555556
 40
0.5555555555555556
 40
0.6666666666666666
 40
0.6666666666666666
 40
0.6666666666666666
 40
0.6666666666666666
 40
0.7777777777777778
 40
0.7777777777777778
 40
0.7777777777777778
 40
0.7777777777777778
 40
1.0
 40
1.0
 40
1.0
 40
1.0
 10
-33.1549
 20
-2.3349
 30
0.0
 10
-33.0594
 20
-2.3349
 30
0.0
 10
-32.9813
 20
-2.3039
 30
0.0
 10
-32.9206
 20
-2.2427
 30
0.0
 10
-32.9206
 20
-2.2427
 30
0.0
 10
-32.86
 20
-2.1811
 30
0.0
 10
-32.8294
 20
-2.1011
 30
0.0
 10
-32.8294
 20
-2.0028
 30
0.0
 10
-32.8294
 20
-2.0028
 30
0.0
 10
-32.8294
 20
-1.9073
 30
0.0
 10
-32.8595
 20
-1.8288
 30
0.0
 10
-32.9197
 20
-1.7676
 30
0.0
 10
-32.9197
 20
-1.7676
 30
0.0
 10
-32.9799
 20
-1.7065
 30
0.0
 10
-33.0538
 20
-1.6764
 30
0.0
 10
-33.1408
 20
-1.6764
 30
0.0
 10
-33.1408
 20
-1.6764
 30
0.0
 10
-33.232
 20
-1.6764
 30
0.0
 10
-33.3082
 20
-1.7074
 30
0.0
 10
-33.3703
 20
-1.7705
 30
0.0
 10
-33.3703
 20
-1.7705
 30
0.0
 10
-33.4324
 20
-1.8335
 30
0.0
 10
-33.4635
 20
-1.9116
 30
0.0
 10
-33.4635
 20
-2.0056
 30
0.0
 10
-33.4635
 20
-2.0056
 30
0.0
 10
-33.4635
 20
-2.1002
 30
0.0
 10
-33.4329
 20
-2.1787
 30
0.0
 10
-33.3727
 20
-2.2413
 30
0.0
 10
-33.3727
 20
-2.2413
 30
0.0
 10
-33.312
 20
-2.3039
 30
0.0
 10
-33.2391
 20
-2.3349
 30
0.0
 10
-33.1549
 20
-2.3349
 30
0.0
  0
SPLINE
  5
7F
330
1F
100
AcDbEntity
  8
ROUND
 62
   250
100
AcDbSpline
210
0.0
220
0.0
230
1.0
 70
    11
 71
     3
 72
    40
 73
    36
 74
     0
 42
0.0000000001
 43
0.0000000001
 40
0.0
 40
0.0
 40
0.0
 40
0.0
 40
0.1
 40
0.1
 40
0.1
 40
0.1
 40
0.2
 40
0.2
 40
0.2
 40
0.2
 40
0.3
 40
0.3
 40
0.3
 40
0.3
 40
0.4
 40
0.4
 40
0.4
 40
0.4
 40
0.5
 40
0.5
 40
0.5
 40
0.5
 40
0.6
 40
0.6
 40
0.6
 40
0.6
 40
0.7
 40
0.7
 40
0.7
 40
0.7
 40
0.8
 40
0.8
 40
0.8
 40
0.8
 40
1.0
 40
1.0
 40
1.0
 40
1.0
 10
-32.2217
 20
-2.4149
 30
0.0
 10
-32.1511
 20
-2.4149
 30
0.0
 10
-32.0825
 20
-2.3979
 30
0.0
 10
-32.0166
 20
-2.3645
 30
0.0
 10
-32.0166
 20
-2.3645
 30
0.0
 10
-31.9503
 20
-2.3311
 30
0.0
 10
-31.899
 20
-2.2813
 30
0.0
 10
-31.8628
 20
-2.215
 30
0.0
 10
-31.8628
 20
-2.215
 30
0.0
 10
-31.8266
 20
-2.1486
 30
0.0
 10
-31.8082
 20
-2.0776
 30
0.0
 10
-31.8082
 20
-2.0014
 30
0.0
 10
-31.8082
 20
-2.0014
 30
0.0
 10
-31.8082
 20
-1.8829
 30
0.0
 10
-31.8463
 20
-1.785
 30
0.0
 10
-31.923
 20
-1.7079
 30
0.0
 10
-31.923
 20
-1.7079
 30
0.0
 10
-31.9992
 20
-1.6308
 30
0.0
 10
-32.0961
 20
-1.5922
 30
0.0
 10
-32.2137
 20
-1.5922
 30
0.0
 10
-32.2137
 20
-1.5922
 30
0.0
 10
-32.3332
 20
-1.5922
 30
0.0
 10
-32.4319
 20
-1.6317
 30
0.0
 10
-32.51
 20
-1.7112
 30
0.0
 10
-32.51
 20
-1.7112
 30
0.0
 10
-32.5881
 20
-1.7907
 30
0.0
 10
-32.6271
 20
-1.8904
 30
0.0
 10
-32.6271
 20
-2.0099
 30
0.0
 10
-32.6271
 20
-2.0099
 30
0.0
 10
-32.6271
 20
-2.1265
 30
0.0
 10
-32.5886
 20
-2.223
 30
0.0
 10
-32.5114
 20
-2.2996
 30
0.0
 10
-32.5114
 20
-2.2996
 30
0.0
 10
-32.4338
 20
-2.3763
 30
0.0
 10
-32.3374
 20
-2.4149
 30
0.0
 10
-32.2217
 20
-2.4149
 30
0.0
  0
SPLINE
  5
80
330
1F
100
AcDbEntity
  8
ROUND
 62
   250
100
AcDbSpline
210
0.0
220
0.0
230
1.0
 70
    11
 71
     3
 72
   120
 73
   116
 74
     0
 42
0.0000000001
 43
0.0000000001
 40
0.0
 40
0.0
 40
0.0
 40
0.0
 40
0.0333333333333333
 40
0.0333333333333333
 40
0.0333333333333333
 40
0.0333333333333333
 40
0.0666666666666667
 40
0.0666666666666667
 40
0.0666666666666667
 40
0.0666666666666667
 40
0.1
 40
0.1
 40
0.1
 40
0.1
 40
0.1333333333333333
 40
0.1333333333333333
 40
0.1333333333333333
 40
0.1333333333333333
 40
0.1666666666666667
 40
0.1666666666666667
 40
0.1666666666666667
 40
0.1666666666666667
 40
0.2
 40
0.2
 40
0.2
 40
0.2
 40
0.2333333333333333
 40
0.2333333333333333
 40
0.2333333333333333
 40
0.2333333333333333
 40
0.2666666666666667
 40
0.2666666666666667
 40
0.2666666666666667
 40
0.2666666666666667
 40
0.3
 40
0.3
 40
0.3
 40
0.3
 40
0.3333333333333333
 40
0.3333333333333333
 40
0.3333333333333333
 40
0.3333333333333333
 40
0.3666666666666666
 40
0.3666666666666666
 40
0.3666666666666666
 40
0.3666666666666666
 40
0.4
 40
0.4
 40
0.4
 40
0.4
 40
0.4333333333333333
 40
0.4333333333333333
 40
0.4333333333333333
 40
0.4333333333333333
 40
0.4666666666666667
 40
0.4666666666666667
 40
0.4666666666666667
 40
0.4666666666666667
 40
0.5
 40
0.5
 40
0.5
 40
0.5
 40
0.5333333333333333
 40
0.5333333333333333
 40
0.5333333333333333
 40
0.5333333333333333
 40
0.5666666666666667
 40
0.5666666666666667
 40
0.5666666666666667
 40
0.5666666666666667
 40
0.6
 40
0.6
 40
0.6
 40
0.6
 40
0.6333333333333333
 40
0.6333333333333333
 40
0.6333333333333333
 40
0.6333333333333333
 40
0.6666666666666666
 40
0.6666666666666666
 40
0.6666666666666666
 40
0.6666666666666666
 40
0.7
 40
0.7
 40
0.7
 40
0.7
 40
0.7333333333333333
 40
0.7333333333333333
 40
0.7333333333333333
 40
0.7333333333333333
 40
0.7666666666666667
 40
0.7666666666666667
 40
0.7666666666666667
 40
0.7666666666666667
 40
0.8
 40
0.8
 40
0.8
 40
0.8
 40
0.8333333333333334
 40
0.8333333333333334
 40
0.8333333333333334
 40
0.8333333333333334
 40
0.8666666666666667
 40
0.8666666666666667
 40
0.8666666666666667
 40
0.8666666666666667
 40
0.9
 40
0.9
 40
0.9
 40
0.9
 40
0.9333333333333333
 40
0.9333333333333333
 40
0.9333333333333333
 40
0.9333333333333333
 40
1.0
 40
1.0
 40
1.0
 40
1.0
 10
25.3001
 20
-6.9628
 30
0.0
 10
25.3001
 20
-6.9628
 30
0.0
 10
25.0635
 20
-6.9628
 30
0.0
 10
25.0635
 20
-6.9628
 30
0.0
 10
25.0635
 20
-6.9628
 30
0.0
 10
25.0635
 20
-6.9628
 30
0.0
 10
25.0621
 20
-6.1072
 30
0.0
 10
25.0621
 20
-6.1072
 30
0.0
 10
25.0621
 20
-6.1072
 30
0.0
 10
25.0621
 20
-6.1072
 30
0.0
 10
25.8114
 20
-6.1072
 30
0.0
 10
25.8114
 20
-6.1072
 30
0.0
 10
25.8114
 20
-6.1072
 30
0.0
 10
25.9163
 20
-6.2384
 30
0.0
 10
25.9949
 20
-6.3739
 30
0.0
 10
26.048
 20
-6.5136
 30
0.0
 10
26.048
 20
-6.5136
 30
0.0
 10
26.1007
 20
-6.6533
 30
0.0
 10
26.127
 20
-6.7967
 30
0.0
 10
26.127
 20
-6.9435
 30
0.0
 10
26.127
 20
-6.9435
 30
0.0
 10
26.127
 20
-7.142
 30
0.0
 10
26.0847
 20
-7.3226
 30
0.0
 10
25.9996
 20
-7.4844
 30
0.0
 10
25.9996
 20
-7.4844
 30
0.0
 10
25.9149
 20
-7.6467
 30
0.0
 10
25.7917
 20
-7.769
 30
0.0
 10
25.6313
 20
-7.8518
 30
0.0
 10
25.6313
 20
-7.8518
 30
0.0
 10
25.4704
 20
-7.9346
 30
0.0
 10
25.2907
 20
-7.976
 30
0.0
 10
25.0922
 20
-7.976
 30
0.0
 10
25.0922
 20
-7.976
 30
0.0
 10
24.8956
 20
-7.976
 30
0.0
 10
24.7122
 20
-7.9346
 30
0.0
 10
24.5419
 20
-7.8522
 30
0.0
 10
24.5419
 20
-7.8522
 30
0.0
 10
24.3712
 20
-7.7704
 30
0.0
 10
24.2446
 20
-7.6519
 30
0.0
 10
24.1618
 20
-7.4976
 30
0.0
 10
24.1618
 20
-7.4976
 30
0.0
 10
24.0795
 20
-7.3433
 30
0.0
 10
24.0381
 20
-7.1655
 30
0.0
 10
24.0381
 20
-6.9642
 30
0.0
 10
24.0381
 20
-6.9642
 30
0.0
 10
24.0381
 20
-6.8184
 30
0.0
 10
24.0617
 20
-6.6862
 30
0.0
 10
24.1092
 20
-6.5681
 30
0.0
 10
24.1092
 20
-6.5681
 30
0.0
 10
24.1562
 20
-6.4501
 30
0.0
 10
24.2221
 20
-6.3574
 30
0.0
 10
24.3067
 20
-6.2906
 30
0.0
 10
24.3067
 20
-6.2906
 30
0.0
 10
24.3914
 20
-6.2234
 30
0.0
 10
24.5014
 20
-6.1726
 30
0.0
 10
24.6374
 20
-6.1373
 30
0.0
 10
24.6374
 20
-6.1373
 30
0.0
 10
24.6374
 20
-6.1373
 30
0.0
 10
24.7037
 20
-6.3786
 30
0.0
 10
24.7037
 20
-6.3786
 30
0.0
 10
24.7037
 20
-6.3786
 30
0.0
 10
24.6007
 20
-6.4092
 30
0.0
 10
24.5198
 20
-6.4468
 30
0.0
 10
24.461
 20
-6.4915
 30
0.0
 10
24.461
 20
-6.4915
 30
0.0
 10
24.4022
 20
-6.5366
 30
0.0
 10
24.3552
 20
-6.6011
 30
0.0
 10
24.3199
 20
-6.6848
 30
0.0
 10
24.3199
 20
-6.6848
 30
0.0
 10
24.2846
 20
-6.7681
 30
0.0
 10
24.2667
 20
-6.8612
 30
0.0
 10
24.2667
 20
-6.9628
 30
0.0
 10
24.2667
 20
-6.9628
 30
0.0
 10
24.2667
 20
-7.0851
 30
0.0
 10
24.2856
 20
-7.1909
 30
0.0
 10
24.3227
 20
-7.2798
 30
0.0
 10
24.3227
 20
-7.2798
 30
0.0
 10
24.3599
 20
-7.3692
 30
0.0
 10
24.4088
 20
-7.4407
 30
0.0
 10
24.4695
 20
-7.4957
 30
0.0
 10
24.4695
 20
-7.4957
 30
0.0
 10
24.5301
 20
-7.5503
 30
0.0
 10
24.5965
 20
-7.5926
 30
0.0
 10
24.6694
 20
-7.6232
 30
0.0
 10
24.6694
 20
-7.6232
 30
0.0
 10
24.794
 20
-7.6744
 30
0.0
 10
24.9295
 20
-7.7003
 30
0.0
 10
25.0758
 20
-7.7003
 30
0.0
 10
25.0758
 20
-7.7003
 30
0.0
 10
25.2559
 20
-7.7003
 30
0.0
 10
25.4064
 20
-7.6693
 30
0.0
 10
25.5278
 20
-7.6072
 30
0.0
 10
25.5278
 20
-7.6072
 30
0.0
 10
25.6491
 20
-7.5451
 30
0.0
 10
25.739
 20
-7.4548
 30
0.0
 10
25.7978
 20
-7.3363
 30
0.0
 10
25.7978
 20
-7.3363
 30
0.0
 10
25.8566
 20
-7.2177
 30
0.0
 10
25.8862
 20
-7.0921
 30
0.0
 10
25.8862
 20
-6.959
 30
0.0
 10
25.8862
 20
-6.959
 30
0.0
 10
25.8862
 20
-6.8428
 30
0.0
 10
25.8636
 20
-6.73
 30
0.0
 10
25.8189
 20
-6.6199
 30
0.0
 10
25.8189
 20
-6.6199
 30
0.0
 10
25.7747
 20
-6.5093
 30
0.0
 10
25.7272
 20
-6.4261
 30
0.0
 10
25.6764
 20
-6.3692
 30
0.0
 10
25.6764
 20
-6.3692
 30
0.0
 10
25.6764
 20
-6.3692
 30
0.0
 10
25.3001
 20
-6.3692
 30
0.0
 10
25.3001
 20
-6.3692
 30
0.0
 10
25.3001
 20
-6.3692
 30
0.0
 10
25.3001
 20
-6.3692
 30
0.0
 10
25.3001
 20
-6.9628
 30
0.0
 10
25.3001
 20
-6.9628
 30
0.0
  0
SPLINE
  5
81
330
1F
100
AcDbEntity
  8
ROUND
 62
   250
100
AcDbSpline
210
0.0
220
0.0
230
1.0
 70
    11
 71
     3
 72
    40
 73
    36
 74
     0
 42
0.0000000001
 43
0.0000000001
 40
0.0
 40
0.0
 40
0.0
 40
0.0
 40
0.1
 40
0.1
 40
0.1
 40
0.1
 40
0.2
 40
0.2
 40
0.2
 40
0.2
 40
0.3
 40
0.3
 40
0.3
 40
0.3
 40
0.4
 40
0.4
 40
0.4
 40
0.4
 40
0.5
 40
0.5
 40
0.5
 40
0.5
 40
0.6
 40
0.6
 40
0.6
 40
0.6
 40
0.7
 40
0.7
 40
0.7
 40
0.7
 40
0.8
 40
0.8
 40
0.8
 40
0.8
 40
1.0
 40
1.0
 40
1.0
 40
1.0
 10
26.0927
 20
-4.0954
 30
0.0
 10
26.0927
 20
-4.0954
 30
0.0
 10
26.0927
 20
-4.3433
 30
0.0
 10
26.0927
 20
-4.3433
 30
0.0
 10
26.0927
 20
-4.3433
 30
0.0
 10
26.0927
 20
-4.3433
 30
0.0
 10
24.5123
 20
-4.3433
 30
0.0
 10
24.5123
 20
-4.3433
 30
0.0
 10
24.5123
 20
-4.3433
 30
0.0
 10
24.5692
 20
-4.4031
 30
0.0
 10
24.6261
 20
-4.4811
 30
0.0
 10
24.683
 20
-4.578
 30
0.0
 10
24.683
 20
-4.578
 30
0.0
 10
24.7399
 20
-4.6754
 30
0.0
 10
24.7827
 20
-4.7624
 30
0.0
 10
24.811
 20
-4.8396
 30
0.0
 10
24.811
 20
-4.8396
 30
0.0
 10
24.811
 20
-4.8396
 30
0.0
 10
24.5715
 20
-4.8396
 30
0.0
 10
24.5715
 20
-4.8396
 30
0.0
 10
24.5715
 20
-4.8396
 30
0.0
 10
24.5062
 20
-4.7008
 30
0.0
 10
24.4271
 20
-4.5794
 30
0.0
 10
24.3345
 20
-4.4755
 30
0.0
 10
24.3345
 20
-4.4755
 30
0.0
 10
24.2413
 20
-4.372
 30
0.0
 10
24.1515
 20
-4.2982
 30
0.0
 10
24.064
 20
-4.2549
 30
0.0
 10
24.064
 20
-4.2549
 30
0.0
 10
24.064
 20
-4.2549
 30
0.0
 10
24.064
 20
-4.0954
 30
0.0
 10
24.064
 20
-4.0954
 30
0.0
 10
24.064
 20
-4.0954
 30
0.0
 10
24.064
 20
-4.0954
 30
0.0
 10
26.0927
 20
-4.0954
 30
0.0
 10
26.0927
 20
-4.0954
 30
0.0
  0
SPLINE
  5
82
330
1F
100
AcDbEntity
  8
ROUND
 62
   250
100
AcDbSpline
210
0.0
220
0.0
230
1.0
 70
    11
 71
     3
 72
    20
 73
    16
 74
     0
 42
0.0000000001
 43
0.0000000001
 40
0.0
 40
0.0
 40
0.0
 40
0.0
 40
0.2
 40
0.2
 40
0.2
 40
0.2
 40
0.4
 40
0.4
 40
0.4
 40
0.4
 40
0.6
 40
0.6
 40
0.6
 40
0.6
 40
1.0
 40
1.0
 40
1.0
 40
1.0
 10
26.127
 20
-3.5771
 30
0.0
 10
26.127
 20
-3.5771
 30
0.0
 10
24.0381
 20
-2.9915
 30
0.0
 10
24.0381
 20
-2.9915
 30
0.0
 10
24.0381
 20
-2.9915
 30
0.0
 10
24.0381
 20
-2.9915
 30
0.0
 10
24.0381
 20
-2.793
 30
0.0
 10
24.0381
 20
-2.793
 30
0.0
 10
24.0381
 20
-2.793
 30
0.0
 10
24.0381
 20
-2.793
 30
0.0
 10
26.127
 20
-3.3772
 30
0.0
 10
26.127
 20
-3.3772
 30
0.0
 10
26.127
 20
-3.3772
 30
0.0
 10
26.127
 20
-3.3772
 30
0.0
 10
26.127
 20
-3.5771
 30
0.0
 10
26.127
 20
-3.5771
 30
0.0
  0
SPLINE
  5
83
330
1F
100
AcDbEntity
  8
ROUND
 62
   250
100
AcDbSpline
210
0.0
220
0.0
230
1.0
 70
    11
 71
     3
 72
    92
 73
    88
 74
     0
 42
0.0000000001
 43
0.0000000001
 40
0.0
 40
0.0
 40
0.0
 40
0.0
 40
0.0434782608695652
 40
0.0434782608695652
 40
0.0434782608695652
 40
0.0434782608695652
 40
0.0869565217391304
 40
0.0869565217391304
 40
0.0869565217391304
 40
0.0869565217391304
 40
0.1304347826086956
 40
0.1304347826086956
 40
0.1304347826086956
 40
0.1304347826086956
 40
0.1739130434782609
 40
0.1739130434782609
 40
0.1739130434782609
 40
0.1739130434782609
 40
0.2173913043478261
 40
0.2173913043478261
 40
0.2173913043478261
 40
0.2173913043478261
 40
0.2608695652173913
 40
0.2608695652173913
 40
0.2608695652173913
 40
0.2608695652173913
 40
0.3043478260869565
 40
0.3043478260869565
 40
0.3043478260869565
 40
0.3043478260869565
 40
0.3478260869565217
 40
0.3478260869565217
 40
0.3478260869565217
 40
0.3478260869565217
 40
0.391304347826087
 40
0.391304347826087
 40
0.391304347826087
 40
0.391304347826087
 40
0.4347826086956522
 40
0.4347826086956522
 40
0.4347826086956522
 40
0.4347826086956522
 40
0.4782608695652174
 40
0.4782608695652174
 40
0.4782608695652174
 40
0.4782608695652174
 40
0.5217391304347826
 40
0.5217391304347826
 40
0.5217391304347826
 40
0.5217391304347826
 40
0.5652173913043478
 40
0.5652173913043478
 40
0.5652173913043478
 40
0.5652173913043478
 40
0.6086956521739131
 40
0.6086956521739131
 40
0.6086956521739131
 40
0.6086956521739131
 40
0.6521739130434783
 40
0.6521739130434783
 40
0.6521739130434783
 40
0.6521739130434783
 40
0.6956521739130435
 40
0.6956521739130435
 40
0.6956521739130435
 40
0.6956521739130435
 40
0.7391304347826086
 40
0.7391304347826086
 40
0.7391304347826086
 40
0.7391304347826086
 40
0.782608695652174
 40
0.782608695652174
 40
0.782608695652174
 40
0.782608695652174
 40
0.8260869565217391
 40
0.8260869565217391
 40
0.8260869565217391
 40
0.8260869565217391
 40
0.8695652173913043
 40
0.8695652173913043
 40
0.8695652173913043
 40
0.8695652173913043
 40
0.9130434782608695
 40
0.9130434782608695
 40
0.9130434782608695
 40
0.9130434782608695
 40
1.0
 40
1.0
 40
1.0
 40
1.0
 10
25.8542
 20
-1.372
 30
0.0
 10
25.8542
 20
-1.372
 30
0.0
 10
26.0927
 20
-1.372
 30
0.0
 10
26.0927
 20
-1.372
 30
0.0
 10
26.0927
 20
-1.372
 30
0.0
 10
26.0927
 20
-1.372
 30
0.0
 10
26.0927
 20
-2.7074
 30
0.0
 10
26.0927
 20
-2.7074
 30
0.0
 10
26.0927
 20
-2.7074
 30
0.0
 10
26.033
 20
-2.7093
 30
0.0
 10
25.9756
 20
-2.6999
 30
0.0
 10
25.9205
 20
-2.6787
 30
0.0
 10
25.9205
 20
-2.6787
 30
0.0
 10
25.8293
 20
-2.6448
 30
0.0
 10
25.7399
 20
-2.5903
 30
0.0
 10
25.6515
 20
-2.5155
 30
0.0
 10
25.6515
 20
-2.5155
 30
0.0
 10
25.5635
 20
-2.4402
 30
0.0
 10
25.4615
 20
-2.332
 30
0.0
 10
25.3458
 20
-2.1909
 30
0.0
 10
25.3458
 20
-2.1909
 30
0.0
 10
25.1656
 20
-1.9713
 30
0.0
 10
25.0231
 20
-1.8226
 30
0.0
 10
24.9177
 20
-1.7455
 30
0.0
 10
24.9177
 20
-1.7455
 30
0.0
 10
24.8128
 20
-1.6684
 30
0.0
 10
24.7131
 20
-1.6298
 30
0.0
 10
24.6195
 20
-1.6298
 30
0.0
 10
24.6195
 20
-1.6298
 30
0.0
 10
24.5212
 20
-1.6298
 30
0.0
 10
24.4384
 20
-1.6651
 30
0.0
 10
24.3707
 20
-1.7351
 30
0.0
 10
24.3707
 20
-1.7351
 30
0.0
 10
24.3034
 20
-1.8057
 30
0.0
 10
24.2696
 20
-1.8974
 30
0.0
 10
24.2696
 20
-2.0103
 30
0.0
 10
24.2696
 20
-2.0103
 30
0.0
 10
24.2696
 20
-2.1298
 30
0.0
 10
24.3053
 20
-2.2253
 30
0.0
 10
24.3773
 20
-2.2968
 30
0.0
 10
24.3773
 20
-2.2968
 30
0.0
 10
24.4488
 20
-2.3687
 30
0.0
 10
24.548
 20
-2.4049
 30
0.0
 10
24.6745
 20
-2.4059
 30
0.0
 10
24.6745
 20
-2.4059
 30
0.0
 10
24.6745
 20
-2.4059
 30
0.0
 10
24.6487
 20
-2.6608
 30
0.0
 10
24.6487
 20
-2.6608
 30
0.0
 10
24.6487
 20
-2.6608
 30
0.0
 10
24.4582
 20
-2.6434
 30
0.0
 10
24.3133
 20
-2.5776
 30
0.0
 10
24.2136
 20
-2.4637
 30
0.0
 10
24.2136
 20
-2.4637
 30
0.0
 10
24.1139
 20
-2.3499
 30
0.0
 10
24.064
 20
-2.1966
 30
0.0
 10
24.064
 20
-2.0047
 30
0.0
 10
24.064
 20
-2.0047
 30
0.0
 10
24.064
 20
-1.8109
 30
0.0
 10
24.1181
 20
-1.6575
 30
0.0
 10
24.2253
 20
-1.5446
 30
0.0
 10
24.2253
 20
-1.5446
 30
0.0
 10
24.3331
 20
-1.4313
 30
0.0
 10
24.4662
 20
-1.3748
 30
0.0
 10
24.6252
 20
-1.3748
 30
0.0
 10
24.6252
 20
-1.3748
 30
0.0
 10
24.7061
 20
-1.3748
 30
0.0
 10
24.7856
 20
-1.3913
 30
0.0
 10
24.8636
 20
-1.4247
 30
0.0
 10
24.8636
 20
-1.4247
 30
0.0
 10
24.9417
 20
-1.4576
 30
0.0
 10
25.024
 20
-1.5127
 30
0.0
 10
25.1101
 20
-1.5893
 30
0.0
 10
25.1101
 20
-1.5893
 30
0.0
 10
25.1967
 20
-1.666
 30
0.0
 10
25.3152
 20
-1.7935
 30
0.0
 10
25.4657
 20
-1.9717
 30
0.0
 10
25.4657
 20
-1.9717
 30
0.0
 10
25.5908
 20
-2.1204
 30
0.0
 10
25.6755
 20
-2.2159
 30
0.0
 10
25.7202
 20
-2.2582
 30
0.0
 10
25.7202
 20
-2.2582
 30
0.0
 10
25.7644
 20
-2.3005
 30
0.0
 10
25.8091
 20
-2.3353
 30
0.0
 10
25.8542
 20
-2.3631
 30
0.0
 10
25.8542
 20
-2.3631
 30
0.0
 10
25.8542
 20
-2.3631
 30
0.0
 10
25.8542
 20
-1.372
 30
0.0
 10
25.8542
 20
-1.372
 30
0.0
  0
SPLINE
  5
84
330
1F
100
AcDbEntity
  8
ROUND
 62
   250
100
AcDbSpline
210
0.0
220
0.0
230
1.0
 70
    11
 71
     3
 72
    28
 73
    24
 74
     0
 42
0.0000000001
 43
0.0000000001
 40
0.0
 40
0.0
 40
0.0
 40
0.0
 40
0.1428571428571428
 40
0.1428571428571428
 40
0.1428571428571428
 40
0.1428571428571428
 40
0.2857142857142857
 40
0.2857142857142857
 40
0.2857142857142857
 40
0.2857142857142857
 40
0.4285714285714285
 40
0.4285714285714285
 40
0.4285714285714285
 40
0.4285714285714285
 40
0.5714285714285714
 40
0.5714285714285714
 40
0.5714285714285714
 40
0.5714285714285714
 40
0.7142857142857143
 40
0.7142857142857143
 40
0.7142857142857143
 40
0.7142857142857143
 40
1.0
 40
1.0
 40
1.0
 40
1.0
 10
24.7879
 20
-1.0249
 30
0.0
 10
24.7879
 20
-1.0249
 30
0.0
 10
24.4031
 20
-1.094
 30
0.0
 10
24.4031
 20
-1.094
 30
0.0
 10
24.4031
 20
-1.094
 30
0.0
 10
24.4031
 20
-1.094
 30
0.0
 10
24.0725
 20
-1.094
 30
0.0
 10
24.0725
 20
-1.094
 30
0.0
 10
24.0725
 20
-1.094
 30
0.0
 10
24.0725
 20
-1.094
 30
0.0
 10
24.0725
 20
-0.8114
 30
0.0
 10
24.0725
 20
-0.8114
 30
0.0
 10
24.0725
 20
-0.8114
 30
0.0
 10
24.0725
 20
-0.8114
 30
0.0
 10
24.4031
 20
-0.8114
 30
0.0
 10
24.4031
 20
-0.8114
 30
0.0
 10
24.4031
 20
-0.8114
 30
0.0
 10
24.4031
 20
-0.8114
 30
0.0
 10
24.7879
 20
-0.8734
 30
0.0
 10
24.7879
 20
-0.8734
 30
0.0
 10
24.7879
 20
-0.8734
 30
0.0
 10
24.7879
 20
-0.8734
 30
0.0
 10
24.7879
 20
-1.0249
 30
0.0
 10
24.7879
 20
-1.0249
 30
0.0
  0
SPLINE
  5
85
330
1F
100
AcDbEntity
  8
ROUND
 62
   250
100
AcDbSpline
210
0.0
220
0.0
230
1.0
 70
    11
 71
     3
 72
    28
 73
    24
 74
     0
 42
0.0000000001
 43
0.0000000001
 40
0.0
 40
0.0
 40
0.0
 40
0.0
 40
0.1428571428571428
 40
0.1428571428571428
 40
0.1428571428571428
 40
0.1428571428571428
 40
0.2857142857142857
 40
0.2857142857142857
 40
0.2857142857142857
 40
0.2857142857142857
 40
0.4285714285714285
 40
0.4285714285714285
 40
0.4285714285714285
 40
0.4285714285714285
 40
0.5714285714285714
 40
0.5714285714285714
 40
0.5714285714285714
 40
0.5714285714285714
 40
0.7142857142857143
 40
0.7142857142857143
 40
0.7142857142857143
 40
0.7142857142857143
 40
1.0
 40
1.0
 40
1.0
 40
1.0
 10
24.7879
 20
-0.5686
 30
0.0
 10
24.7879
 20
-0.5686
 30
0.0
 10
24.4031
 20
-0.6364
 30
0.0
 10
24.4031
 20
-0.6364
 30
0.0
 10
24.4031
 20
-0.6364
 30
0.0
 10
24.4031
 20
-0.6364
 30
0.0
 10
24.0725
 20
-0.6364
 30
0.0
 10
24.0725
 20
-0.6364
 30
0.0
 10
24.0725
 20
-0.6364
 30
0.0
 10
24.0725
 20
-0.6364
 30
0.0
 10
24.0725
 20
-0.3537
 30
0.0
 10
24.0725
 20
-0.3537
 30
0.0
 10
24.0725
 20
-0.3537
 30
0.0
 10
24.0725
 20
-0.3537
 30
0.0
 10
24.4031
 20
-0.3537
 30
0.0
 10
24.4031
 20
-0.3537
 30
0.0
 10
24.4031
 20
-0.3537
 30
0.0
 10
24.4031
 20
-0.3537
 30
0.0
 10
24.7879
 20
-0.42
 30
0.0
 10
24.7879
 20
-0.42
 30
0.0
 10
24.7879
 20
-0.42
 30
0.0
 10
24.7879
 20
-0.42
 30
0.0
 10
24.7879
 20
-0.5686
 30
0.0
 10
24.7879
 20
-0.5686
 30
0.0
  0
SPLINE
  5
86
330
1F
100
AcDbEntity
  8
ROUND
 62
   250
100
AcDbSpline
210
0.0
220
0.0
230
1.0
 70
    11
 71
     3
 72
    84
 73
    80
 74
     0
 42
0.0000000001
 43
0.0000000001
 40
0.0
 40
0.0
 40
0.0
 40
0.0
 40
0.0476190476190476
 40
0.0476190476190476
 40
0.0476190476190476
 40
0.0476190476190476
 40
0.0952380952380952
 40
0.0952380952380952
 40
0.0952380952380952
 40
0.0952380952380952
 40
0.1428571428571428
 40
0.1428571428571428
 40
0.1428571428571428
 40
0.1428571428571428
 40
0.1904761904761905
 40
0.1904761904761905
 40
0.1904761904761905
 40
0.1904761904761905
 40
0.2380952380952381
 40
0.2380952380952381
 40
0.2380952380952381
 40
0.2380952380952381
 40
0.2857142857142857
 40
0.2857142857142857
 40
0.2857142857142857
 40
0.2857142857142857
 40
0.3333333333333333
 40
0.3333333333333333
 40
0.3333333333333333
 40
0.3333333333333333
 40
0.3809523809523809
 40
0.3809523809523809
 40
0.3809523809523809
 40
0.3809523809523809
 40
0.4285714285714285
 40
0.4285714285714285
 40
0.4285714285714285
 40
0.4285714285714285
 40
0.4761904761904762
 40
0.4761904761904762
 40
0.4761904761904762
 40
0.4761904761904762
 40
0.5238095238095238
 40
0.5238095238095238
 40
0.5238095238095238
 40
0.5238095238095238
 40
0.5714285714285714
 40
0.5714285714285714
 40
0.5714285714285714
 40
0.5714285714285714
 40
0.6190476190476191
 40
0.6190476190476191
 40
0.6190476190476191
 40
0.6190476190476191
 40
0.6666666666666666
 40
0.6666666666666666
 40
0.6666666666666666
 40
0.6666666666666666
 40
0.7142857142857143
 40
0.7142857142857143
 40
0.7142857142857143
 40
0.7142857142857143
 40
0.7619047619047619
 40
0.7619047619047619
 40
0.7619047619047619
 40
0.7619047619047619
 40
0.8095238095238095
 40
0.8095238095238095
 40
0.8095238095238095
 40
0.8095238095238095
 40
0.8571428571428571
 40
0.8571428571428571
 40
0.8571428571428571
 40
0.8571428571428571
 40
0.9047619047619048
 40
0.9047619047619048
 40
0.9047619047619048
 40
0.9047619047619048
 40
1.0
 40
1.0
 40
1.0
 40
1.0
 10
30.5206
 20
-5.4883
 30
0.0
 10
30.5206
 20
-5.4883
 30
0.0
 10
30.2615
 20
-5.2569
 30
0.0
 10
30.2615
 20
-5.2569
 30
0.0
 10
30.2615
 20
-5.2569
 30
0.0
 10
30.2615
 20
-5.2569
 30
0.0
 10
30.3772
 20
-5.1205
 30
0.0
 10
30.3772
 20
-5.1205
 30
0.0
 10
30.3772
 20
-5.1205
 30
0.0
 10
30.3772
 20
-5.1205
 30
0.0
 10
30.65
 20
-5.3627
 30
0.0
 10
30.65
 20
-5.3627
 30
0.0
 10
30.65
 20
-5.3627
 30
0.0
 10
30.7676
 20
-5.2837
 30
0.0
 10
30.8706
 20
-5.2306
 30
0.0
 10
30.9585
 20
-5.2028
 30
0.0
 10
30.9585
 20
-5.2028
 30
0.0
 10
31.0743
 20
-5.1661
 30
0.0
 10
31.2041
 20
-5.1478
 30
0.0
 10
31.3471
 20
-5.1478
 30
0.0
 10
31.3471
 20
-5.1478
 30
0.0
 10
31.554
 20
-5.1478
 30
0.0
 10
31.7384
 20
-5.1896
 30
0.0
 10
31.8997
 20
-5.2734
 30
0.0
 10
31.8997
 20
-5.2734
 30
0.0
 10
32.0616
 20
-5.3571
 30
0.0
 10
32.1838
 20
-5.4742
 30
0.0
 10
32.2666
 20
-5.6252
 30
0.0
 10
32.2666
 20
-5.6252
 30
0.0
 10
32.3489
 20
-5.7767
 30
0.0
 10
32.3903
 20
-5.937
 30
0.0
 10
32.3903
 20
-6.1068
 30
0.0
 10
32.3903
 20
-6.1068
 30
0.0
 10
32.3903
 20
-6.2338
 30
0.0
 10
32.3725
 20
-6.3486
 30
0.0
 10
32.3367
 20
-6.4516
 30
0.0
 10
32.3367
 20
-6.4516
 30
0.0
 10
32.309
 20
-6.5306
 30
0.0
 10
32.2563
 20
-6.6228
 30
0.0
 10
32.1782
 20
-6.7287
 30
0.0
 10
32.1782
 20
-6.7287
 30
0.0
 10
32.1782
 20
-6.7287
 30
0.0
 10
32.4374
 20
-6.9601
 30
0.0
 10
32.4374
 20
-6.9601
 30
0.0
 10
32.4374
 20
-6.9601
 30
0.0
 10
32.4374
 20
-6.9601
 30
0.0
 10
32.3217
 20
-7.0965
 30
0.0
 10
32.3217
 20
-7.0965
 30
0.0
 10
32.3217
 20
-7.0965
 30
0.0
 10
32.3217
 20
-7.0965
 30
0.0
 10
32.0503
 20
-6.8538
 30
0.0
 10
32.0503
 20
-6.8538
 30
0.0
 10
32.0503
 20
-6.8538
 30
0.0
 10
31.9134
 20
-6.9441
 30
0.0
 10
31.7963
 20
-7.0043
 30
0.0
 10
31.6994
 20
-7.0344
 30
0.0
 10
31.6994
 20
-7.0344
 30
0.0
 10
31.6025
 20
-7.0645
 30
0.0
 10
31.4858
 20
-7.08
 30
0.0
 10
31.3499
 20
-7.08
 30
0.0
 10
31.3499
 20
-7.08
 30
0.0
 10
31.1425
 20
-7.08
 30
0.0
 10
30.9576
 20
-7.0386
 30
0.0
 10
30.7953
 20
-6.9559
 30
0.0
 10
30.7953
 20
-6.9559
 30
0.0
 10
30.633
 20
-6.8731
 30
0.0
 10
30.5103
 20
-6.7574
 30
0.0
 10
30.4266
 20
-6.6078
 30
0.0
 10
30.4266
 20
-6.6078
 30
0.0
 10
30.3433
 20
-6.4587
 30
0.0
 10
30.3014
 20
-6.2926
 30
0.0
 10
30.3014
 20
-6.1097
 30
0.0
 10
30.3014
 20
-6.1097
 30
0.0
 10
30.3014
 20
-5.9864
 30
0.0
 10
30.3174
 20
-5.8787
 30
0.0
 10
30.3504
 20
-5.7865
 30
0.0
 10
30.3504
 20
-5.7865
 30
0.0
 10
30.3828
 20
-5.6943
 30
0.0
 10
30.4397
 20
-5.5946
 30
0.0
 10
30.5206
 20
-5.4883
 30
0.0
  0
SPLINE
  5
87
330
1F
100
AcDbEntity
  8
ROUND
 62
   250
100
AcDbSpline
210
0.0
220
0.0
230
1.0
 70
    11
 71
     3
 72
    32
 73
    28
 74
     0
 42
0.0000000001
 43
0.0000000001
 40
0.0
 40
0.0
 40
0.0
 40
0.0
 40
0.125
 40
0.125
 40
0.125
 40
0.125
 40
0.25
 40
0.25
 40
0.25
 40
0.25
 40
0.375
 40
0.375
 40
0.375
 40
0.375
 40
0.5
 40
0.5
 40
0.5
 40
0.5
 40
0.625
 40
0.625
 40
0.625
 40
0.625
 40
0.75
 40
0.75
 40
0.75
 40
0.75
 40
1.0
 40
1.0
 40
1.0
 40
1.0
 10
30.7064
 20
-5.6534
 30
0.0
 10
30.6387
 20
-5.74
 30
0.0
 10
30.5921
 20
-5.8157
 30
0.0
 10
30.5672
 20
-5.8801
 30
0.0
 10
30.5672
 20
-5.8801
 30
0.0
 10
30.5427
 20
-5.945
 30
0.0
 10
30.53
 20
-6.0212
 30
0.0
 10
30.53
 20
-6.1083
 30
0.0
 10
30.53
 20
-6.1083
 30
0.0
 10
30.53
 20
-6.3096
 30
0.0
 10
30.5982
 20
-6.4756
 30
0.0
 10
30.7346
 20
-6.6073
 30
0.0
 10
30.7346
 20
-6.6073
 30
0.0
 10
30.8711
 20
-6.7386
 30
0.0
 10
31.0747
 20
-6.8044
 30
0.0
 10
31.3461
 20
-6.8044
 30
0.0
 10
31.3461
 20
-6.8044
 30
0.0
 10
31.4524
 20
-6.8044
 30
0.0
 10
31.547
 20
-6.7941
 30
0.0
 10
31.6298
 20
-6.7738
 30
0.0
 10
31.6298
 20
-6.7738
 30
0.0
 10
31.6914
 20
-6.7592
 30
0.0
 10
31.7671
 20
-6.7287
 30
0.0
 10
31.8569
 20
-6.6816
 30
0.0
 10
31.8569
 20
-6.6816
 30
0.0
 10
31.8569
 20
-6.6816
 30
0.0
 10
30.7064
 20
-5.6534
 30
0.0
 10
30.7064
 20
-5.6534
 30
0.0
  0
SPLINE
  5
88
330
1F
100
AcDbEntity
  8
ROUND
 62
   250
100
AcDbSpline
210
0.0
220
0.0
230
1.0
 70
    11
 71
     3
 72
    28
 73
    24
 74
     0
 42
0.0000000001
 43
0.0000000001
 40
0.0
 40
0.0
 40
0.0
 40
0.0
 40
0.1428571428571428
 40
0.1428571428571428
 40
0.1428571428571428
 40
0.1428571428571428
 40
0.2857142857142857
 40
0.2857142857142857
 40
0.2857142857142857
 40
0.2857142857142857
 40
0.4285714285714285
 40
0.4285714285714285
 40
0.4285714285714285
 40
0.4285714285714285
 40
0.5714285714285714
 40
0.5714285714285714
 40
0.5714285714285714
 40
0.5714285714285714
 40
0.7142857142857143
 40
0.7142857142857143
 40
0.7142857142857143
 40
0.7142857142857143
 40
1.0
 40
1.0
 40
1.0
 40
1.0
 10
30.8485
 20
-5.5405
 30
0.0
 10
30.8485
 20
-5.5405
 30
0.0
 10
31.9948
 20
-6.5645
 30
0.0
 10
31.9948
 20
-6.5645
 30
0.0
 10
31.9948
 20
-6.5645
 30
0.0
 10
32.0526
 20
-6.494
 30
0.0
 10
32.0931
 20
-6.4286
 30
0.0
 10
32.1161
 20
-6.3688
 30
0.0
 10
32.1161
 20
-6.3688
 30
0.0
 10
32.1467
 20
-6.2908
 30
0.0
 10
32.1617
 20
-6.2061
 30
0.0
 10
32.1617
 20
-6.1153
 30
0.0
 10
32.1617
 20
-6.1153
 30
0.0
 10
32.1617
 20
-5.9149
 30
0.0
 10
32.0912
 20
-5.7498
 30
0.0
 10
31.9496
 20
-5.6191
 30
0.0
 10
31.9496
 20
-5.6191
 30
0.0
 10
31.808
 20
-5.4888
 30
0.0
 10
31.6095
 20
-5.4234
 30
0.0
 10
31.3541
 20
-5.4234
 30
0.0
 10
31.3541
 20
-5.4234
 30
0.0
 10
31.1632
 20
-5.4234
 30
0.0
 10
30.9943
 20
-5.4624
 30
0.0
 10
30.8485
 20
-5.5405
 30
0.0
  0
SPLINE
  5
89
330
1F
100
AcDbEntity
  8
ROUND
 62
   250
100
AcDbSpline
210
0.0
220
0.0
230
1.0
 70
    11
 71
     3
 72
    92
 73
    88
 74
     0
 42
0.0000000001
 43
0.0000000001
 40
0.0
 40
0.0
 40
0.0
 40
0.0
 40
0.0434782608695652
 40
0.0434782608695652
 40
0.0434782608695652
 40
0.0434782608695652
 40
0.0869565217391304
 40
0.0869565217391304
 40
0.0869565217391304
 40
0.0869565217391304
 40
0.1304347826086956
 40
0.1304347826086956
 40
0.1304347826086956
 40
0.1304347826086956
 40
0.1739130434782609
 40
0.1739130434782609
 40
0.1739130434782609
 40
0.1739130434782609
 40
0.2173913043478261
 40
0.2173913043478261
 40
0.2173913043478261
 40
0.2173913043478261
 40
0.2608695652173913
 40
0.2608695652173913
 40
0.2608695652173913
 40
0.2608695652173913
 40
0.3043478260869565
 40
0.3043478260869565
 40
0.3043478260869565
 40
0.3043478260869565
 40
0.3478260869565217
 40
0.3478260869565217
 40
0.3478260869565217
 40
0.3478260869565217
 40
0.391304347826087
 40
0.391304347826087
 40
0.391304347826087
 40
0.391304347826087
 40
0.4347826086956522
 40
0.4347826086956522
 40
0.4347826086956522
 40
0.4347826086956522
 40
0.4782608695652174
 40
0.4782608695652174
 40
0.4782608695652174
 40
0.4782608695652174
 40
0.5217391304347826
 40
0.5217391304347826
 40
0.5217391304347826
 40
0.5217391304347826
 40
0.5652173913043478
 40
0.5652173913043478
 40
0.5652173913043478
 40
0.5652173913043478
 40
0.6086956521739131
 40
0.6086956521739131
 40
0.6086956521739131
 40
0.6086956521739131
 40
0.6521739130434783
 40
0.6521739130434783
 40
0.6521739130434783
 40
0.6521739130434783
 40
0.6956521739130435
 40
0.6956521739130435
 40
0.6956521739130435
 40
0.6956521739130435
 40
0.7391304347826086
 40
0.7391304347826086
 40
0.7391304347826086
 40
0.7391304347826086
 40
0.782608695652174
 40
0.782608695652174
 40
0.782608695652174
 40
0.782608695652174
 40
0.8260869565217391
 40
0.8260869565217391
 40
0.8260869565217391
 40
0.8260869565217391
 40
0.8695652173913043
 40
0.8695652173913043
 40
0.8695652173913043
 40
0.8695652173913043
 40
0.9130434782608695
 40
0.9130434782608695
 40
0.9130434782608695
 40
0.9130434782608695
 40
1.0
 40
1.0
 40
1.0
 40
1.0
 10
31.8268
 20
-4.8985
 30
0.0
 10
31.8268
 20
-4.8985
 30
0.0
 10
31.8047
 20
-4.6379
 30
0.0
 10
31.8047
 20
-4.6379
 30
0.0
 10
31.8047
 20
-4.6379
 30
0.0
 10
31.9317
 20
-4.6186
 30
0.0
 10
32.0267
 20
-4.5739
 30
0.0
 10
32.0907
 20
-4.5038
 30
0.0
 10
32.0907
 20
-4.5038
 30
0.0
 10
32.1547
 20
-4.4333
 30
0.0
 10
32.1867
 20
-4.3486
 30
0.0
 10
32.1867
 20
-4.2494
 30
0.0
 10
32.1867
 20
-4.2494
 30
0.0
 10
32.1867
 20
-4.1299
 30
0.0
 10
32.1415
 20
-4.0288
 30
0.0
 10
32.0517
 20
-3.9465
 30
0.0
 10
32.0517
 20
-3.9465
 30
0.0
 10
31.9614
 20
-3.8637
 30
0.0
 10
31.8419
 20
-3.8223
 30
0.0
 10
31.6933
 20
-3.8223
 30
0.0
 10
31.6933
 20
-3.8223
 30
0.0
 10
31.5517
 20
-3.8223
 30
0.0
 10
31.4402
 20
-3.8618
 30
0.0
 10
31.3584
 20
-3.9413
 30
0.0
 10
31.3584
 20
-3.9413
 30
0.0
 10
31.2765
 20
-4.0208
 30
0.0
 10
31.2356
 20
-4.1247
 30
0.0
 10
31.2356
 20
-4.2536
 30
0.0
 10
31.2356
 20
-4.2536
 30
0.0
 10
31.2356
 20
-4.3336
 30
0.0
 10
31.2539
 20
-4.4055
 30
0.0
 10
31.2901
 20
-4.47
 30
0.0
 10
31.2901
 20
-4.47
 30
0.0
 10
31.3264
 20
-4.5344
 30
0.0
 10
31.3734
 20
-4.5847
 30
0.0
 10
31.4313
 20
-4.6214
 30
0.0
 10
31.4313
 20
-4.6214
 30
0.0
 10
31.4313
 20
-4.6214
 30
0.0
 10
31.4012
 20
-4.8543
 30
0.0
 10
31.4012
 20
-4.8543
 30
0.0
 10
31.4012
 20
-4.8543
 30
0.0
 10
31.4012
 20
-4.8543
 30
0.0
 10
30.3635
 20
-4.6586
 30
0.0
 10
30.3635
 20
-4.6586
 30
0.0
 10
30.3635
 20
-4.6586
 30
0.0
 10
30.3635
 20
-4.6586
 30
0.0
 10
30.3635
 20
-3.6539
 30
0.0
 10
30.3635
 20
-3.6539
 30
0.0
 10
30.3635
 20
-3.6539
 30
0.0
 10
30.3635
 20
-3.6539
 30
0.0
 10
30.6006
 20
-3.6539
 30
0.0
 10
30.6006
 20
-3.6539
 30
0.0
 10
30.6006
 20
-3.6539
 30
0.0
 10
30.6006
 20
-3.6539
 30
0.0
 10
30.6006
 20
-4.4601
 30
0.0
 10
30.6006
 20
-4.4601
 30
0.0
 10
30.6006
 20
-4.4601
 30
0.0
 10
30.6006
 20
-4.4601
 30
0.0
 10
31.1434
 20
-4.5692
 30
0.0
 10
31.1434
 20
-4.5692
 30
0.0
 10
31.1434
 20
-4.5692
 30
0.0
 10
31.0587
 20
-4.4479
 30
0.0
 10
31.0164
 20
-4.3204
 30
0.0
 10
31.0164
 20
-4.1873
 30
0.0
 10
31.0164
 20
-4.1873
 30
0.0
 10
31.0164
 20
-4.0109
 30
0.0
 10
31.0775
 20
-3.8623
 30
0.0
 10
31.1998
 20
-3.7409
 30
0.0
 10
31.1998
 20
-3.7409
 30
0.0
 10
31.3221
 20
-3.6196
 30
0.0
 10
31.4792
 20
-3.5589
 30
0.0
 10
31.6711
 20
-3.5589
 30
0.0
 10
31.6711
 20
-3.5589
 30
0.0
 10
31.8541
 20
-3.5589
 30
0.0
 10
32.0122
 20
-3.6125
 30
0.0
 10
32.1453
 20
-3.7188
 30
0.0
 10
32.1453
 20
-3.7188
 30
0.0
 10
32.3085
 20
-3.8486
 30
0.0
 10
32.3903
 20
-4.0255
 30
0.0
 10
32.3903
 20
-4.2494
 30
0.0
 10
32.3903
 20
-4.2494
 30
0.0
 10
32.3903
 20
-4.4333
 30
0.0
 10
32.3391
 20
-4.5833
 30
0.0
 10
32.2361
 20
-4.6995
 30
0.0
 10
32.2361
 20
-4.6995
 30
0.0
 10
32.133
 20
-4.8157
 30
0.0
 10
31.9966
 20
-4.882
 30
0.0
 10
31.8268
 20
-4.8985
 30
0.0
  0
SPLINE
  5
8A
330
1F
100
AcDbEntity
  8
ROUND
 62
   250
100
AcDbSpline
210
0.0
220
0.0
230
1.0
 70
    11
 71
     3
 72
    68
 73
    64
 74
     0
 42
0.0000000001
 43
0.0000000001
 40
0.0
 40
0.0
 40
0.0
 40
0.0
 40
0.0588235294117647
 40
0.0588235294117647
 40
0.0588235294117647
 40
0.0588235294117647
 40
0.1176470588235294
 40
0.1176470588235294
 40
0.1176470588235294
 40
0.1176470588235294
 40
0.1764705882352941
 40
0.1764705882352941
 40
0.1764705882352941
 40
0.1764705882352941
 40
0.2352941176470588
 40
0.2352941176470588
 40
0.2352941176470588
 40
0.2352941176470588
 40
0.2941176470588235
 40
0.2941176470588235
 40
0.2941176470588235
 40
0.2941176470588235
 40
0.3529411764705883
 40
0.3529411764705883
 40
0.3529411764705883
 40
0.3529411764705883
 40
0.4117647058823529
 40
0.4117647058823529
 40
0.4117647058823529
 40
0.4117647058823529
 40
0.4705882352941176
 40
0.4705882352941176
 40
0.4705882352941176
 40
0.4705882352941176
 40
0.5294117647058824
 40
0.5294117647058824
 40
0.5294117647058824
 40
0.5294117647058824
 40
0.5882352941176471
 40
0.5882352941176471
 40
0.5882352941176471
 40
0.5882352941176471
 40
0.6470588235294118
 40
0.6470588235294118
 40
0.6470588235294118
 40
0.6470588235294118
 40
0.7058823529411765
 40
0.7058823529411765
 40
0.7058823529411765
 40
0.7058823529411765
 40
0.7647058823529411
 40
0.7647058823529411
 40
0.7647058823529411
 40
0.7647058823529411
 40
0.8235294117647058
 40
0.8235294117647058
 40
0.8235294117647058
 40
0.8235294117647058
 40
0.8823529411764706
 40
0.8823529411764706
 40
0.8823529411764706
 40
0.8823529411764706
 40
1.0
 40
1.0
 40
1.0
 40
1.0
 10
31.2605
 20
-2.9469
 30
0.0
 10
31.2229
 20
-3.05
 30
0.0
 10
31.1693
 20
-3.1262
 30
0.0
 10
31.0992
 20
-3.176
 30
0.0
 10
31.0992
 20
-3.176
 30
0.0
 10
31.0296
 20
-3.2254
 30
0.0
 10
30.9458
 20
-3.2503
 30
0.0
 10
30.8485
 20
-3.2503
 30
0.0
 10
30.8485
 20
-3.2503
 30
0.0
 10
30.7013
 20
-3.2503
 30
0.0
 10
30.578
 20
-3.1976
 30
0.0
 10
30.4778
 20
-3.0918
 30
0.0
 10
30.4778
 20
-3.0918
 30
0.0
 10
30.3776
 20
-2.986
 30
0.0
 10
30.3273
 20
-2.8458
 30
0.0
 10
30.3273
 20
-2.6704
 30
0.0
 10
30.3273
 20
-2.6704
 30
0.0
 10
30.3273
 20
-2.494
 30
0.0
 10
30.3786
 20
-2.3519
 30
0.0
 10
30.4811
 20
-2.2442
 30
0.0
 10
30.4811
 20
-2.2442
 30
0.0
 10
30.5837
 20
-2.137
 30
0.0
 10
30.7083
 20
-2.0833
 30
0.0
 10
30.8555
 20
-2.0833
 30
0.0
 10
30.8555
 20
-2.0833
 30
0.0
 10
30.9491
 20
-2.0833
 30
0.0
 10
31.0305
 20
-2.1078
 30
0.0
 10
31.1001
 20
-2.1567
 30
0.0
 10
31.1001
 20
-2.1567
 30
0.0
 10
31.1693
 20
-2.2061
 30
0.0
 10
31.2229
 20
-2.2804
 30
0.0
 10
31.2605
 20
-2.3806
 30
0.0
 10
31.2605
 20
-2.3806
 30
0.0
 10
31.301
 20
-2.2569
 30
0.0
 10
31.3659
 20
-2.1624
 30
0.0
 10
31.4562
 20
-2.0975
 30
0.0
 10
31.4562
 20
-2.0975
 30
0.0
 10
31.546
 20
-2.033
 30
0.0
 10
31.6537
 20
-2.0006
 30
0.0
 10
31.7784
 20
-2.0006
 30
0.0
 10
31.7784
 20
-2.0006
 30
0.0
 10
31.9515
 20
-2.0006
 30
0.0
 10
32.0964
 20
-2.0617
 30
0.0
 10
32.2139
 20
-2.1835
 30
0.0
 10
32.2139
 20
-2.1835
 30
0.0
 10
32.3315
 20
-2.3058
 30
0.0
 10
32.3903
 20
-2.4667
 30
0.0
 10
32.3903
 20
-2.6661
 30
0.0
 10
32.3903
 20
-2.6661
 30
0.0
 10
32.3903
 20
-2.8656
 30
0.0
 10
32.3315
 20
-3.026
 30
0.0
 10
32.2135
 20
-3.1483
 30
0.0
 10
32.2135
 20
-3.1483
 30
0.0
 10
32.0954
 20
-3.2706
 30
0.0
 10
31.9482
 20
-3.3317
 30
0.0
 10
31.7718
 20
-3.3317
 30
0.0
 10
31.7718
 20
-3.3317
 30
0.0
 10
31.6406
 20
-3.3317
 30
0.0
 10
31.5305
 20
-3.2983
 30
0.0
 10
31.4416
 20
-3.2315
 30
0.0
 10
31.4416
 20
-3.2315
 30
0.0
 10
31.3532
 20
-3.1652
 30
0.0
 10
31.2925
 20
-3.0702
 30
0.0
 10
31.2605
 20
-2.9469
 30
0.0
  0
SPLINE
  5
8B
330
1F
100
AcDbEntity
  8
ROUND
 62
   250
100
AcDbSpline
210
0.0
220
0.0
230
1.0
 70
    11
 71
     3
 72
    36
 73
    32
 74
     0
 42
0.0000000001
 43
0.0000000001
 40
0.0
 40
0.0
 40
0.0
 40
0.0
 40
0.1111111111111111
 40
0.1111111111111111
 40
0.1111111111111111
 40
0.1111111111111111
 40
0.2222222222222222
 40
0.2222222222222222
 40
0.2222222222222222
 40
0.2222222222222222
 40
0.3333333333333333
 40
0.3333333333333333
 40
0.3333333333333333
 40
0.3333333333333333
 40
0.4444444444444444
 40
0.4444444444444444
 40
0.4444444444444444
 40
0.4444444444444444
 40
0.5555555555555556
 40
0.5555555555555556
 40
0.5555555555555556
 40
0.5555555555555556
 40
0.6666666666666666
 40
0.6666666666666666
 40
0.6666666666666666
 40
0.6666666666666666
 40
0.7777777777777778
 40
0.7777777777777778
 40
0.7777777777777778
 40
0.7777777777777778
 40
1.0
 40
1.0
 40
1.0
 40
1.0
 10
30.84
 20
-2.9968
 30
0.0
 10
30.9355
 20
-2.9968
 30
0.0
 10
31.0136
 20
-2.9658
 30
0.0
 10
31.0743
 20
-2.9046
 30
0.0
 10
31.0743
 20
-2.9046
 30
0.0
 10
31.1349
 20
-2.843
 30
0.0
 10
31.1655
 20
-2.763
 30
0.0
 10
31.1655
 20
-2.6647
 30
0.0
 10
31.1655
 20
-2.6647
 30
0.0
 10
31.1655
 20
-2.5692
 30
0.0
 10
31.1354
 20
-2.4907
 30
0.0
 10
31.0752
 20
-2.4295
 30
0.0
 10
31.0752
 20
-2.4295
 30
0.0
 10
31.015
 20
-2.3684
 30
0.0
 10
30.9411
 20
-2.3383
 30
0.0
 10
30.8541
 20
-2.3383
 30
0.0
 10
30.8541
 20
-2.3383
 30
0.0
 10
30.7629
 20
-2.3383
 30
0.0
 10
30.6867
 20
-2.3693
 30
0.0
 10
30.6246
 20
-2.4324
 30
0.0
 10
30.6246
 20
-2.4324
 30
0.0
 10
30.5625
 20
-2.4954
 30
0.0
 10
30.5314
 20
-2.5735
 30
0.0
 10
30.5314
 20
-2.6675
 30
0.0
 10
30.5314
 20
-2.6675
 30
0.0
 10
30.5314
 20
-2.7621
 30
0.0
 10
30.562
 20
-2.8406
 30
0.0
 10
30.6222
 20
-2.9032
 30
0.0
 10
30.6222
 20
-2.9032
 30
0.0
 10
30.6829
 20
-2.9658
 30
0.0
 10
30.7558
 20
-2.9968
 30
0.0
 10
30.84
 20
-2.9968
 30
0.0
  0
SPLINE
  5
8C
330
1F
100
AcDbEntity
  8
ROUND
 62
   250
100
AcDbSpline
210
0.0
220
0.0
230
1.0
 70
    11
 71
     3
 72
    40
 73
    36
 74
     0
 42
0.0000000001
 43
0.0000000001
 40
0.0
 40
0.0
 40
0.0
 40
0.0
 40
0.1
 40
0.1
 40
0.1
 40
0.1
 40
0.2
 40
0.2
 40
0.2
 40
0.2
 40
0.3
 40
0.3
 40
0.3
 40
0.3
 40
0.4
 40
0.4
 40
0.4
 40
0.4
 40
0.5
 40
0.5
 40
0.5
 40
0.5
 40
0.6
 40
0.6
 40
0.6
 40
0.6
 40
0.7
 40
0.7
 40
0.7
 40
0.7
 40
0.8
 40
0.8
 40
0.8
 40
0.8
 40
1.0
 40
1.0
 40
1.0
 40
1.0
 10
31.7732
 20
-3.0768
 30
0.0
 10
31.8438
 20
-3.0768
 30
0.0
 10
31.9124
 20
-3.0598
 30
0.0
 10
31.9783
 20
-3.0264
 30
0.0
 10
31.9783
 20
-3.0264
 30
0.0
 10
32.0446
 20
-2.993
 30
0.0
 10
32.0959
 20
-2.9432
 30
0.0
 10
32.1321
 20
-2.8769
 30
0.0
 10
32.1321
 20
-2.8769
 30
0.0
 10
32.1683
 20
-2.8105
 30
0.0
 10
32.1867
 20
-2.7395
 30
0.0
 10
32.1867
 20
-2.6633
 30
0.0
 10
32.1867
 20
-2.6633
 30
0.0
 10
32.1867
 20
-2.5448
 30
0.0
 10
32.1486
 20
-2.4469
 30
0.0
 10
32.0719
 20
-2.3698
 30
0.0
 10
32.0719
 20
-2.3698
 30
0.0
 10
31.9957
 20
-2.2927
 30
0.0
 10
31.8988
 20
-2.2541
 30
0.0
 10
31.7812
 20
-2.2541
 30
0.0
 10
31.7812
 20
-2.2541
 30
0.0
 10
31.6617
 20
-2.2541
 30
0.0
 10
31.563
 20
-2.2936
 30
0.0
 10
31.4849
 20
-2.3731
 30
0.0
 10
31.4849
 20
-2.3731
 30
0.0
 10
31.4068
 20
-2.4526
 30
0.0
 10
31.3678
 20
-2.5523
 30
0.0
 10
31.3678
 20
-2.6718
 30
0.0
 10
31.3678
 20
-2.6718
 30
0.0
 10
31.3678
 20
-2.7884
 30
0.0
 10
31.4063
 20
-2.8849
 30
0.0
 10
31.4835
 20
-2.9615
 30
0.0
 10
31.4835
 20
-2.9615
 30
0.0
 10
31.5611
 20
-3.0382
 30
0.0
 10
31.6575
 20
-3.0768
 30
0.0
 10
31.7732
 20
-3.0768
 30
0.0
  0
SPLINE
  5
8D
330
1F
100
AcDbEntity
  8
ROUND
 62
   250
100
AcDbSpline
210
0.0
220
0.0
230
1.0
 70
    11
 71
     3
 72
    48
 73
    44
 74
     0
 42
0.0000000001
 43
0.0000000001
 40
0.0
 40
0.0
 40
0.0
 40
0.0
 40
0.0833333333333333
 40
0.0833333333333333
 40
0.0833333333333333
 40
0.0833333333333333
 40
0.1666666666666667
 40
0.1666666666666667
 40
0.1666666666666667
 40
0.1666666666666667
 40
0.25
 40
0.25
 40
0.25
 40
0.25
 40
0.3333333333333333
 40
0.3333333333333333
 40
0.3333333333333333
 40
0.3333333333333333
 40
0.4166666666666667
 40
0.4166666666666667
 40
0.4166666666666667
 40
0.4166666666666667
 40
0.5
 40
0.5
 40
0.5
 40
0.5
 40
0.5833333333333334
 40
0.5833333333333334
 40
0.5833333333333334
 40
0.5833333333333334
 40
0.6666666666666666
 40
0.6666666666666666
 40
0.6666666666666666
 40
0.6666666666666666
 40
0.75
 40
0.75
 40
0.75
 40
0.75
 40
0.8333333333333334
 40
0.8333333333333334
 40
0.8333333333333334
 40
0.8333333333333334
 40
1.0
 40
1.0
 40
1.0
 40
1.0
 10
-17.8595
 20
22.5147
 30
0.0
 10
-17.8595
 20
22.5147
 30
0.0
 10
-17.8595
 20
22.9982
 30
0.0
 10
-17.8595
 20
22.9982
 30
0.0
 10
-17.8595
 20
22.9982
 30
0.0
 10
-17.8595
 20
22.9982
 30
0.0
 10
-18.7358
 20
22.9982
 30
0.0
 10
-18.7358
 20
22.9982
 30
0.0
 10
-18.7358
 20
22.9982
 30
0.0
 10
-18.7358
 20
22.9982
 30
0.0
 10
-18.7358
 20
23.2259
 30
0.0
 10
-18.7358
 20
23.2259
 30
0.0
 10
-18.7358
 20
23.2259
 30
0.0
 10
-18.7358
 20
23.2259
 30
0.0
 10
-17.8138
 20
24.5349
 30
0.0
 10
-17.8138
 20
24.5349
 30
0.0
 10
-17.8138
 20
24.5349
 30
0.0
 10
-17.8138
 20
24.5349
 30
0.0
 10
-17.6111
 20
24.5349
 30
0.0
 10
-17.6111
 20
24.5349
 30
0.0
 10
-17.6111
 20
24.5349
 30
0.0
 10
-17.6111
 20
24.5349
 30
0.0
 10
-17.6111
 20
23.2259
 30
0.0
 10
-17.6111
 20
23.2259
 30
0.0
 10
-17.6111
 20
23.2259
 30
0.0
 10
-17.6111
 20
23.2259
 30
0.0
 10
-17.3383
 20
23.2259
 30
0.0
 10
-17.3383
 20
23.2259
 30
0.0
 10
-17.3383
 20
23.2259
 30
0.0
 10
-17.3383
 20
23.2259
 30
0.0
 10
-17.3383
 20
22.9982
 30
0.0
 10
-17.3383
 20
22.9982
 30
0.0
 10
-17.3383
 20
22.9982
 30
0.0
 10
-17.3383
 20
22.9982
 30
0.0
 10
-17.6111
 20
22.9982
 30
0.0
 10
-17.6111
 20
22.9982
 30
0.0
 10
-17.6111
 20
22.9982
 30
0.0
 10
-17.6111
 20
22.9982
 30
0.0
 10
-17.6111
 20
22.5147
 30
0.0
 10
-17.6111
 20
22.5147
 30
0.0
 10
-17.6111
 20
22.5147
 30
0.0
 10
-17.6111
 20
22.5147
 30
0.0
 10
-17.8595
 20
22.5147
 30
0.0
 10
-17.8595
 20
22.5147
 30
0.0
  0
SPLINE
  5
8E
330
1F
100
AcDbEntity
  8
ROUND
 62
   250
100
AcDbSpline
210
0.0
220
0.0
230
1.0
 70
    11
 71
     3
 72
    16
 73
    12
 74
     0
 42
0.0000000001
 43
0.0000000001
 40
0.0
 40
0.0
 40
0.0
 40
0.0
 40
0.25
 40
0.25
 40
0.25
 40
0.25
 40
0.5
 40
0.5
 40
0.5
 40
0.5
 40
1.0
 40
1.0
 40
1.0
 40
1.0
 10
-17.8595
 20
23.2259
 30
0.0
 10
-17.8595
 20
23.2259
 30
0.0
 10
-17.8595
 20
24.1365
 30
0.0
 10
-17.8595
 20
24.1365
 30
0.0
 10
-17.8595
 20
24.1365
 30
0.0
 10
-17.8595
 20
24.1365
 30
0.0
 10
-18.4916
 20
23.2259
 30
0.0
 10
-18.4916
 20
23.2259
 30
0.0
 10
-18.4916
 20
23.2259
 30
0.0
 10
-18.4916
 20
23.2259
 30
0.0
 10
-17.8595
 20
23.2259
 30
0.0
 10
-17.8595
 20
23.2259
 30
0.0
  0
SPLINE
  5
8F
330
1F
100
AcDbEntity
  8
ROUND
 62
   250
100
AcDbSpline
210
0.0
220
0.0
230
1.0
 70
    11
 71
     3
 72
    52
 73
    48
 74
     0
 42
0.0000000001
 43
0.0000000001
 40
0.0
 40
0.0
 40
0.0
 40
0.0
 40
0.0769230769230769
 40
0.0769230769230769
 40
0.0769230769230769
 40
0.0769230769230769
 40
0.1538461538461539
 40
0.1538461538461539
 40
0.1538461538461539
 40
0.1538461538461539
 40
0.2307692307692308
 40
0.2307692307692308
 40
0.2307692307692308
 40
0.2307692307692308
 40
0.3076923076923077
 40
0.3076923076923077
 40
0.3076923076923077
 40
0.3076923076923077
 40
0.3846153846153846
 40
0.3846153846153846
 40
0.3846153846153846
 40
0.3846153846153846
 40
0.4615384615384616
 40
0.4615384615384616
 40
0.4615384615384616
 40
0.4615384615384616
 40
0.5384615384615384
 40
0.5384615384615384
 40
0.5384615384615384
 40
0.5384615384615384
 40
0.6153846153846154
 40
0.6153846153846154
 40
0.6153846153846154
 40
0.6153846153846154
 40
0.6923076923076923
 40
0.6923076923076923
 40
0.6923076923076923
 40
0.6923076923076923
 40
0.7692307692307693
 40
0.7692307692307693
 40
0.7692307692307693
 40
0.7692307692307693
 40
0.8461538461538461
 40
0.8461538461538461
 40
0.8461538461538461
 40
0.8461538461538461
 40
1.0
 40
1.0
 40
1.0
 40
1.0
 10
-17.0848
 20
23.5109
 30
0.0
 10
-17.0848
 20
23.7499
 30
0.0
 10
-17.0603
 20
23.9423
 30
0.0
 10
-17.0109
 20
24.0876
 30
0.0
 10
-17.0109
 20
24.0876
 30
0.0
 10
-16.962
 20
24.2334
 30
0.0
 10
-16.8886
 20
24.3458
 30
0.0
 10
-16.7917
 20
24.4249
 30
0.0
 10
-16.7917
 20
24.4249
 30
0.0
 10
-16.6948
 20
24.5039
 30
0.0
 10
-16.573
 20
24.5434
 30
0.0
 10
-16.4263
 20
24.5434
 30
0.0
 10
-16.4263
 20
24.5434
 30
0.0
 10
-16.3176
 20
24.5434
 30
0.0
 10
-16.2226
 20
24.5213
 30
0.0
 10
-16.1408
 20
24.4775
 30
0.0
 10
-16.1408
 20
24.4775
 30
0.0
 10
-16.0589
 20
24.4343
 30
0.0
 10
-15.9916
 20
24.3712
 30
0.0
 10
-15.938
 20
24.2889
 30
0.0
 10
-15.938
 20
24.2889
 30
0.0
 10
-15.8849
 20
24.2066
 30
0.0
 10
-15.843
 20
24.1064
 30
0.0
 10
-15.8129
 20
23.9884
 30
0.0
 10
-15.8129
 20
23.9884
 30
0.0
 10
-15.7823
 20
23.8703
 30
0.0
 10
-15.7673
 20
23.7113
 30
0.0
 10
-15.7673
 20
23.5109
 30
0.0
 10
-15.7673
 20
23.5109
 30
0.0
 10
-15.7673
 20
23.2739
 30
0.0
 10
-15.7917
 20
23.0829
 30
0.0
 10
-15.8402
 20
22.9371
 30
0.0
 10
-15.8402
 20
22.9371
 30
0.0
 10
-15.8891
 20
22.7913
 30
0.0
 10
-15.962
 20
22.6789
 30
0.0
 10
-16.0589
 20
22.5994
 30
0.0
 10
-16.0589
 20
22.5994
 30
0.0
 10
-16.1558
 20
22.5199
 30
0.0
 10
-16.2781
 20
22.4804
 30
0.0
 10
-16.4263
 20
22.4804
 30
0.0
 10
-16.4263
 20
22.4804
 30
0.0
 10
-16.621
 20
22.4804
 30
0.0
 10
-16.7739
 20
22.55
 30
0.0
 10
-16.8849
 20
22.6897
 30
0.0
 10
-16.8849
 20
22.6897
 30
0.0
 10
-17.018
 20
22.8576
 30
0.0
 10
-17.0848
 20
23.1318
 30
0.0
 10
-17.0848
 20
23.5109
 30
0.0
  0
SPLINE
  5
90
330
1F
100
AcDbEntity
  8
ROUND
 62
   250
100
AcDbSpline
210
0.0
220
0.0
230
1.0
 70
    11
 71
     3
 72
    36
 73
    32
 74
     0
 42
0.0000000001
 43
0.0000000001
 40
0.0
 40
0.0
 40
0.0
 40
0.0
 40
0.1111111111111111
 40
0.1111111111111111
 40
0.1111111111111111
 40
0.1111111111111111
 40
0.2222222222222222
 40
0.2222222222222222
 40
0.2222222222222222
 40
0.2222222222222222
 40
0.3333333333333333
 40
0.3333333333333333
 40
0.3333333333333333
 40
0.3333333333333333
 40
0.4444444444444444
 40
0.4444444444444444
 40
0.4444444444444444
 40
0.4444444444444444
 40
0.5555555555555556
 40
0.5555555555555556
 40
0.5555555555555556
 40
0.5555555555555556
 40
0.6666666666666666
 40
0.6666666666666666
 40
0.6666666666666666
 40
0.6666666666666666
 40
0.7777777777777778
 40
0.7777777777777778
 40
0.7777777777777778
 40
0.7777777777777778
 40
1.0
 40
1.0
 40
1.0
 40
1.0
 10
-16.8298
 20
23.5109
 30
0.0
 10
-16.8298
 20
23.1793
 30
0.0
 10
-16.7908
 20
22.9587
 30
0.0
 10
-16.7132
 20
22.8487
 30
0.0
 10
-16.7132
 20
22.8487
 30
0.0
 10
-16.6356
 20
22.7391
 30
0.0
 10
-16.5401
 20
22.684
 30
0.0
 10
-16.4263
 20
22.684
 30
0.0
 10
-16.4263
 20
22.684
 30
0.0
 10
-16.312
 20
22.684
 30
0.0
 10
-16.2165
 20
22.7395
 30
0.0
 10
-16.1389
 20
22.8496
 30
0.0
 10
-16.1389
 20
22.8496
 30
0.0
 10
-16.0613
 20
22.9597
 30
0.0
 10
-16.0222
 20
23.1803
 30
0.0
 10
-16.0222
 20
23.5109
 30
0.0
 10
-16.0222
 20
23.5109
 30
0.0
 10
-16.0222
 20
23.8435
 30
0.0
 10
-16.0613
 20
24.0646
 30
0.0
 10
-16.1389
 20
24.1737
 30
0.0
 10
-16.1389
 20
24.1737
 30
0.0
 10
-16.2165
 20
24.2833
 30
0.0
 10
-16.3129
 20
24.3378
 30
0.0
 10
-16.4286
 20
24.3378
 30
0.0
 10
-16.4286
 20
24.3378
 30
0.0
 10
-16.5429
 20
24.3378
 30
0.0
 10
-16.6337
 20
24.2894
 30
0.0
 10
-16.7019
 20
24.193
 30
0.0
 10
-16.7019
 20
24.193
 30
0.0
 10
-16.787
 20
24.0702
 30
0.0
 10
-16.8298
 20
23.8425
 30
0.0
 10
-16.8298
 20
23.5109
 30
0.0
  0
SPLINE
  5
91
330
1F
100
AcDbEntity
  8
ROUND
 62
   250
100
AcDbSpline
210
0.0
220
0.0
230
1.0
 70
    11
 71
     3
 72
   120
 73
   116
 74
     0
 42
0.0000000001
 43
0.0000000001
 40
0.0
 40
0.0
 40
0.0
 40
0.0
 40
0.0333333333333333
 40
0.0333333333333333
 40
0.0333333333333333
 40
0.0333333333333333
 40
0.0666666666666667
 40
0.0666666666666667
 40
0.0666666666666667
 40
0.0666666666666667
 40
0.1
 40
0.1
 40
0.1
 40
0.1
 40
0.1333333333333333
 40
0.1333333333333333
 40
0.1333333333333333
 40
0.1333333333333333
 40
0.1666666666666667
 40
0.1666666666666667
 40
0.1666666666666667
 40
0.1666666666666667
 40
0.2
 40
0.2
 40
0.2
 40
0.2
 40
0.2333333333333333
 40
0.2333333333333333
 40
0.2333333333333333
 40
0.2333333333333333
 40
0.2666666666666667
 40
0.2666666666666667
 40
0.2666666666666667
 40
0.2666666666666667
 40
0.3
 40
0.3
 40
0.3
 40
0.3
 40
0.3333333333333333
 40
0.3333333333333333
 40
0.3333333333333333
 40
0.3333333333333333
 40
0.3666666666666666
 40
0.3666666666666666
 40
0.3666666666666666
 40
0.3666666666666666
 40
0.4
 40
0.4
 40
0.4
 40
0.4
 40
0.4333333333333333
 40
0.4333333333333333
 40
0.4333333333333333
 40
0.4333333333333333
 40
0.4666666666666667
 40
0.4666666666666667
 40
0.4666666666666667
 40
0.4666666666666667
 40
0.5
 40
0.5
 40
0.5
 40
0.5
 40
0.5333333333333333
 40
0.5333333333333333
 40
0.5333333333333333
 40
0.5333333333333333
 40
0.5666666666666667
 40
0.5666666666666667
 40
0.5666666666666667
 40
0.5666666666666667
 40
0.6
 40
0.6
 40
0.6
 40
0.6
 40
0.6333333333333333
 40
0.6333333333333333
 40
0.6333333333333333
 40
0.6333333333333333
 40
0.6666666666666666
 40
0.6666666666666666
 40
0.6666666666666666
 40
0.6666666666666666
 40
0.7
 40
0.7
 40
0.7
 40
0.7
 40
0.7333333333333333
 40
0.7333333333333333
 40
0.7333333333333333
 40
0.7333333333333333
 40
0.7666666666666667
 40
0.7666666666666667
 40
0.7666666666666667
 40
0.7666666666666667
 40
0.8
 40
0.8
 40
0.8
 40
0.8
 40
0.8333333333333334
 40
0.8333333333333334
 40
0.8333333333333334
 40
0.8333333333333334
 40
0.8666666666666667
 40
0.8666666666666667
 40
0.8666666666666667
 40
0.8666666666666667
 40
0.9
 40
0.9
 40
0.9
 40
0.9
 40
0.9333333333333333
 40
0.9333333333333333
 40
0.9333333333333333
 40
0.9333333333333333
 40
1.0
 40
1.0
 40
1.0
 40
1.0
 10
-10.0561
 20
18.8172
 30
0.0
 10
-10.0561
 20
18.8172
 30
0.0
 10
-10.0561
 20
19.0538
 30
0.0
 10
-10.0561
 20
19.0538
 30
0.0
 10
-10.0561
 20
19.0538
 30
0.0
 10
-10.0561
 20
19.0538
 30
0.0
 10
-9.2005
 20
19.0552
 30
0.0
 10
-9.2005
 20
19.0552
 30
0.0
 10
-9.2005
 20
19.0552
 30
0.0
 10
-9.2005
 20
19.0552
 30
0.0
 10
-9.2005
 20
18.3059
 30
0.0
 10
-9.2005
 20
18.3059
 30
0.0
 10
-9.2005
 20
18.3059
 30
0.0
 10
-9.3317
 20
18.201
 30
0.0
 10
-9.4672
 20
18.1224
 30
0.0
 10
-9.6069
 20
18.0693
 30
0.0
 10
-9.6069
 20
18.0693
 30
0.0
 10
-9.7466
 20
18.0166
 30
0.0
 10
-9.89
 20
17.9903
 30
0.0
 10
-10.0368
 20
17.9903
 30
0.0
 10
-10.0368
 20
17.9903
 30
0.0
 10
-10.2353
 20
17.9903
 30
0.0
 10
-10.4159
 20
18.0326
 30
0.0
 10
-10.5777
 20
18.1177
 30
0.0
 10
-10.5777
 20
18.1177
 30
0.0
 10
-10.74
 20
18.2024
 30
0.0
 10
-10.8623
 20
18.3256
 30
0.0
 10
-10.9451
 20
18.486
 30
0.0
 10
-10.9451
 20
18.486
 30
0.0
 10
-11.0279
 20
18.6469
 30
0.0
 10
-11.0693
 20
18.8266
 30
0.0
 10
-11.0693
 20
19.0251
 30
0.0
 10
-11.0693
 20
19.0251
 30
0.0
 10
-11.0693
 20
19.2217
 30
0.0
 10
-11.0279
 20
19.4051
 30
0.0
 10
-10.9455
 20
19.5754
 30
0.0
 10
-10.9455
 20
19.5754
 30
0.0
 10
-10.8637
 20
19.7461
 30
0.0
 10
-10.7452
 20
19.8727
 30
0.0
 10
-10.5909
 20
19.9555
 30
0.0
 10
-10.5909
 20
19.9555
 30
0.0
 10
-10.4366
 20
20.0378
 30
0.0
 10
-10.2588
 20
20.0792
 30
0.0
 10
-10.0575
 20
20.0792
 30
0.0
 10
-10.0575
 20
20.0792
 30
0.0
 10
-9.9117
 20
20.0792
 30
0.0
 10
-9.7795
 20
20.0556
 30
0.0
 10
-9.6614
 20
20.0081
 30
0.0
 10
-9.6614
 20
20.0081
 30
0.0
 10
-9.5434
 20
19.9611
 30
0.0
 10
-9.4507
 20
19.8952
 30
0.0
 10
-9.3839
 20
19.8106
 30
0.0
 10
-9.3839
 20
19.8106
 30
0.0
 10
-9.3167
 20
19.7259
 30
0.0
 10
-9.2659
 20
19.6159
 30
0.0
 10
-9.2306
 20
19.4799
 30
0.0
 10
-9.2306
 20
19.4799
 30
0.0
 10
-9.2306
 20
19.4799
 30
0.0
 10
-9.4719
 20
19.4136
 30
0.0
 10
-9.4719
 20
19.4136
 30
0.0
 10
-9.4719
 20
19.4136
 30
0.0
 10
-9.5025
 20
19.5166
 30
0.0
 10
-9.5401
 20
19.5975
 30
0.0
 10
-9.5848
 20
19.6563
 30
0.0
 10
-9.5848
 20
19.6563
 30
0.0
 10
-9.6299
 20
19.7151
 30
0.0
 10
-9.6944
 20
19.7621
 30
0.0
 10
-9.7781
 20
19.7974
 30
0.0
 10
-9.7781
 20
19.7974
 30
0.0
 10
-9.8614
 20
19.8327
 30
0.0
 10
-9.9545
 20
19.8506
 30
0.0
 10
-10.0561
 20
19.8506
 30
0.0
 10
-10.0561
 20
19.8506
 30
0.0
 10
-10.1784
 20
19.8506
 30
0.0
 10
-10.2842
 20
19.8317
 30
0.0
 10
-10.3731
 20
19.7946
 30
0.0
 10
-10.3731
 20
19.7946
 30
0.0
 10
-10.4625
 20
19.7574
 30
0.0
 10
-10.534
 20
19.7085
 30
0.0
 10
-10.589
 20
19.6478
 30
0.0
 10
-10.589
 20
19.6478
 30
0.0
 10
-10.6436
 20
19.5872
 30
0.0
 10
-10.6859
 20
19.5208
 30
0.0
 10
-10.7165
 20
19.4479
 30
0.0
 10
-10.7165
 20
19.4479
 30
0.0
 10
-10.7677
 20
19.3233
 30
0.0
 10
-10.7936
 20
19.1878
 30
0.0
 10
-10.7936
 20
19.0415
 30
0.0
 10
-10.7936
 20
19.0415
 30
0.0
 10
-10.7936
 20
18.8614
 30
0.0
 10
-10.7626
 20
18.7109
 30
0.0
 10
-10.7005
 20
18.5895
 30
0.0
 10
-10.7005
 20
18.5895
 30
0.0
 10
-10.6384
 20
18.4682
 30
0.0
 10
-10.5481
 20
18.3783
 30
0.0
 10
-10.4296
 20
18.3195
 30
0.0
 10
-10.4296
 20
18.3195
 30
0.0
 10
-10.311
 20
18.2607
 30
0.0
 10
-10.1854
 20
18.2311
 30
0.0
 10
-10.0523
 20
18.2311
 30
0.0
 10
-10.0523
 20
18.2311
 30
0.0
 10
-9.9361
 20
18.2311
 30
0.0
 10
-9.8233
 20
18.2537
 30
0.0
 10
-9.7132
 20
18.2984
 30
0.0
 10
-9.7132
 20
18.2984
 30
0.0
 10
-9.6026
 20
18.3426
 30
0.0
 10
-9.5194
 20
18.3901
 30
0.0
 10
-9.4625
 20
18.4409
 30
0.0
 10
-9.4625
 20
18.4409
 30
0.0
 10
-9.4625
 20
18.4409
 30
0.0
 10
-9.4625
 20
18.8172
 30
0.0
 10
-9.4625
 20
18.8172
 30
0.0
 10
-9.4625
 20
18.8172
 30
0.0
 10
-9.4625
 20
18.8172
 30
0.0
 10
-10.0561
 20
18.8172
 30
0.0
 10
-10.0561
 20
18.8172
 30
0.0
  0
SPLINE
  5
92
330
1F
100
AcDbEntity
  8
ROUND
 62
   250
100
AcDbSpline
210
0.0
220
0.0
230
1.0
 70
    11
 71
     3
 72
   124
 73
   120
 74
     0
 42
0.0000000001
 43
0.0000000001
 40
0.0
 40
0.0
 40
0.0
 40
0.0
 40
0.032258064516129
 40
0.032258064516129
 40
0.032258064516129
 40
0.032258064516129
 40
0.0645161290322581
 40
0.0645161290322581
 40
0.0645161290322581
 40
0.0645161290322581
 40
0.0967741935483871
 40
0.0967741935483871
 40
0.0967741935483871
 40
0.0967741935483871
 40
0.1290322580645161
 40
0.1290322580645161
 40
0.1290322580645161
 40
0.1290322580645161
 40
0.1612903225806452
 40
0.1612903225806452
 40
0.1612903225806452
 40
0.1612903225806452
 40
0.1935483870967742
 40
0.1935483870967742
 40
0.1935483870967742
 40
0.1935483870967742
 40
0.2258064516129032
 40
0.2258064516129032
 40
0.2258064516129032
 40
0.2258064516129032
 40
0.2580645161290323
 40
0.2580645161290323
 40
0.2580645161290323
 40
0.2580645161290323
 40
0.2903225806451613
 40
0.2903225806451613
 40
0.2903225806451613
 40
0.2903225806451613
 40
0.3225806451612903
 40
0.3225806451612903
 40
0.3225806451612903
 40
0.3225806451612903
 40
0.3548387096774194
 40
0.3548387096774194
 40
0.3548387096774194
 40
0.3548387096774194
 40
0.3870967741935484
 40
0.3870967741935484
 40
0.3870967741935484
 40
0.3870967741935484
 40
0.4193548387096774
 40
0.4193548387096774
 40
0.4193548387096774
 40
0.4193548387096774
 40
0.4516129032258064
 40
0.4516129032258064
 40
0.4516129032258064
 40
0.4516129032258064
 40
0.4838709677419355
 40
0.4838709677419355
 40
0.4838709677419355
 40
0.4838709677419355
 40
0.5161290322580645
 40
0.5161290322580645
 40
0.5161290322580645
 40
0.5161290322580645
 40
0.5483870967741935
 40
0.5483870967741935
 40
0.5483870967741935
 40
0.5483870967741935
 40
0.5806451612903226
 40
0.5806451612903226
 40
0.5806451612903226
 40
0.5806451612903226
 40
0.6129032258064516
 40
0.6129032258064516
 40
0.6129032258064516
 40
0.6129032258064516
 40
0.6451612903225806
 40
0.6451612903225806
 40
0.6451612903225806
 40
0.6451612903225806
 40
0.6774193548387096
 40
0.6774193548387096
 40
0.6774193548387096
 40
0.6774193548387096
 40
0.7096774193548387
 40
0.7096774193548387
 40
0.7096774193548387
 40
0.7096774193548387
 40
0.7419354838709677
 40
0.7419354838709677
 40
0.7419354838709677
 40
0.7419354838709677
 40
0.7741935483870968
 40
0.7741935483870968
 40
0.7741935483870968
 40
0.7741935483870968
 40
0.8064516129032258
 40
0.8064516129032258
 40
0.8064516129032258
 40
0.8064516129032258
 40
0.8387096774193549
 40
0.8387096774193549
 40
0.8387096774193549
 40
0.8387096774193549
 40
0.8709677419354839
 40
0.8709677419354839
 40
0.8709677419354839
 40
0.8709677419354839
 40
0.9032258064516129
 40
0.9032258064516129
 40
0.9032258064516129
 40
0.9032258064516129
 40
0.9354838709677419
 40
0.9354838709677419
 40
0.9354838709677419
 40
0.9354838709677419
 40
1.0
 40
1.0
 40
1.0
 40
1.0
 10
-8.1215
 20
18.558
 30
0.0
 10
-8.1215
 20
18.558
 30
0.0
 10
-7.8736
 20
18.5909
 30
0.0
 10
-7.8736
 20
18.5909
 30
0.0
 10
-7.8736
 20
18.5909
 30
0.0
 10
-7.8449
 20
18.4503
 30
0.0
 10
-7.7964
 20
18.3492
 30
0.0
 10
-7.7282
 20
18.2871
 30
0.0
 10
-7.7282
 20
18.2871
 30
0.0
 10
-7.6596
 20
18.225
 30
0.0
 10
-7.5763
 20
18.1939
 30
0.0
 10
-7.478
 20
18.1939
 30
0.0
 10
-7.478
 20
18.1939
 30
0.0
 10
-7.3614
 20
18.1939
 30
0.0
 10
-7.2626
 20
18.2344
 30
0.0
 10
-7.1821
 20
18.3153
 30
0.0
 10
-7.1821
 20
18.3153
 30
0.0
 10
-7.1022
 20
18.3962
 30
0.0
 10
-7.0617
 20
18.4964
 30
0.0
 10
-7.0617
 20
18.6159
 30
0.0
 10
-7.0617
 20
18.6159
 30
0.0
 10
-7.0617
 20
18.7297
 30
0.0
 10
-7.0989
 20
18.8238
 30
0.0
 10
-7.1732
 20
18.8976
 30
0.0
 10
-7.1732
 20
18.8976
 30
0.0
 10
-7.248
 20
18.9714
 30
0.0
 10
-7.3425
 20
19.0086
 30
0.0
 10
-7.4573
 20
19.0086
 30
0.0
 10
-7.4573
 20
19.0086
 30
0.0
 10
-7.5043
 20
19.0086
 30
0.0
 10
-7.5627
 20
18.9992
 30
0.0
 10
-7.6323
 20
18.9809
 30
0.0
 10
-7.6323
 20
18.9809
 30
0.0
 10
-7.6323
 20
18.9809
 30
0.0
 10
-7.6045
 20
19.1986
 30
0.0
 10
-7.6045
 20
19.1986
 30
0.0
 10
-7.6045
 20
19.1986
 30
0.0
 10
-7.5881
 20
19.1968
 30
0.0
 10
-7.5749
 20
19.1958
 30
0.0
 10
-7.5646
 20
19.1958
 30
0.0
 10
-7.5646
 20
19.1958
 30
0.0
 10
-7.4592
 20
19.1958
 30
0.0
 10
-7.3642
 20
19.2236
 30
0.0
 10
-7.2795
 20
19.2786
 30
0.0
 10
-7.2795
 20
19.2786
 30
0.0
 10
-7.1948
 20
19.3336
 30
0.0
 10
-7.1525
 20
19.4188
 30
0.0
 10
-7.1525
 20
19.5335
 30
0.0
 10
-7.1525
 20
19.5335
 30
0.0
 10
-7.1525
 20
19.6243
 30
0.0
 10
-7.1836
 20
19.7
 30
0.0
 10
-7.2452
 20
19.7593
 30
0.0
 10
-7.2452
 20
19.7593
 30
0.0
 10
-7.3068
 20
19.819
 30
0.0
 10
-7.3863
 20
19.8492
 30
0.0
 10
-7.4837
 20
19.8492
 30
0.0
 10
-7.4837
 20
19.8492
 30
0.0
 10
-7.5801
 20
19.8492
 30
0.0
 10
-7.6605
 20
19.8186
 30
0.0
 10
-7.7245
 20
19.7584
 30
0.0
 10
-7.7245
 20
19.7584
 30
0.0
 10
-7.7889
 20
19.6977
 30
0.0
 10
-7.8303
 20
19.6064
 30
0.0
 10
-7.8487
 20
19.4851
 30
0.0
 10
-7.8487
 20
19.4851
 30
0.0
 10
-7.8487
 20
19.4851
 30
0.0
 10
-8.0965
 20
19.5293
 30
0.0
 10
-8.0965
 20
19.5293
 30
0.0
 10
-8.0965
 20
19.5293
 30
0.0
 10
-8.0664
 20
19.6958
 30
0.0
 10
-7.9973
 20
19.8247
 30
0.0
 10
-7.89
 20
19.9159
 30
0.0
 10
-7.89
 20
19.9159
 30
0.0
 10
-7.7823
 20
20.0072
 30
0.0
 10
-7.6487
 20
20.0533
 30
0.0
 10
-7.4888
 20
20.0533
 30
0.0
 10
-7.4888
 20
20.0533
 30
0.0
 10
-7.3788
 20
20.0533
 30
0.0
 10
-7.2772
 20
20.0293
 30
0.0
 10
-7.1845
 20
19.9823
 30
0.0
 10
-7.1845
 20
19.9823
 30
0.0
 10
-7.0918
 20
19.9348
 30
0.0
 10
-7.0208
 20
19.8703
 30
0.0
 10
-6.9714
 20
19.7885
 30
0.0
 10
-6.9714
 20
19.7885
 30
0.0
 10
-6.9225
 20
19.7066
 30
0.0
 10
-6.8976
 20
19.6201
 30
0.0
 10
-6.8976
 20
19.5279
 30
0.0
 10
-6.8976
 20
19.5279
 30
0.0
 10
-6.8976
 20
19.4409
 30
0.0
 10
-6.9211
 20
19.3614
 30
0.0
 10
-6.9681
 20
19.2894
 30
0.0
 10
-6.9681
 20
19.2894
 30
0.0
 10
-7.0152
 20
19.2179
 30
0.0
 10
-7.0843
 20
19.161
 30
0.0
 10
-7.176
 20
19.1187
 30
0.0
 10
-7.176
 20
19.1187
 30
0.0
 10
-7.0566
 20
19.0914
 30
0.0
 10
-6.9639
 20
19.034
 30
0.0
 10
-6.8976
 20
18.947
 30
0.0
 10
-6.8976
 20
18.947
 30
0.0
 10
-6.8317
 20
18.8604
 30
0.0
 10
-6.7988
 20
18.7518
 30
0.0
 10
-6.7988
 20
18.6215
 30
0.0
 10
-6.7988
 20
18.6215
 30
0.0
 10
-6.7988
 20
18.4451
 30
0.0
 10
-6.8628
 20
18.2955
 30
0.0
 10
-6.9916
 20
18.1728
 30
0.0
 10
-6.9916
 20
18.1728
 30
0.0
 10
-7.1201
 20
18.05
 30
0.0
 10
-7.2828
 20
17.9889
 30
0.0
 10
-7.4794
 20
17.9889
 30
0.0
 10
-7.4794
 20
17.9889
 30
0.0
 10
-7.6567
 20
17.9889
 30
0.0
 10
-7.804
 20
18.0415
 30
0.0
 10
-7.9211
 20
18.1474
 30
0.0
 10
-7.9211
 20
18.1474
 30
0.0
 10
-8.0382
 20
18.2527
 30
0.0
 10
-8.105
 20
18.3896
 30
0.0
 10
-8.1215
 20
18.558
 30
0.0
  0
SPLINE
  5
93
330
1F
100
AcDbEntity
  8
ROUND
 62
   250
100
AcDbSpline
210
0.0
220
0.0
230
1.0
 70
    11
 71
     3
 72
    20
 73
    16
 74
     0
 42
0.0000000001
 43
0.0000000001
 40
0.0
 40
0.0
 40
0.0
 40
0.0
 40
0.2
 40
0.2
 40
0.2
 40
0.2
 40
0.4
 40
0.4
 40
0.4
 40
0.4
 40
0.6
 40
0.6
 40
0.6
 40
0.6
 40
1.0
 40
1.0
 40
1.0
 40
1.0
 10
-6.6704
 20
17.9903
 30
0.0
 10
-6.6704
 20
17.9903
 30
0.0
 10
-6.0848
 20
20.0792
 30
0.0
 10
-6.0848
 20
20.0792
 30
0.0
 10
-6.0848
 20
20.0792
 30
0.0
 10
-6.0848
 20
20.0792
 30
0.0
 10
-5.8863
 20
20.0792
 30
0.0
 10
-5.8863
 20
20.0792
 30
0.0
 10
-5.8863
 20
20.0792
 30
0.0
 10
-5.8863
 20
20.0792
 30
0.0
 10
-6.4705
 20
17.9903
 30
0.0
 10
-6.4705
 20
17.9903
 30
0.0
 10
-6.4705
 20
17.9903
 30
0.0
 10
-6.4705
 20
17.9903
 30
0.0
 10
-6.6704
 20
17.9903
 30
0.0
 10
-6.6704
 20
17.9903
 30
0.0
  0
SPLINE
  5
94
330
1F
100
AcDbEntity
  8
ROUND
 62
   250
100
AcDbSpline
210
0.0
220
0.0
230
1.0
 70
    11
 71
     3
 72
    68
 73
    64
 74
     0
 42
0.0000000001
 43
0.0000000001
 40
0.0
 40
0.0
 40
0.0
 40
0.0
 40
0.0588235294117647
 40
0.0588235294117647
 40
0.0588235294117647
 40
0.0588235294117647
 40
0.1176470588235294
 40
0.1176470588235294
 40
0.1176470588235294
 40
0.1176470588235294
 40
0.1764705882352941
 40
0.1764705882352941
 40
0.1764705882352941
 40
0.1764705882352941
 40
0.2352941176470588
 40
0.2352941176470588
 40
0.2352941176470588
 40
0.2352941176470588
 40
0.2941176470588235
 40
0.2941176470588235
 40
0.2941176470588235
 40
0.2941176470588235
 40
0.3529411764705883
 40
0.3529411764705883
 40
0.3529411764705883
 40
0.3529411764705883
 40
0.4117647058823529
 40
0.4117647058823529
 40
0.4117647058823529
 40
0.4117647058823529
 40
0.4705882352941176
 40
0.4705882352941176
 40
0.4705882352941176
 40
0.4705882352941176
 40
0.5294117647058824
 40
0.5294117647058824
 40
0.5294117647058824
 40
0.5294117647058824
 40
0.5882352941176471
 40
0.5882352941176471
 40
0.5882352941176471
 40
0.5882352941176471
 40
0.6470588235294118
 40
0.6470588235294118
 40
0.6470588235294118
 40
0.6470588235294118
 40
0.7058823529411765
 40
0.7058823529411765
 40
0.7058823529411765
 40
0.7058823529411765
 40
0.7647058823529411
 40
0.7647058823529411
 40
0.7647058823529411
 40
0.7647058823529411
 40
0.8235294117647058
 40
0.8235294117647058
 40
0.8235294117647058
 40
0.8235294117647058
 40
0.8823529411764706
 40
0.8823529411764706
 40
0.8823529411764706
 40
0.8823529411764706
 40
1.0
 40
1.0
 40
1.0
 40
1.0
 10
-5.3872
 20
19.1201
 30
0.0
 10
-5.4903
 20
19.1577
 30
0.0
 10
-5.5665
 20
19.2113
 30
0.0
 10
-5.6163
 20
19.2814
 30
0.0
 10
-5.6163
 20
19.2814
 30
0.0
 10
-5.6657
 20
19.351
 30
0.0
 10
-5.6906
 20
19.4348
 30
0.0
 10
-5.6906
 20
19.5321
 30
0.0
 10
-5.6906
 20
19.5321
 30
0.0
 10
-5.6906
 20
19.6793
 30
0.0
 10
-5.6379
 20
19.8026
 30
0.0
 10
-5.5321
 20
19.9028
 30
0.0
 10
-5.5321
 20
19.9028
 30
0.0
 10
-5.4263
 20
20.003
 30
0.0
 10
-5.2861
 20
20.0533
 30
0.0
 10
-5.1107
 20
20.0533
 30
0.0
 10
-5.1107
 20
20.0533
 30
0.0
 10
-4.9343
 20
20.0533
 30
0.0
 10
-4.7922
 20
20.002
 30
0.0
 10
-4.6845
 20
19.8995
 30
0.0
 10
-4.6845
 20
19.8995
 30
0.0
 10
-4.5773
 20
19.7969
 30
0.0
 10
-4.5236
 20
19.6723
 30
0.0
 10
-4.5236
 20
19.5251
 30
0.0
 10
-4.5236
 20
19.5251
 30
0.0
 10
-4.5236
 20
19.4315
 30
0.0
 10
-4.5481
 20
19.3501
 30
0.0
 10
-4.597
 20
19.2805
 30
0.0
 10
-4.597
 20
19.2805
 30
0.0
 10
-4.6464
 20
19.2113
 30
0.0
 10
-4.7207
 20
19.1577
 30
0.0
 10
-4.8209
 20
19.1201
 30
0.0
 10
-4.8209
 20
19.1201
 30
0.0
 10
-4.6972
 20
19.0796
 30
0.0
 10
-4.6027
 20
19.0147
 30
0.0
 10
-4.5378
 20
18.9244
 30
0.0
 10
-4.5378
 20
18.9244
 30
0.0
 10
-4.4733
 20
18.8346
 30
0.0
 10
-4.4409
 20
18.7269
 30
0.0
 10
-4.4409
 20
18.6022
 30
0.0
 10
-4.4409
 20
18.6022
 30
0.0
 10
-4.4409
 20
18.4291
 30
0.0
 10
-4.502
 20
18.2842
 30
0.0
 10
-4.6238
 20
18.1667
 30
0.0
 10
-4.6238
 20
18.1667
 30
0.0
 10
-4.7461
 20
18.0491
 30
0.0
 10
-4.907
 20
17.9903
 30
0.0
 10
-5.1064
 20
17.9903
 30
0.0
 10
-5.1064
 20
17.9903
 30
0.0
 10
-5.3059
 20
17.9903
 30
0.0
 10
-5.4663
 20
18.0491
 30
0.0
 10
-5.5886
 20
18.1671
 30
0.0
 10
-5.5886
 20
18.1671
 30
0.0
 10
-5.7109
 20
18.2852
 30
0.0
 10
-5.772
 20
18.4324
 30
0.0
 10
-5.772
 20
18.6088
 30
0.0
 10
-5.772
 20
18.6088
 30
0.0
 10
-5.772
 20
18.74
 30
0.0
 10
-5.7386
 20
18.8501
 30
0.0
 10
-5.6718
 20
18.939
 30
0.0
 10
-5.6718
 20
18.939
 30
0.0
 10
-5.6055
 20
19.0274
 30
0.0
 10
-5.5105
 20
19.0881
 30
0.0
 10
-5.3872
 20
19.1201
 30
0.0
  0
SPLINE
  5
95
330
1F
100
AcDbEntity
  8
ROUND
 62
   250
100
AcDbSpline
210
0.0
220
0.0
230
1.0
 70
    11
 71
     3
 72
    36
 73
    32
 74
     0
 42
0.0000000001
 43
0.0000000001
 40
0.0
 40
0.0
 40
0.0
 40
0.0
 40
0.1111111111111111
 40
0.1111111111111111
 40
0.1111111111111111
 40
0.1111111111111111
 40
0.2222222222222222
 40
0.2222222222222222
 40
0.2222222222222222
 40
0.2222222222222222
 40
0.3333333333333333
 40
0.3333333333333333
 40
0.3333333333333333
 40
0.3333333333333333
 40
0.4444444444444444
 40
0.4444444444444444
 40
0.4444444444444444
 40
0.4444444444444444
 40
0.5555555555555556
 40
0.5555555555555556
 40
0.5555555555555556
 40
0.5555555555555556
 40
0.6666666666666666
 40
0.6666666666666666
 40
0.6666666666666666
 40
0.6666666666666666
 40
0.7777777777777778
 40
0.7777777777777778
 40
0.7777777777777778
 40
0.7777777777777778
 40
1.0
 40
1.0
 40
1.0
 40
1.0
 10
-5.4371
 20
19.5406
 30
0.0
 10
-5.4371
 20
19.4451
 30
0.0
 10
-5.4061
 20
19.367
 30
0.0
 10
-5.3449
 20
19.3063
 30
0.0
 10
-5.3449
 20
19.3063
 30
0.0
 10
-5.2833
 20
19.2457
 30
0.0
 10
-5.2033
 20
19.2151
 30
0.0
 10
-5.105
 20
19.2151
 30
0.0
 10
-5.105
 20
19.2151
 30
0.0
 10
-5.0095
 20
19.2151
 30
0.0
 10
-4.931
 20
19.2452
 30
0.0
 10
-4.8698
 20
19.3054
 30
0.0
 10
-4.8698
 20
19.3054
 30
0.0
 10
-4.8087
 20
19.3656
 30
0.0
 10
-4.7786
 20
19.4395
 30
0.0
 10
-4.7786
 20
19.5265
 30
0.0
 10
-4.7786
 20
19.5265
 30
0.0
 10
-4.7786
 20
19.6177
 30
0.0
 10
-4.8096
 20
19.6939
 30
0.0
 10
-4.8727
 20
19.756
 30
0.0
 10
-4.8727
 20
19.756
 30
0.0
 10
-4.9357
 20
19.8181
 30
0.0
 10
-5.0138
 20
19.8492
 30
0.0
 10
-5.1078
 20
19.8492
 30
0.0
 10
-5.1078
 20
19.8492
 30
0.0
 10
-5.2024
 20
19.8492
 30
0.0
 10
-5.2809
 20
19.8186
 30
0.0
 10
-5.3435
 20
19.7584
 30
0.0
 10
-5.3435
 20
19.7584
 30
0.0
 10
-5.4061
 20
19.6977
 30
0.0
 10
-5.4371
 20
19.6248
 30
0.0
 10
-5.4371
 20
19.5406
 30
0.0
  0
SPLINE
  5
96
330
1F
100
AcDbEntity
  8
ROUND
 62
   250
100
AcDbSpline
210
0.0
220
0.0
230
1.0
 70
    11
 71
     3
 72
    40
 73
    36
 74
     0
 42
0.0000000001
 43
0.0000000001
 40
0.0
 40
0.0
 40
0.0
 40
0.0
 40
0.1
 40
0.1
 40
0.1
 40
0.1
 40
0.2
 40
0.2
 40
0.2
 40
0.2
 40
0.3
 40
0.3
 40
0.3
 40
0.3
 40
0.4
 40
0.4
 40
0.4
 40
0.4
 40
0.5
 40
0.5
 40
0.5
 40
0.5
 40
0.6
 40
0.6
 40
0.6
 40
0.6
 40
0.7
 40
0.7
 40
0.7
 40
0.7
 40
0.8
 40
0.8
 40
0.8
 40
0.8
 40
1.0
 40
1.0
 40
1.0
 40
1.0
 10
-5.5171
 20
18.6074
 30
0.0
 10
-5.5171
 20
18.5368
 30
0.0
 10
-5.5001
 20
18.4682
 30
0.0
 10
-5.4667
 20
18.4023
 30
0.0
 10
-5.4667
 20
18.4023
 30
0.0
 10
-5.4333
 20
18.336
 30
0.0
 10
-5.3835
 20
18.2847
 30
0.0
 10
-5.3172
 20
18.2485
 30
0.0
 10
-5.3172
 20
18.2485
 30
0.0
 10
-5.2508
 20
18.2123
 30
0.0
 10
-5.1798
 20
18.1939
 30
0.0
 10
-5.1036
 20
18.1939
 30
0.0
 10
-5.1036
 20
18.1939
 30
0.0
 10
-4.9851
 20
18.1939
 30
0.0
 10
-4.8872
 20
18.232
 30
0.0
 10
-4.8101
 20
18.3087
 30
0.0
 10
-4.8101
 20
18.3087
 30
0.0
 10
-4.733
 20
18.3849
 30
0.0
 10
-4.6944
 20
18.4818
 30
0.0
 10
-4.6944
 20
18.5994
 30
0.0
 10
-4.6944
 20
18.5994
 30
0.0
 10
-4.6944
 20
18.7189
 30
0.0
 10
-4.7339
 20
18.8176
 30
0.0
 10
-4.8134
 20
18.8957
 30
0.0
 10
-4.8134
 20
18.8957
 30
0.0
 10
-4.8929
 20
18.9738
 30
0.0
 10
-4.9926
 20
19.0128
 30
0.0
 10
-5.1121
 20
19.0128
 30
0.0
 10
-5.1121
 20
19.0128
 30
0.0
 10
-5.2287
 20
19.0128
 30
0.0
 10
-5.3252
 20
18.9743
 30
0.0
 10
-5.4018
 20
18.8971
 30
0.0
 10
-5.4018
 20
18.8971
 30
0.0
 10
-5.4785
 20
18.8195
 30
0.0
 10
-5.5171
 20
18.7231
 30
0.0
 10
-5.5171
 20
18.6074
 30
0.0
  0
SPLINE
  5
97
330
1F
100
AcDbEntity
  8
ROUND
 62
   250
100
AcDbSpline
210
0.0
220
0.0
230
1.0
 70
    11
 71
     3
 72
    28
 73
    24
 74
     0
 42
0.0000000001
 43
0.0000000001
 40
0.0
 40
0.0
 40
0.0
 40
0.0
 40
0.1428571428571428
 40
0.1428571428571428
 40
0.1428571428571428
 40
0.1428571428571428
 40
0.2857142857142857
 40
0.2857142857142857
 40
0.2857142857142857
 40
0.2857142857142857
 40
0.4285714285714285
 40
0.4285714285714285
 40
0.4285714285714285
 40
0.4285714285714285
 40
0.5714285714285714
 40
0.5714285714285714
 40
0.5714285714285714
 40
0.5714285714285714
 40
0.7142857142857143
 40
0.7142857142857143
 40
0.7142857142857143
 40
0.7142857142857143
 40
1.0
 40
1.0
 40
1.0
 40
1.0
 10
-4.1182
 20
19.3294
 30
0.0
 10
-4.1182
 20
19.3294
 30
0.0
 10
-4.1873
 20
19.7142
 30
0.0
 10
-4.1873
 20
19.7142
 30
0.0
 10
-4.1873
 20
19.7142
 30
0.0
 10
-4.1873
 20
19.7142
 30
0.0
 10
-4.1873
 20
20.0448
 30
0.0
 10
-4.1873
 20
20.0448
 30
0.0
 10
-4.1873
 20
20.0448
 30
0.0
 10
-4.1873
 20
20.0448
 30
0.0
 10
-3.9047
 20
20.0448
 30
0.0
 10
-3.9047
 20
20.0448
 30
0.0
 10
-3.9047
 20
20.0448
 30
0.0
 10
-3.9047
 20
20.0448
 30
0.0
 10
-3.9047
 20
19.7142
 30
0.0
 10
-3.9047
 20
19.7142
 30
0.0
 10
-3.9047
 20
19.7142
 30
0.0
 10
-3.9047
 20
19.7142
 30
0.0
 10
-3.9667
 20
19.3294
 30
0.0
 10
-3.9667
 20
19.3294
 30
0.0
 10
-3.9667
 20
19.3294
 30
0.0
 10
-3.9667
 20
19.3294
 30
0.0
 10
-4.1182
 20
19.3294
 30
0.0
 10
-4.1182
 20
19.3294
 30
0.0
  0
SPLINE
  5
98
330
1F
100
AcDbEntity
  8
ROUND
 62
   250
100
AcDbSpline
210
0.0
220
0.0
230
1.0
 70
    11
 71
     3
 72
    28
 73
    24
 74
     0
 42
0.0000000001
 43
0.0000000001
 40
0.0
 40
0.0
 40
0.0
 40
0.0
 40
0.1428571428571428
 40
0.1428571428571428
 40
0.1428571428571428
 40
0.1428571428571428
 40
0.2857142857142857
 40
0.2857142857142857
 40
0.2857142857142857
 40
0.2857142857142857
 40
0.4285714285714285
 40
0.4285714285714285
 40
0.4285714285714285
 40
0.4285714285714285
 40
0.5714285714285714
 40
0.5714285714285714
 40
0.5714285714285714
 40
0.5714285714285714
 40
0.7142857142857143
 40
0.7142857142857143
 40
0.7142857142857143
 40
0.7142857142857143
 40
1.0
 40
1.0
 40
1.0
 40
1.0
 10
-3.6619
 20
19.3294
 30
0.0
 10
-3.6619
 20
19.3294
 30
0.0
 10
-3.7297
 20
19.7142
 30
0.0
 10
-3.7297
 20
19.7142
 30
0.0
 10
-3.7297
 20
19.7142
 30
0.0
 10
-3.7297
 20
19.7142
 30
0.0
 10
-3.7297
 20
20.0448
 30
0.0
 10
-3.7297
 20
20.0448
 30
0.0
 10
-3.7297
 20
20.0448
 30
0.0
 10
-3.7297
 20
20.0448
 30
0.0
 10
-3.447
 20
20.0448
 30
0.0
 10
-3.447
 20
20.0448
 30
0.0
 10
-3.447
 20
20.0448
 30
0.0
 10
-3.447
 20
20.0448
 30
0.0
 10
-3.447
 20
19.7142
 30
0.0
 10
-3.447
 20
19.7142
 30
0.0
 10
-3.447
 20
19.7142
 30
0.0
 10
-3.447
 20
19.7142
 30
0.0
 10
-3.5133
 20
19.3294
 30
0.0
 10
-3.5133
 20
19.3294
 30
0.0
 10
-3.5133
 20
19.3294
 30
0.0
 10
-3.5133
 20
19.3294
 30
0.0
 10
-3.6619
 20
19.3294
 30
0.0
 10
-3.6619
 20
19.3294
 30
0.0
  0
SPLINE
  5
99
330
1F
100
AcDbEntity
  8
ROUND
  6
NEW_LINE2
 62
   250
100
AcDbSpline
210
0.0
220
0.0
230
1.0
 70
    24
 71
     3
 72
     8
 73
     4
 74
     0
 42
0.0000000001
 43
0.0000000001
 40
0.0
 40
0.0
 40
0.0
 40
0.0
 40
1.0
 40
1.0
 40
1.0
 40
1.0
 10
-23.8874
 20
15.3153
 30
0.0
 10
-23.8874
 20
15.3153
 30
0.0
 10
-23.8874
 20
0.6779
 30
0.0
 10
-23.8874
 20
0.6779
 30
0.0
  0
SPLINE
  5
9B
330
1F
100
AcDbEntity
  8
ROUND
  6
NEW_LINE3
 62
   250
100
AcDbSpline
210
0.0
220
0.0
230
1.0
 70
    24
 71
     3
 72
     8
 73
     4
 74
     0
 42
0.0000000001
 43
0.0000000001
 40
0.0
 40
0.0
 40
0.0
 40
0.0
 40
1.0
 40
1.0
 40
1.0
 40
1.0
 10
-7.6305
 20
-0.1349
 30
0.0
 10
-7.6305
 20
-0.1349
 30
0.0
 10
-7.6305
 20
16.4849
 30
0.0
 10
-7.6305
 20
16.4849
 30
0.0
  0
SPLINE
  5
9D
330
1F
100
AcDbEntity
  8
ROUND
 62
   250
100
AcDbSpline
210
0.0
220
0.0
230
1.0
 70
    11
 71
     3
 72
    20
 73
    16
 74
     0
 42
0.0000000001
 43
0.0000000001
 40
0.0
 40
0.0
 40
0.0
 40
0.0
 40
0.2
 40
0.2
 40
0.2
 40
0.2
 40
0.4
 40
0.4
 40
0.4
 40
0.4
 40
0.6
 40
0.6
 40
0.6
 40
0.6
 40
1.0
 40
1.0
 40
1.0
 40
1.0
 10
-0.5033
 20
16.7806
 30
0.0
 10
-0.5033
 20
16.7806
 30
0.0
 10
-3.5033
 20
17.204
 30
0.0
 10
-3.5033
 20
17.204
 30
0.0
 10
-3.5033
 20
17.204
 30
0.0
 10
-3.5033
 20
17.204
 30
0.0
 10
-3.5033
 20
17.298
 30
0.0
 10
-3.5033
 20
17.298
 30
0.0
 10
-3.5033
 20
17.298
 30
0.0
 10
-3.5033
 20
17.298
 30
0.0
 10
-0.5033
 20
17.7495
 30
0.0
 10
-0.5033
 20
17.7495
 30
0.0
 10
-0.5033
 20
17.7495
 30
0.0
 10
-0.5033
 20
17.7495
 30
0.0
 10
-0.5033
 20
16.7806
 30
0.0
 10
-0.5033
 20
16.7806
 30
0.0
  0
SPLINE
  5
9E
330
1F
100
AcDbEntity
  8
ROUND
 62
   250
100
AcDbSpline
210
0.0
220
0.0
230
1.0
 70
    11
 71
     3
 72
    20
 73
    16
 74
     0
 42
0.0000000001
 43
0.0000000001
 40
0.0
 40
0.0
 40
0.0
 40
0.0
 40
0.2
 40
0.2
 40
0.2
 40
0.2
 40
0.4
 40
0.4
 40
0.4
 40
0.4
 40
0.6
 40
0.6
 40
0.6
 40
0.6
 40
1.0
 40
1.0
 40
1.0
 40
1.0
 10
-14.8175
 20
17.7234
 30
0.0
 10
-14.8175
 20
17.7234
 30
0.0
 10
-11.8174
 20
17.3
 30
0.0
 10
-11.8174
 20
17.3
 30
0.0
 10
-11.8174
 20
17.3
 30
0.0
 10
-11.8174
 20
17.3
 30
0.0
 10
-11.8174
 20
17.2059
 30
0.0
 10
-11.8174
 20
17.2059
 30
0.0
 10
-11.8174
 20
17.2059
 30
0.0
 10
-11.8174
 20
17.2059
 30
0.0
 10
-14.8175
 20
16.7544
 30
0.0
 10
-14.8175
 20
16.7544
 30
0.0
 10
-14.8175
 20
16.7544
 30
0.0
 10
-14.8175
 20
16.7544
 30
0.0
 10
-14.8175
 20
17.7234
 30
0.0
 10
-14.8175
 20
17.7234
 30
0.0
  0
SPLINE
  5
9F
330
1F
100
AcDbEntity
  8
ROUND
 62
   250
100
AcDbSpline
210
0.0
220
0.0
230
1.0
 70
    24
 71
     3
 72
     8
 73
     4
 74
     0
 42
0.0000000001
 43
0.0000000001
 40
0.0
 40
0.0
 40
0.0
 40
0.0
 40
1.0
 40
1.0
 40
1.0
 40
1.0
 10
-3.5949
 20
7.879
 30
0.0
 10
-3.5949
 20
7.879
 30
0.0
 10
-11.7117
 20
7.5622
 30
0.0
 10
-11.7117
 20
7.5622
 30
0.0
  0
SPLINE
  5
A0
330
1F
100
AcDbEntity
  8
ROUND
 62
   250
100
AcDbSpline
210
0.0
220
0.0
230
1.0
 70
    24
 71
     3
 72
     8
 73
     4
 74
     0
 42
0.0000000001
 43
0.0000000001
 40
0.0
 40
0.0
 40
0.0
 40
0.0
 40
1.0
 40
1.0
 40
1.0
 40
1.0
 10
-3.5949
 20
11.079
 30
0.0
 10
-3.5949
 20
11.079
 30
0.0
 10
-11.7117
 20
10.7622
 30
0.0
 10
-11.7117
 20
10.7622
 30
0.0
  0
SPLINE
  5
A1
330
1F
100
AcDbEntity
  8
ROUND
 62
   250
100
AcDbSpline
210
0.0
220
0.0
230
1.0
 70
    24
 71
     3
 72
     8
 73
     4
 74
     0
 42
0.0000000001
 43
0.0000000001
 40
0.0
 40
0.0
 40
0.0
 40
0.0
 40
1.0
 40
1.0
 40
1.0
 40
1.0
 10
-3.5949
 20
10.419
 30
0.0
 10
-3.5949
 20
10.419
 30
0.0
 10
-11.7117
 20
10.1022
 30
0.0
 10
-11.7117
 20
10.1022
 30
0.0
  0
SPLINE
  5
A2
330
1F
100
AcDbEntity
  8
ROUND
 62
   250
100
AcDbSpline
210
0.0
220
0.0
230
1.0
 70
    24
 71
     3
 72
     8
 73
     4
 74
     0
 42
0.0000000001
 43
0.0000000001
 40
0.0
 40
0.0
 40
0.0
 40
0.0
 40
1.0
 40
1.0
 40
1.0
 40
1.0
 10
-3.5949
 20
9.891
 30
0.0
 10
-3.5949
 20
9.891
 30
0.0
 10
-11.7117
 20
9.5742
 30
0.0
 10
-11.7117
 20
9.5742
 30
0.0
  0
SPLINE
  5
A3
330
1F
100
AcDbEntity
  8
ROUND
 62
   250
100
AcDbSpline
210
0.0
220
0.0
230
1.0
 70
    24
 71
     3
 72
     8
 73
     4
 74
     0
 42
0.0000000001
 43
0.0000000001
 40
0.0
 40
0.0
 40
0.0
 40
0.0
 40
1.0
 40
1.0
 40
1.0
 40
1.0
 10
-3.5949
 20
9.199
 30
0.0
 10
-3.5949
 20
9.199
 30
0.0
 10
-11.7117
 20
8.8822
 30
0.0
 10
-11.7117
 20
8.8822
 30
0.0
  0
SPLINE
  5
A4
330
1F
100
AcDbEntity
  8
ROUND
 62
   250
100
AcDbSpline
210
0.0
220
0.0
230
1.0
 70
    24
 71
     3
 72
     8
 73
     4
 74
     0
 42
0.0000000001
 43
0.0000000001
 40
0.0
 40
0.0
 40
0.0
 40
0.0
 40
1.0
 40
1.0
 40
1.0
 40
1.0
 10
-3.5949
 20
8.539
 30
0.0
 10
-3.5949
 20
8.539
 30
0.0
 10
-11.7117
 20
8.2222
 30
0.0
 10
-11.7117
 20
8.2222
 30
0.0
  0
SPLINE
  5
A5
330
1F
100
AcDbEntity
  8
ROUND
 62
   250
100
AcDbSpline
210
0.0
220
0.0
230
1.0
 70
    24
 71
     3
 72
     8
 73
     4
 74
     0
 42
0.0000000001
 43
0.0000000001
 40
0.0
 40
0.0
 40
0.0
 40
0.0
 40
1.0
 40
1.0
 40
1.0
 40
1.0
 10
-3.5949
 20
11.739
 30
0.0
 10
-3.5949
 20
11.739
 30
0.0
 10
-11.7117
 20
11.4222
 30
0.0
 10
-11.7117
 20
11.4222
 30
0.0
  0
SPLINE
  5
A6
330
1F
100
AcDbEntity
  8
ROUND
 62
   250
100
AcDbSpline
210
0.0
220
0.0
230
1.0
 70
    24
 71
     3
 72
     8
 73
     4
 74
     0
 42
0.0000000001
 43
0.0000000001
 40
0.0
 40
0.0
 40
0.0
 40
0.0
 40
1.0
 40
1.0
 40
1.0
 40
1.0
 10
-3.5351
 20
12.7305
 30
0.0
 10
-3.5351
 20
12.7305
 30
0.0
 10
-3.5351
 20
18.1281
 30
0.0
 10
-3.5351
 20
18.1281
 30
0.0
  0
SPLINE
  5
A7
330
1F
100
AcDbEntity
  8
ROUND
 62
   250
100
AcDbSpline
210
0.0
220
0.0
230
1.0
 70
    24
 71
     3
 72
     8
 73
     4
 74
     0
 42
0.0000000001
 43
0.0000000001
 40
0.0
 40
0.0
 40
0.0
 40
0.0
 40
1.0
 40
1.0
 40
1.0
 40
1.0
 10
-11.7351
 20
12.7422
 30
0.0
 10
-11.7351
 20
12.7422
 30
0.0
 10
-11.7351
 20
18.1052
 30
0.0
 10
-11.7351
 20
18.1052
 30
0.0
  0
SPLINE
  5
A8
330
1F
100
AcDbEntity
  8
ROUND
 62
   250
100
AcDbSpline
210
0.0
220
0.0
230
1.0
 70
    24
 71
     3
 72
     8
 73
     4
 74
     0
 42
0.0000000001
 43
0.0000000001
 40
0.0
 40
0.0
 40
0.0
 40
0.0
 40
1.0
 40
1.0
 40
1.0
 40
1.0
 10
0.2537
 20
17.2265
 30
0.0
 10
0.2537
 20
17.2265
 30
0.0
 10
-15.8122
 20
17.2265
 30
0.0
 10
-15.8122
 20
17.2265
 30
0.0
  0
SPLINE
  5
A9
330
1F
100
AcDbEntity
  8
ROUND
 62
   250
100
AcDbSpline
210
0.0
220
0.0
230
1.0
 70
     8
 71
     3
 72
    96
 73
    92
 74
     0
 42
0.0000000001
 43
0.0000000001
 40
0.0
 40
0.0
 40
0.0
 40
0.0
 40
0.0416666666666667
 40
0.0416666666666667
 40
0.0416666666666667
 40
0.0416666666666667
 40
0.0833333333333333
 40
0.0833333333333333
 40
0.0833333333333333
 40
0.0833333333333333
 40
0.125
 40
0.125
 40
0.125
 40
0.125
 40
0.1666666666666667
 40
0.1666666666666667
 40
0.1666666666666667
 40
0.1666666666666667
 40
0.2083333333333333
 40
0.2083333333333333
 40
0.2083333333333333
 40
0.2083333333333333
 40
0.25
 40
0.25
 40
0.25
 40
0.25
 40
0.2916666666666667
 40
0.2916666666666667
 40
0.2916666666666667
 40
0.2916666666666667
 40
0.3333333333333333
 40
0.3333333333333333
 40
0.3333333333333333
 40
0.3333333333333333
 40
0.375
 40
0.375
 40
0.375
 40
0.375
 40
0.4166666666666667
 40
0.4166666666666667
 40
0.4166666666666667
 40
0.4166666666666667
 40
0.4583333333333333
 40
0.4583333333333333
 40
0.4583333333333333
 40
0.4583333333333333
 40
0.5
 40
0.5
 40
0.5
 40
0.5
 40
0.5416666666666666
 40
0.5416666666666666
 40
0.5416666666666666
 40
0.5416666666666666
 40
0.5833333333333334
 40
0.5833333333333334
 40
0.5833333333333334
 40
0.5833333333333334
 40
0.625
 40
0.625
 40
0.625
 40
0.625
 40
0.6666666666666666
 40
0.6666666666666666
 40
0.6666666666666666
 40
0.6666666666666666
 40
0.7083333333333334
 40
0.7083333333333334
 40
0.7083333333333334
 40
0.7083333333333334
 40
0.75
 40
0.75
 40
0.75
 40
0.75
 40
0.7916666666666666
 40
0.7916666666666666
 40
0.7916666666666666
 40
0.7916666666666666
 40
0.8333333333333334
 40
0.8333333333333334
 40
0.8333333333333334
 40
0.8333333333333334
 40
0.875
 40
0.875
 40
0.875
 40
0.875
 40
0.9166666666666666
 40
0.9166666666666666
 40
0.9166666666666666
 40
0.9166666666666666
 40
1.0
 40
1.0
 40
1.0
 40
1.0
 10
-7.6662
 20
1.3457
 30
0.0
 10
-7.6662
 20
1.3457
 30
0.0
 10
-7.888
 20
1.3492
 30
0.0
 10
-7.888
 20
1.3492
 30
0.0
 10
-7.888
 20
1.3492
 30
0.0
 10
-7.888
 20
1.3492
 30
0.0
 10
-8.0957
 20
1.3588
 30
0.0
 10
-8.0957
 20
1.3588
 30
0.0
 10
-8.0957
 20
1.3588
 30
0.0
 10
-8.0957
 20
1.3588
 30
0.0
 10
-8.2928
 20
1.3734
 30
0.0
 10
-8.2928
 20
1.3734
 30
0.0
 10
-8.2928
 20
1.3734
 30
0.0
 10
-8.2928
 20
1.3734
 30
0.0
 10
-8.4826
 20
1.3928
 30
0.0
 10
-8.4826
 20
1.3928
 30
0.0
 10
-8.4826
 20
1.3928
 30
0.0
 10
-8.4826
 20
1.3928
 30
0.0
 10
-8.6683
 20
1.4165
 30
0.0
 10
-8.6683
 20
1.4165
 30
0.0
 10
-8.6683
 20
1.4165
 30
0.0
 10
-8.6683
 20
1.4165
 30
0.0
 10
-8.8521
 20
1.4446
 30
0.0
 10
-8.8521
 20
1.4446
 30
0.0
 10
-8.8521
 20
1.4446
 30
0.0
 10
-8.8521
 20
1.4446
 30
0.0
 10
-9.0309
 20
1.4763
 30
0.0
 10
-9.0309
 20
1.4763
 30
0.0
 10
-9.0309
 20
1.4763
 30
0.0
 10
-9.0309
 20
1.4763
 30
0.0
 10
-9.2025
 20
1.5107
 30
0.0
 10
-9.2025
 20
1.5107
 30
0.0
 10
-9.2025
 20
1.5107
 30
0.0
 10
-9.2025
 20
1.5107
 30
0.0
 10
-9.3781
 20
1.55
 30
0.0
 10
-9.3781
 20
1.55
 30
0.0
 10
-9.3781
 20
1.55
 30
0.0
 10
-9.3781
 20
1.55
 30
0.0
 10
-9.5715
 20
1.5977
 30
0.0
 10
-9.5715
 20
1.5977
 30
0.0
 10
-9.5715
 20
1.5977
 30
0.0
 10
-9.5715
 20
1.5977
 30
0.0
 10
-9.7858
 20
1.656
 30
0.0
 10
-9.7858
 20
1.656
 30
0.0
 10
-9.7858
 20
1.656
 30
0.0
 10
-9.7858
 20
1.656
 30
0.0
 10
-10.0139
 20
1.7243
 30
0.0
 10
-10.0139
 20
1.7243
 30
0.0
 10
-10.0139
 20
1.7243
 30
0.0
 10
-10.0139
 20
1.7243
 30
0.0
 10
-10.2484
 20
1.8007
 30
0.0
 10
-10.2484
 20
1.8007
 30
0.0
 10
-10.2484
 20
1.8007
 30
0.0
 10
-10.2484
 20
1.8007
 30
0.0
 10
-10.4804
 20
1.8825
 30
0.0
 10
-10.4804
 20
1.8825
 30
0.0
 10
-10.4804
 20
1.8825
 30
0.0
 10
-10.4804
 20
1.8825
 30
0.0
 10
-10.6942
 20
1.9631
 30
0.0
 10
-10.6942
 20
1.9631
 30
0.0
 10
-10.6942
 20
1.9631
 30
0.0
 10
-10.6942
 20
1.9631
 30
0.0
 10
-10.8801
 20
2.0369
 30
0.0
 10
-10.8801
 20
2.0369
 30
0.0
 10
-10.8801
 20
2.0369
 30
0.0
 10
-10.8801
 20
2.0369
 30
0.0
 10
-11.04
 20
2.1033
 30
0.0
 10
-11.04
 20
2.1033
 30
0.0
 10
-11.04
 20
2.1033
 30
0.0
 10
-11.04
 20
2.1033
 30
0.0
 10
-11.1748
 20
2.1613
 30
0.0
 10
-11.1748
 20
2.1613
 30
0.0
 10
-11.1748
 20
2.1613
 30
0.0
 10
-11.1748
 20
2.1613
 30
0.0
 10
-11.2852
 20
2.2099
 30
0.0
 10
-11.2852
 20
2.2099
 30
0.0
 10
-11.2852
 20
2.2099
 30
0.0
 10
-11.2852
 20
2.2099
 30
0.0
 10
-11.3718
 20
2.2489
 30
0.0
 10
-11.3718
 20
2.2489
 30
0.0
 10
-11.3718
 20
2.2489
 30
0.0
 10
-11.3718
 20
2.2489
 30
0.0
 10
-11.4359
 20
2.2783
 30
0.0
 10
-11.4359
 20
2.2783
 30
0.0
 10
-11.4359
 20
2.2783
 30
0.0
 10
-11.4359
 20
2.2783
 30
0.0
 10
-11.4783
 20
2.2978
 30
0.0
 10
-11.4783
 20
2.2978
 30
0.0
 10
-11.4783
 20
2.2978
 30
0.0
 10
-11.4783
 20
2.2978
 30
0.0
 10
-11.4993
 20
2.3076
 30
0.0
 10
-11.4993
 20
2.3076
 30
0.0
  0
SPLINE
  5
AA
330
1F
100
AcDbEntity
  8
ROUND
 62
   250
100
AcDbSpline
210
0.0
220
0.0
230
1.0
 70
     8
 71
     3
 72
    96
 73
    92
 74
     0
 42
0.0000000001
 43
0.0000000001
 40
0.0
 40
0.0
 40
0.0
 40
0.0
 40
0.0416666666666667
 40
0.0416666666666667
 40
0.0416666666666667
 40
0.0416666666666667
 40
0.0833333333333333
 40
0.0833333333333333
 40
0.0833333333333333
 40
0.0833333333333333
 40
0.125
 40
0.125
 40
0.125
 40
0.125
 40
0.1666666666666667
 40
0.1666666666666667
 40
0.1666666666666667
 40
0.1666666666666667
 40
0.2083333333333333
 40
0.2083333333333333
 40
0.2083333333333333
 40
0.2083333333333333
 40
0.25
 40
0.25
 40
0.25
 40
0.25
 40
0.2916666666666667
 40
0.2916666666666667
 40
0.2916666666666667
 40
0.2916666666666667
 40
0.3333333333333333
 40
0.3333333333333333
 40
0.3333333333333333
 40
0.3333333333333333
 40
0.375
 40
0.375
 40
0.375
 40
0.375
 40
0.4166666666666667
 40
0.4166666666666667
 40
0.4166666666666667
 40
0.4166666666666667
 40
0.4583333333333333
 40
0.4583333333333333
 40
0.4583333333333333
 40
0.4583333333333333
 40
0.5
 40
0.5
 40
0.5
 40
0.5
 40
0.5416666666666666
 40
0.5416666666666666
 40
0.5416666666666666
 40
0.5416666666666666
 40
0.5833333333333334
 40
0.5833333333333334
 40
0.5833333333333334
 40
0.5833333333333334
 40
0.625
 40
0.625
 40
0.625
 40
0.625
 40
0.6666666666666666
 40
0.6666666666666666
 40
0.6666666666666666
 40
0.6666666666666666
 40
0.7083333333333334
 40
0.7083333333333334
 40
0.7083333333333334
 40
0.7083333333333334
 40
0.75
 40
0.75
 40
0.75
 40
0.75
 40
0.7916666666666666
 40
0.7916666666666666
 40
0.7916666666666666
 40
0.7916666666666666
 40
0.8333333333333334
 40
0.8333333333333334
 40
0.8333333333333334
 40
0.8333333333333334
 40
0.875
 40
0.875
 40
0.875
 40
0.875
 40
0.9166666666666666
 40
0.9166666666666666
 40
0.9166666666666666
 40
0.9166666666666666
 40
1.0
 40
1.0
 40
1.0
 40
1.0
 10
-7.6662
 20
1.3457
 30
0.0
 10
-7.6662
 20
1.3457
 30
0.0
 10
-7.4445
 20
1.3492
 30
0.0
 10
-7.4445
 20
1.3492
 30
0.0
 10
-7.4445
 20
1.3492
 30
0.0
 10
-7.4445
 20
1.3492
 30
0.0
 10
-7.2367
 20
1.3588
 30
0.0
 10
-7.2367
 20
1.3588
 30
0.0
 10
-7.2367
 20
1.3588
 30
0.0
 10
-7.2367
 20
1.3588
 30
0.0
 10
-7.0396
 20
1.3734
 30
0.0
 10
-7.0396
 20
1.3734
 30
0.0
 10
-7.0396
 20
1.3734
 30
0.0
 10
-7.0396
 20
1.3734
 30
0.0
 10
-6.8498
 20
1.3928
 30
0.0
 10
-6.8498
 20
1.3928
 30
0.0
 10
-6.8498
 20
1.3928
 30
0.0
 10
-6.8498
 20
1.3928
 30
0.0
 10
-6.6642
 20
1.4165
 30
0.0
 10
-6.6642
 20
1.4165
 30
0.0
 10
-6.6642
 20
1.4165
 30
0.0
 10
-6.6642
 20
1.4165
 30
0.0
 10
-6.4803
 20
1.4446
 30
0.0
 10
-6.4803
 20
1.4446
 30
0.0
 10
-6.4803
 20
1.4446
 30
0.0
 10
-6.4803
 20
1.4446
 30
0.0
 10
-6.3014
 20
1.4763
 30
0.0
 10
-6.3014
 20
1.4763
 30
0.0
 10
-6.3014
 20
1.4763
 30
0.0
 10
-6.3014
 20
1.4763
 30
0.0
 10
-6.13
 20
1.5107
 30
0.0
 10
-6.13
 20
1.5107
 30
0.0
 10
-6.13
 20
1.5107
 30
0.0
 10
-6.13
 20
1.5107
 30
0.0
 10
-5.9543
 20
1.55
 30
0.0
 10
-5.9543
 20
1.55
 30
0.0
 10
-5.9543
 20
1.55
 30
0.0
 10
-5.9543
 20
1.55
 30
0.0
 10
-5.7609
 20
1.5977
 30
0.0
 10
-5.7609
 20
1.5977
 30
0.0
 10
-5.7609
 20
1.5977
 30
0.0
 10
-5.7609
 20
1.5977
 30
0.0
 10
-5.5464
 20
1.6561
 30
0.0
 10
-5.5464
 20
1.6561
 30
0.0
 10
-5.5464
 20
1.6561
 30
0.0
 10
-5.5464
 20
1.6561
 30
0.0
 10
-5.3184
 20
1.7243
 30
0.0
 10
-5.3184
 20
1.7243
 30
0.0
 10
-5.3184
 20
1.7243
 30
0.0
 10
-5.3184
 20
1.7243
 30
0.0
 10
-5.0838
 20
1.8008
 30
0.0
 10
-5.0838
 20
1.8008
 30
0.0
 10
-5.0838
 20
1.8008
 30
0.0
 10
-5.0838
 20
1.8008
 30
0.0
 10
-4.8519
 20
1.8825
 30
0.0
 10
-4.8519
 20
1.8825
 30
0.0
 10
-4.8519
 20
1.8825
 30
0.0
 10
-4.8519
 20
1.8825
 30
0.0
 10
-4.6381
 20
1.9631
 30
0.0
 10
-4.6381
 20
1.9631
 30
0.0
 10
-4.6381
 20
1.9631
 30
0.0
 10
-4.6381
 20
1.9631
 30
0.0
 10
-4.4522
 20
2.037
 30
0.0
 10
-4.4522
 20
2.037
 30
0.0
 10
-4.4522
 20
2.037
 30
0.0
 10
-4.4522
 20
2.037
 30
0.0
 10
-4.2923
 20
2.1034
 30
0.0
 10
-4.2923
 20
2.1034
 30
0.0
 10
-4.2923
 20
2.1034
 30
0.0
 10
-4.2923
 20
2.1034
 30
0.0
 10
-4.1575
 20
2.1613
 30
0.0
 10
-4.1575
 20
2.1613
 30
0.0
 10
-4.1575
 20
2.1613
 30
0.0
 10
-4.1575
 20
2.1613
 30
0.0
 10
-4.0471
 20
2.21
 30
0.0
 10
-4.0471
 20
2.21
 30
0.0
 10
-4.0471
 20
2.21
 30
0.0
 10
-4.0471
 20
2.21
 30
0.0
 10
-3.9605
 20
2.2489
 30
0.0
 10
-3.9605
 20
2.2489
 30
0.0
 10
-3.9605
 20
2.2489
 30
0.0
 10
-3.9605
 20
2.2489
 30
0.0
 10
-3.8965
 20
2.2783
 30
0.0
 10
-3.8965
 20
2.2783
 30
0.0
 10
-3.8965
 20
2.2783
 30
0.0
 10
-3.8965
 20
2.2783
 30
0.0
 10
-3.8541
 20
2.2978
 30
0.0
 10
-3.8541
 20
2.2978
 30
0.0
 10
-3.8541
 20
2.2978
 30
0.0
 10
-3.8541
 20
2.2978
 30
0.0
 10
-3.8331
 20
2.3076
 30
0.0
 10
-3.8331
 20
2.3076
 30
0.0
  0
SPLINE
  5
AB
330
1F
100
AcDbEntity
  8
ROUND
 62
   250
100
AcDbSpline
210
0.0
220
0.0
230
1.0
 70
    27
 71
     3
 72
    16
 73
    12
 74
     0
 42
0.0000000001
 43
0.0000000001
 40
0.0
 40
0.0
 40
0.0
 40
0.0
 40
0.25
 40
0.25
 40
0.25
 40
0.25
 40
0.5
 40
0.5
 40
0.5
 40
0.5
 40
1.0
 40
1.0
 40
1.0
 40
1.0
 10
-11.7417
 20
11.8346
 30
0.0
 10
-11.7417
 20
11.8346
 30
0.0
 10
-11.6697
 20
11.8346
 30
0.0
 10
-11.6697
 20
11.8346
 30
0.0
 10
-11.6697
 20
11.8346
 30
0.0
 10
-11.6697
 20
11.8346
 30
0.0
 10
-3.5905
 20
11.8346
 30
0.0
 10
-3.5905
 20
11.8346
 30
0.0
 10
-3.5905
 20
11.8346
 30
0.0
 10
-3.5905
 20
11.8346
 30
0.0
 10
-11.7417
 20
11.8346
 30
0.0
 10
-11.7417
 20
11.8346
 30
0.0
  0
SPLINE
  5
AC
330
1F
100
AcDbEntity
  8
ROUND
 62
   250
100
AcDbSpline
210
0.0
220
0.0
230
1.0
 70
    27
 71
     3
 72
    20
 73
    16
 74
     0
 42
0.0000000001
 43
0.0000000001
 40
0.0
 40
0.0
 40
0.0
 40
0.0
 40
0.2
 40
0.2
 40
0.2
 40
0.2
 40
0.4
 40
0.4
 40
0.4
 40
0.4
 40
0.6
 40
0.6
 40
0.6
 40
0.6
 40
1.0
 40
1.0
 40
1.0
 40
1.0
 10
-11.7417
 20
7.0714
 30
0.0
 10
-11.7417
 20
7.0714
 30
0.0
 10
-11.6885
 20
7.0714
 30
0.0
 10
-11.6885
 20
7.0714
 30
0.0
 10
-11.6885
 20
7.0714
 30
0.0
 10
-11.6885
 20
7.0714
 30
0.0
 10
-3.6809
 20
7.0714
 30
0.0
 10
-3.6809
 20
7.0714
 30
0.0
 10
-3.6809
 20
7.0714
 30
0.0
 10
-3.6809
 20
7.0714
 30
0.0
 10
-3.5905
 20
7.0714
 30
0.0
 10
-3.5905
 20
7.0714
 30
0.0
 10
-3.5905
 20
7.0714
 30
0.0
 10
-3.5905
 20
7.0714
 30
0.0
 10
-11.7417
 20
7.0714
 30
0.0
 10
-11.7417
 20
7.0714
 30
0.0
  0
SPLINE
  5
AD
330
1F
100
AcDbEntity
  8
ROUND
 62
   250
100
AcDbSpline
210
0.0
220
0.0
230
1.0
 70
    27
 71
     3
 72
    20
 73
    16
 74
     0
 42
0.0000000001
 43
0.0000000001
 40
0.0
 40
0.0
 40
0.0
 40
0.0
 40
0.2
 40
0.2
 40
0.2
 40
0.2
 40
0.4
 40
0.4
 40
0.4
 40
0.4
 40
0.6
 40
0.6
 40
0.6
 40
0.6
 40
1.0
 40
1.0
 40
1.0
 40
1.0
 10
-10.7827
 20
6.624
 30
0.0
 10
-10.7827
 20
6.624
 30
0.0
 10
-10.7555
 20
6.624
 30
0.0
 10
-10.7555
 20
6.624
 30
0.0
 10
-10.7555
 20
6.624
 30
0.0
 10
-10.7555
 20
6.624
 30
0.0
 10
-4.5544
 20
6.624
 30
0.0
 10
-4.5544
 20
6.624
 30
0.0
 10
-4.5544
 20
6.624
 30
0.0
 10
-4.5544
 20
6.624
 30
0.0
 10
-4.5498
 20
6.624
 30
0.0
 10
-4.5498
 20
6.624
 30
0.0
 10
-4.5498
 20
6.624
 30
0.0
 10
-4.5498
 20
6.624
 30
0.0
 10
-10.7827
 20
6.624
 30
0.0
 10
-10.7827
 20
6.624
 30
0.0
  0
SPLINE
  5
AE
330
1F
100
AcDbEntity
  8
ROUND
 62
   250
100
AcDbSpline
210
0.0
220
0.0
230
1.0
 70
     8
 71
     3
 72
    88
 73
    84
 74
     0
 42
0.0000000001
 43
0.0000000001
 40
0.0
 40
0.0
 40
0.0
 40
0.0
 40
0.0454545454545455
 40
0.0454545454545455
 40
0.0454545454545455
 40
0.0454545454545455
 40
0.0909090909090909
 40
0.0909090909090909
 40
0.0909090909090909
 40
0.0909090909090909
 40
0.1363636363636364
 40
0.1363636363636364
 40
0.1363636363636364
 40
0.1363636363636364
 40
0.1818181818181818
 40
0.1818181818181818
 40
0.1818181818181818
 40
0.1818181818181818
 40
0.2272727272727273
 40
0.2272727272727273
 40
0.2272727272727273
 40
0.2272727272727273
 40
0.2727272727272727
 40
0.2727272727272727
 40
0.2727272727272727
 40
0.2727272727272727
 40
0.3181818181818182
 40
0.3181818181818182
 40
0.3181818181818182
 40
0.3181818181818182
 40
0.3636363636363636
 40
0.3636363636363636
 40
0.3636363636363636
 40
0.3636363636363636
 40
0.4090909090909091
 40
0.4090909090909091
 40
0.4090909090909091
 40
0.4090909090909091
 40
0.4545454545454545
 40
0.4545454545454545
 40
0.4545454545454545
 40
0.4545454545454545
 40
0.5
 40
0.5
 40
0.5
 40
0.5
 40
0.5454545454545454
 40
0.5454545454545454
 40
0.5454545454545454
 40
0.5454545454545454
 40
0.5909090909090909
 40
0.5909090909090909
 40
0.5909090909090909
 40
0.5909090909090909
 40
0.6363636363636364
 40
0.6363636363636364
 40
0.6363636363636364
 40
0.6363636363636364
 40
0.6818181818181818
 40
0.6818181818181818
 40
0.6818181818181818
 40
0.6818181818181818
 40
0.7272727272727273
 40
0.7272727272727273
 40
0.7272727272727273
 40
0.7272727272727273
 40
0.7727272727272727
 40
0.7727272727272727
 40
0.7727272727272727
 40
0.7727272727272727
 40
0.8181818181818182
 40
0.8181818181818182
 40
0.8181818181818182
 40
0.8181818181818182
 40
0.8636363636363636
 40
0.8636363636363636
 40
0.8636363636363636
 40
0.8636363636363636
 40
0.9090909090909091
 40
0.9090909090909091
 40
0.9090909090909091
 40
0.9090909090909091
 40
1.0
 40
1.0
 40
1.0
 40
1.0
 10
-11.5367
 20
2.3103
 30
0.0
 10
-11.5367
 20
2.3103
 30
0.0
 10
-11.2837
 20
2.3609
 30
0.0
 10
-11.2837
 20
2.3609
 30
0.0
 10
-11.2837
 20
2.3609
 30
0.0
 10
-11.2837
 20
2.3609
 30
0.0
 10
-11.1066
 20
2.3862
 30
0.0
 10
-11.1066
 20
2.3862
 30
0.0
 10
-11.1066
 20
2.3862
 30
0.0
 10
-11.1066
 20
2.3862
 30
0.0
 10
-10.9042
 20
2.5886
 30
0.0
 10
-10.9042
 20
2.5886
 30
0.0
 10
-10.9042
 20
2.5886
 30
0.0
 10
-10.9042
 20
2.5886
 30
0.0
 10
-10.7271
 20
2.8922
 30
0.0
 10
-10.7271
 20
2.8922
 30
0.0
 10
-10.7271
 20
2.8922
 30
0.0
 10
-10.7271
 20
2.8922
 30
0.0
 10
-10.7271
 20
6.6113
 30
0.0
 10
-10.7271
 20
6.6113
 30
0.0
 10
-10.7271
 20
6.6113
 30
0.0
 10
-10.7271
 20
6.6113
 30
0.0
 10
-10.7555
 20
6.624
 30
0.0
 10
-10.7555
 20
6.624
 30
0.0
 10
-10.7555
 20
6.624
 30
0.0
 10
-10.7555
 20
6.624
 30
0.0
 10
-11.6885
 20
7.0414
 30
0.0
 10
-11.6885
 20
7.0414
 30
0.0
 10
-11.6885
 20
7.0414
 30
0.0
 10
-11.6885
 20
7.0414
 30
0.0
 10
-11.6885
 20
7.0714
 30
0.0
 10
-11.6885
 20
7.0714
 30
0.0
 10
-11.6885
 20
7.0714
 30
0.0
 10
-11.6885
 20
7.0714
 30
0.0
 10
-11.6885
 20
11.8231
 30
0.0
 10
-11.6885
 20
11.8231
 30
0.0
 10
-11.6885
 20
11.8231
 30
0.0
 10
-11.6885
 20
11.8231
 30
0.0
 10
-11.6697
 20
11.8346
 30
0.0
 10
-11.6697
 20
11.8346
 30
0.0
 10
-11.6697
 20
11.8346
 30
0.0
 10
-11.6697
 20
11.8346
 30
0.0
 10
-10.7827
 20
12.3778
 30
0.0
 10
-10.7827
 20
12.3778
 30
0.0
 10
-10.7827
 20
12.3778
 30
0.0
 10
-10.7827
 20
12.3778
 30
0.0
 10
-4.5496
 20
12.3778
 30
0.0
 10
-4.5496
 20
12.3778
 30
0.0
 10
-4.5496
 20
12.3778
 30
0.0
 10
-4.5496
 20
12.3778
 30
0.0
 10
-3.5419
 20
11.8484
 30
0.0
 10
-3.5419
 20
11.8484
 30
0.0
 10
-3.5419
 20
11.8484
 30
0.0
 10
-3.5419
 20
11.8484
 30
0.0
 10
-3.5419
 20
7.1426
 30
0.0
 10
-3.5419
 20
7.1426
 30
0.0
 10
-3.5419
 20
7.1426
 30
0.0
 10
-3.5419
 20
7.1426
 30
0.0
 10
-3.6809
 20
7.0714
 30
0.0
 10
-3.6809
 20
7.0714
 30
0.0
 10
-3.6809
 20
7.0714
 30
0.0
 10
-3.6809
 20
7.0714
 30
0.0
 10
-4.5544
 20
6.624
 30
0.0
 10
-4.5544
 20
6.624
 30
0.0
 10
-4.5544
 20
6.624
 30
0.0
 10
-4.5544
 20
6.624
 30
0.0
 10
-4.5792
 20
6.6113
 30
0.0
 10
-4.5792
 20
6.6113
 30
0.0
 10
-4.5792
 20
6.6113
 30
0.0
 10
-4.5792
 20
6.6113
 30
0.0
 10
-4.5792
 20
2.8163
 30
0.0
 10
-4.5792
 20
2.8163
 30
0.0
 10
-4.5792
 20
2.8163
 30
0.0
 10
-4.5792
 20
2.8163
 30
0.0
 10
-4.3768
 20
2.4621
 30
0.0
 10
-4.3768
 20
2.4621
 30
0.0
 10
-4.3768
 20
2.4621
 30
0.0
 10
-4.3768
 20
2.4621
 30
0.0
 10
-4.0226
 20
2.3103
 30
0.0
 10
-4.0226
 20
2.3103
 30
0.0
 10
-4.0226
 20
2.3103
 30
0.0
 10
-4.0226
 20
2.3103
 30
0.0
 10
-3.7696
 20
2.3103
 30
0.0
 10
-3.7696
 20
2.3103
 30
0.0
  0
SPLINE
  5
AF
330
1F
100
AcDbEntity
  8
ROUND
 62
   250
100
AcDbSpline
210
0.0
220
0.0
230
1.0
 70
     8
 71
     3
 72
    28
 73
    24
 74
     0
 42
0.0000000001
 43
0.0000000001
 40
0.0
 40
0.0
 40
0.0
 40
0.0
 40
0.1428571428571428
 40
0.1428571428571428
 40
0.1428571428571428
 40
0.1428571428571428
 40
0.2857142857142857
 40
0.2857142857142857
 40
0.2857142857142857
 40
0.2857142857142857
 40
0.4285714285714285
 40
0.4285714285714285
 40
0.4285714285714285
 40
0.4285714285714285
 40
0.5714285714285714
 40
0.5714285714285714
 40
0.5714285714285714
 40
0.5714285714285714
 40
0.7142857142857143
 40
0.7142857142857143
 40
0.7142857142857143
 40
0.7142857142857143
 40
1.0
 40
1.0
 40
1.0
 40
1.0
 10
-25.8156
 20
2.3169
 30
0.0
 10
-25.8156
 20
2.3169
 30
0.0
 10
-25.8123
 20
14.5029
 30
0.0
 10
-25.8123
 20
14.5029
 30
0.0
 10
-25.8123
 20
14.5029
 30
0.0
 10
-25.8123
 20
14.6351
 30
0.0
 10
-25.7052
 20
14.7422
 30
0.0
 10
-25.5731
 20
14.7422
 30
0.0
 10
-25.5731
 20
14.7422
 30
0.0
 10
-25.5731
 20
14.7422
 30
0.0
 10
-22.1945
 20
14.7557
 30
0.0
 10
-22.1945
 20
14.7557
 30
0.0
 10
-22.1945
 20
14.7557
 30
0.0
 10
-22.1945
 20
14.7557
 30
0.0
 10
-22.023
 20
14.6416
 30
0.0
 10
-22.023
 20
14.6416
 30
0.0
 10
-22.023
 20
14.6416
 30
0.0
 10
-22.023
 20
14.6416
 30
0.0
 10
-21.9848
 20
14.4514
 30
0.0
 10
-21.9848
 20
14.4514
 30
0.0
 10
-21.9848
 20
14.4514
 30
0.0
 10
-21.9848
 20
14.4514
 30
0.0
 10
-21.9799
 20
2.288
 30
0.0
 10
-21.9799
 20
2.288
 30
0.0
  0
SPLINE
  5
B0
330
1F
100
AcDbEntity
  8
ROUND
 62
   250
100
AcDbSpline
210
0.0
220
0.0
230
1.0
 70
     8
 71
     3
 72
    32
 73
    28
 74
     0
 42
0.0000000001
 43
0.0000000001
 40
0.0
 40
0.0
 40
0.0
 40
0.0
 40
0.125
 40
0.125
 40
0.125
 40
0.125
 40
0.25
 40
0.25
 40
0.25
 40
0.25
 40
0.375
 40
0.375
 40
0.375
 40
0.375
 40
0.5
 40
0.5
 40
0.5
 40
0.5
 40
0.625
 40
0.625
 40
0.625
 40
0.625
 40
0.75
 40
0.75
 40
0.75
 40
0.75
 40
1.0
 40
1.0
 40
1.0
 40
1.0
 10
-25.8742
 20
2.3168
 30
0.0
 10
-25.8742
 20
2.3168
 30
0.0
 10
-25.4717
 20
2.1443
 30
0.0
 10
-25.4717
 20
2.1443
 30
0.0
 10
-25.4717
 20
2.1443
 30
0.0
 10
-25.4717
 20
2.1443
 30
0.0
 10
-24.6667
 20
1.9718
 30
0.0
 10
-24.6667
 20
1.9718
 30
0.0
 10
-24.6667
 20
1.9718
 30
0.0
 10
-24.6667
 20
1.9718
 30
0.0
 10
-23.9997
 20
1.9258
 30
0.0
 10
-23.9997
 20
1.9258
 30
0.0
 10
-23.9997
 20
1.9258
 30
0.0
 10
-23.9997
 20
1.9258
 30
0.0
 10
-23.4247
 20
1.9258
 30
0.0
 10
-23.4247
 20
1.9258
 30
0.0
 10
-23.4247
 20
1.9258
 30
0.0
 10
-23.4247
 20
1.9258
 30
0.0
 10
-22.7347
 20
1.9718
 30
0.0
 10
-22.7347
 20
1.9718
 30
0.0
 10
-22.7347
 20
1.9718
 30
0.0
 10
-22.7347
 20
1.9718
 30
0.0
 10
-22.0102
 20
2.1788
 30
0.0
 10
-22.0102
 20
2.1788
 30
0.0
 10
-22.0102
 20
2.1788
 30
0.0
 10
-22.0102
 20
2.1788
 30
0.0
 10
-21.9056
 20
2.3201
 30
0.0
 10
-21.9056
 20
2.3201
 30
0.0
  0
SPLINE
  5
B1
330
1F
100
AcDbEntity
  8
ROUND
 62
   250
100
AcDbSpline
210
0.0
220
0.0
230
1.0
 70
    24
 71
     3
 72
     8
 73
     4
 74
     0
 42
0.0000000001
 43
0.0000000001
 40
0.0
 40
0.0
 40
0.0
 40
0.0
 40
1.0
 40
1.0
 40
1.0
 40
1.0
 10
21.5522
 20
12.6879
 30
0.0
 10
21.5522
 20
12.6879
 30
0.0
 10
21.5522
 20
0.6139
 30
0.0
 10
21.5522
 20
0.6139
 30
0.0
  0
ENDSEC
  0
SECTION
  2
OBJECTS
  0
DICTIONARY
  5
C
330
0
100
AcDbDictionary
  3
ACAD_GROUP
350
D
  3
ACAD_LAYOUT
350
1A
  3
ACAD_MATERIAL
350
3B
  3
ACAD_MLEADERSTYLE
350
D4
  3
ACAD_MLINESTYLE
350
17
  3
ACAD_PLOTSETTINGS
350
19
  3
ACAD_VISUALSTYLE
350
2A
  3
ACDBHEADERROUNDTRIPXREC
350
B2
  3
ACDBVARIABLEDICTIONARY
350
D2
  0
DICTIONARY
  5
D
102
{ACAD_REACTORS
330
C
102
}
330
C
100
AcDbDictionary
  0
DICTIONARY
  5
1A
102
{ACAD_REACTORS
330
C
102
}
330
C
100
AcDbDictionary
  0
DICTIONARY
  5
3B
102
{ACAD_REACTORS
330
C
102
}
330
C
100
AcDbDictionary
  3
BYBLOCK
350
3D
  3
BYLAYER
350
3C
  3
GLOBAL
350
3E
  0
DICTIONARY
  5
D4
102
{ACAD_REACTORS
330
C
102
}
330
C
100
AcDbDictionary
  0
DICTIONARY
  5
17
102
{ACAD_REACTORS
330
C
102
}
330
C
100
AcDbDictionary
  3
STANDARD
350
18
  0
DICTIONARY
  5
19
102
{ACAD_REACTORS
330
C
102
}
330
C
100
AcDbDictionary
  0
DICTIONARY
  5
2A
102
{ACAD_REACTORS
330
C
102
}
330
C
100
AcDbDictionary
  3
2DWIREFRAME
350
2F
  3
3D_HIDDEN
350
31
  3
3DWIREFRAME
350
30
  3
BASIC
350
32
  3
BRIGHTEN
350
36
  3
COLORCHANGE
350
3A
  3
CONCEPTUAL
350
34
  3
DIM
350
35
  3
FACEPATTERN
350
39
  3
FLAT
350
2B
  3
FLATWITHEDGES
350
2C
  3
GOURAUD
350
2D
  3
GOURAUDWITHEDGES
350
2E
  3
LINEPATTERN
350
38
  3
REALISTIC
350
33
  3
THICKEN
350
37
  0
DICTIONARY
  5
B2
102
{ACAD_REACTORS
330
C
102
}
330
C
100
AcDbDictionary
  3
CEPSNTYPE
350
BB
  3
DIMSTYLEDATA
350
D1
  3
FINGERPRINTGUID
350
BC
  3
HYPERLINKBASE
350
B5
  3
INSUNITS
350
BA
  3
LAYOUTDICT
350
B7
  3
LWETCUNION
350
B9
  3
PLOTSETDICT
350
B8
  3
PSVPSCALE
350
BE
  3
PUCSBASE
350
C1
  3
PUCSORGBACK
350
C7
  3
PUCSORGBOTTOM
350
C3
  3
PUCSORGFRONT
350
C6
  3
PUCSORGLEFT
350
C4
  3
PUCSORGRIGHT
350
C5
  3
PUCSORGTOP
350
C2
  3
PUCSORTHOREF
350
BF
  3
PUCSORTHOVIEW
350
C0
  3
STYLESHEET
350
B6
  3
TSTACKALIGN
350
B3
  3
TSTACKSIZE
350
B4
  3
UCSBASE
350
CA
  3
UCSORGBACK
350
D0
  3
UCSORGBOTTOM
350
CC
  3
UCSORGFRONT
350
CF
  3
UCSORGLEFT
350
CD
  3
UCSORGRIGHT
350
CE
  3
UCSORGTOP
350
CB
  3
UCSORTHOREF
350
C8
  3
UCSORTHOVIEW
350
C9
  3
VERSIONGUID
350
BD
  0
DICTIONARY
  5
D2
102
{ACAD_REACTORS
330
C
102
}
330
C
100
AcDbDictionary
  3
DIMASSOC
350
D5
  3
HIDETEXT
350
D6
  0
MATERIAL
  5
3D
102
{ACAD_REACTORS
330
3B
102
}
102
{ACAD_XDICTIONARY
360
D9
102
}
330
3B
100
AcDbMaterial
  1
ByBlock
  0
MATERIAL
  5
3C
102
{ACAD_REACTORS
330
3B
102
}
102
{ACAD_XDICTIONARY
360
D7
102
}
330
3B
100
AcDbMaterial
  1
ByLayer
  0
MATERIAL
  5
3E
102
{ACAD_REACTORS
330
3B
102
}
102
{ACAD_XDICTIONARY
360
DB
102
}
330
3B
100
AcDbMaterial
  1
Global
  0
MLINESTYLE
  5
18
102
{ACAD_REACTORS
330
17
102
}
330
17
100
AcDbMlineStyle
  2
Standard
 70
     0
  3

 62
   256
 51
90.0
 52
90.0
 71
     2
 49
0.5
 62
   256
  6
BYLAYER
 49
-0.5
 62
   256
  6
BYLAYER
  0
ACAD_PROXY_OBJECT
  5
2F
102
{ACAD_REACTORS
330
2A
102
}
330
2A
100
AcDbProxyObject
 90
      499
 91
      501
 93
      436
310
42CC9915DA5C99599C985B595049028333333333333E3BF0000000000000FB0107901411070040501600405405064090741402480A0340
1001
ACAD
1000
AcDbSavedByObjectVersion
1070
     0
  0
ACAD_PROXY_OBJECT
  5
31
102
{ACAD_REACTORS
330
2A
102
}
330
2A
100
AcDbProxyObject
 90
      499
 91
      501
 93
      500
310
424CD108121A5919195B90640502408333333333333E3BF0000000000000FB01079024090700405020000000000001110200405405064090740C02480A0340
1001
ACAD
1000
AcDbSavedByObjectVersion
1070
     0
  0
ACAD_PROXY_OBJECT
  5
30
102
{ACAD_REACTORS
330
2A
102
}
330
2A
100
AcDbProxyObject
 90
      499
 91
      501
 93
      436
310
42CCD915DA5C99599C985B595059028333333333333E3BF0000000000000FB0107901411070040501600405405064090741402480A0340
1001
ACAD
1000
AcDbSavedByObjectVersion
1070
     0
  0
ACAD_PROXY_OBJECT
  5
32
102
{ACAD_REACTORS
330
2A
102
}
330
2A
100
AcDbProxyObject
 90
      499
 91
      501
 93
      388
310
4150985CDA58D07406404333333333333E3BF0000000000000FB0107A41107004050150841D405064090741402480A0350
1001
ACAD
1000
AcDbSavedByObjectVersion
1070
     0
  0
ACAD_PROXY_OBJECT
  5
36
102
{ACAD_REACTORS
330
2A
102
}
330
2A
100
AcDbProxyObject
 90
      499
 91
      501
 93
      428
310
42109C9A59DA1D195B90C409028333333333333E3BF0000000000000FB010790141107004050150841D405064090741402480A029950
1001
ACAD
1000
AcDbSavedByObjectVersion
1070
     0
  0
ACAD_PROXY_OBJECT
  5
3A
102
{ACAD_REACTORS
330
2A
102
}
330
2A
100
AcDbProxyObject
 90
      499
 91
      501
 93
      452
310
42D0DBDB1BDC90DA185B99D95104090240C333333333333E3BF0000000000000FB0108901411070040501508421405064090741402480A0350
1001
ACAD
1000
AcDbSavedByObjectVersion
1070
     0
  0
ACAD_PROXY_OBJECT
  5
34
102
{ACAD_REACTORS
330
2A
102
}
330
2A
100
AcDbProxyObject
 90
      499
 91
      501
 93
      500
310
4290DBDB98D95C1D1D585B10940D028333333333333E3BF0000000000000FB0107902409070040501000000000000111010841D405064090740C02480A0340
1001
ACAD
1000
AcDbSavedByObjectVersion
1070
     0
  0
ACAD_PROXY_OBJECT
  5
35
102
{ACAD_REACTORS
330
2A
102
}
330
2A
100
AcDbProxyObject
 90
      499
 91
      501
 93
      412
310
40D11A5B50B409028333333333333E3BF0000000000000FB010790141107004050150841D405064090741402480A02677FFFFFD0
1001
ACAD
1000
AcDbSavedByObjectVersion
1070
     0
  0
ACAD_PROXY_OBJECT
  5
39
102
{ACAD_REACTORS
330
2A
102
}
330
2A
100
AcDbProxyObject
 90
      499
 91
      501
 93
      444
310
42D19858D95C185D1D195C9B90F409028333333333333E3BF0000000000000FB010790141107004050150841D405064090741402480A0350
1001
ACAD
1000
AcDbSavedByObjectVersion
1070
     0
  0
ACAD_PROXY_OBJECT
  5
2B
102
{ACAD_REACTORS
330
2A
102
}
330
2A
100
AcDbProxyObject
 90
      499
 91
      501
 93
      388
310
41119B185D240901404333333333333E3BF0000000000000F9010740A41107004050150841D405064090741402480A1B50
1001
ACAD
1000
AcDbSavedByObjectVersion
1070
     0
  0
ACAD_PROXY_OBJECT
  5
2C
102
{ACAD_REACTORS
330
2A
102
}
330
2A
100
AcDbProxyObject
 90
      499
 91
      501
 93
      476
310
43519B185D15DA5D1A115919D95CD0140901404333333333333E3BF0000000000000F9010740901411070040501600405405064090741402480A1B50
1001
ACAD
1000
AcDbSavedByObjectVersion
1070
     0
  0
ACAD_PROXY_OBJECT
  5
2D
102
{ACAD_REACTORS
330
2A
102
}
330
2A
100
AcDbProxyObject
 90
      499
 91
      501
 93
      412
310
41D1DBDD5C985D5910240902404333333333333E3BF0000000000000F9010740A411070040501641D405064090741402480A1B50
1001
ACAD
1000
AcDbSavedByObjectVersion
1070
     0
  0
ACAD_PROXY_OBJECT
  5
2E
102
{ACAD_REACTORS
330
2A
102
}
330
2A
100
AcDbProxyObject
 90
      499
 91
      501
 93
      500
310
4411DBDD5C985D5915DA5D1A115919D95CD0340902404333333333333E3BF0000000000000F9010740901411070040501600405405064090741402480A1B50
1001
ACAD
1000
AcDbSavedByObjectVersion
1070
     0
  0
ACAD_PROXY_OBJECT
  5
38
102
{ACAD_REACTORS
330
2A
102
}
330
2A
100
AcDbProxyObject
 90
      499
 91
      501
 93
      444
310
42D31A5B995C185D1D195C9B90E409028333333333333E3BF0000000000000FB010790141107004050750841D405064090741402483A0350
1001
ACAD
1000
AcDbSavedByObjectVersion
1070
     0
  0
ACAD_PROXY_OBJECT
  5
33
102
{ACAD_REACTORS
330
2A
102
}
330
2A
100
AcDbProxyObject
 90
      499
 91
      501
 93
      420
310
425499585B1A5CDD1A58D08409028333333333333E3BF0000000000000FB01079019070040501508421405064090741402480A1B40
1001
ACAD
1000
AcDbSavedByObjectVersion
1070
     0
  0
ACAD_PROXY_OBJECT
  5
37
102
{ACAD_REACTORS
330
2A
102
}
330
2A
100
AcDbProxyObject
 90
      499
 91
      501
 93
      412
310
41D51A1A58DAD95B90D409028333333333333E3BF0000000000000FB010790141107004050150C41D405064090741402480A0350
1001
ACAD
1000
AcDbSavedByObjectVersion
1070
     0
  0
XRECORD
  5
BB
102
{ACAD_REACTORS
330
B2
102
}
330
B2
100
AcDbXrecord
 90
        0
  0
XRECORD
  5
D1
102
{ACAD_REACTORS
330
B2
102
}
330
B2
100
AcDbXrecord
1000
DSTYLE
1002
{
1070
   340
340
11
1002
}
  0
XRECORD
  5
BC
102
{ACAD_REACTORS
330
B2
102
}
330
B2
100
AcDbXrecord
  1
{2358EB3C-2F6D-4C85-8EBE-87182298A0AD}
  0
XRECORD
  5
B5
102
{ACAD_REACTORS
330
B2
102
}
330
B2
100
AcDbXrecord
  1

  0
XRECORD
  5
BA
102
{ACAD_REACTORS
330
B2
102
}
330
B2
100
AcDbXrecord
 90
        4
  0
XRECORD
  5
B7
102
{ACAD_REACTORS
330
B2
102
}
330
B2
100
AcDbXrecord
340
1A
  0
XRECORD
  5
B9
102
{ACAD_REACTORS
330
B2
102
}
330
B2
100
AcDbXrecord
 90
    10781
  0
XRECORD
  5
B8
102
{ACAD_REACTORS
330
B2
102
}
330
B2
100
AcDbXrecord
340
19
  0
XRECORD
  5
BE
102
{ACAD_REACTORS
330
B2
102
}
330
B2
100
AcDbXrecord
 40
0.0
  0
XRECORD
  5
C1
102
{ACAD_REACTORS
330
B2
102
}
330
B2
100
AcDbXrecord
340
0
  0
XRECORD
  5
C7
102
{ACAD_REACTORS
330
B2
102
}
330
B2
100
AcDbXrecord
 10
0.0
 20
0.0
 30
0.0
  0
XRECORD
  5
C3
102
{ACAD_REACTORS
330
B2
102
}
330
B2
100
AcDbXrecord
 10
0.0
 20
0.0
 30
0.0
  0
XRECORD
  5
C6
102
{ACAD_REACTORS
330
B2
102
}
330
B2
100
AcDbXrecord
 10
0.0
 20
0.0
 30
0.0
  0
XRECORD
  5
C4
102
{ACAD_REACTORS
330
B2
102
}
330
B2
100
AcDbXrecord
 10
0.0
 20
0.0
 30
0.0
  0
XRECORD
  5
C5
102
{ACAD_REACTORS
330
B2
102
}
330
B2
100
AcDbXrecord
 10
0.0
 20
0.0
 30
0.0
  0
XRECORD
  5
C2
102
{ACAD_REACTORS
330
B2
102
}
330
B2
100
AcDbXrecord
 10
0.0
 20
0.0
 30
0.0
  0
XRECORD
  5
BF
102
{ACAD_REACTORS
330
B2
102
}
330
B2
100
AcDbXrecord
340
0
  0
XRECORD
  5
C0
102
{ACAD_REACTORS
330
B2
102
}
330
B2
100
AcDbXrecord
 70
     0
  0
XRECORD
  5
B6
102
{ACAD_REACTORS
330
B2
102
}
330
B2
100
AcDbXrecord
  1

  0
XRECORD
  5
B3
102
{ACAD_REACTORS
330
B2
102
}
330
B2
100
AcDbXrecord
 90
        1
  0
XRECORD
  5
B4
102
{ACAD_REACTORS
330
B2
102
}
330
B2
100
AcDbXrecord
 90
       70
  0
XRECORD
  5
CA
102
{ACAD_REACTORS
330
B2
102
}
330
B2
100
AcDbXrecord
340
0
  0
XRECORD
  5
D0
102
{ACAD_REACTORS
330
B2
102
}
330
B2
100
AcDbXrecord
 10
0.0
 20
0.0
 30
0.0
  0
XRECORD
  5
CC
102
{ACAD_REACTORS
330
B2
102
}
330
B2
100
AcDbXrecord
 10
0.0
 20
0.0
 30
0.0
  0
XRECORD
  5
CF
102
{ACAD_REACTORS
330
B2
102
}
330
B2
100
AcDbXrecord
 10
0.0
 20
0.0
 30
0.0
  0
XRECORD
  5
CD
102
{ACAD_REACTORS
330
B2
102
}
330
B2
100
AcDbXrecord
 10
0.0
 20
0.0
 30
0.0
  0
XRECORD
  5
CE
102
{ACAD_REACTORS
330
B2
102
}
330
B2
100
AcDbXrecord
 10
0.0
 20
0.0
 30
0.0
  0
XRECORD
  5
CB
102
{ACAD_REACTORS
330
B2
102
}
330
B2
100
AcDbXrecord
 10
0.0
 20
0.0
 30
0.0
  0
XRECORD
  5
C8
102
{ACAD_REACTORS
330
B2
102
}
330
B2
100
AcDbXrecord
340
0
  0
XRECORD
  5
C9
102
{ACAD_REACTORS
330
B2
102
}
330
B2
100
AcDbXrecord
 70
     0
  0
XRECORD
  5
BD
102
{ACAD_REACTORS
330
B2
102
}
330
B2
100
AcDbXrecord
  1
{FAEB1C32-E019-11D5-929B-00C0DF256EC4}
  0
DICTIONARYVAR
  5
D5
102
{ACAD_REACTORS
330
D2
102
}
330
D2
100
DictionaryVariables
280
     0
  1
2
  0
DICTIONARYVAR
  5
D6
102
{ACAD_REACTORS
330
D2
102
}
330
D2
100
DictionaryVariables
280
     0
  1
1
  0
DICTIONARY
  5
D9
330
3D
100
AcDbDictionary
280
     1
  3
ACAD_XREC_ROUNDTRIP
360
DA
  0
DICTIONARY
  5
D7
330
3C
100
AcDbDictionary
280
     1
  3
ACAD_XREC_ROUNDTRIP
360
D8
  0
DICTIONARY
  5
DB
330
3E
100
AcDbDictionary
280
     1
  3
ACAD_XREC_ROUNDTRIP
360
DC
  0
XRECORD
  5
DA
102
{ACAD_REACTORS
330
D9
102
}
330
D9
100
AcDbXrecord
102
MATERIAL
148
0.0
149
0.0
149
0.0
 93
        0
 94
      127
282
     0
 72
     1
 77
     1
171
     1
175
     1
179
     1
273
     0
  0
XRECORD
  5
D8
102
{ACAD_REACTORS
330
D7
102
}
330
D7
100
AcDbXrecord
102
MATERIAL
148
0.0
149
0.0
149
0.0
 93
        0
 94
      127
282
     0
 72
     1
 77
     1
171
     1
175
     1
179
     1
273
     0
  0
XRECORD
  5
DC
102
{ACAD_REACTORS
330
DB
102
}
330
DB
100
AcDbXrecord
102
MATERIAL
148
0.0
149
0.0
149
0.0
 93
        0
 94
      127
282
     0
 72
     1
 77
     1
171
     1
175
     1
179
     1
273
     0
  0
ENDSEC
  0
EOF
