  0
SECTION
  2
HEADER
  9
$ACADVER
  1
AC1015
  9
$ACADMAINTVER
 70
     6
  9
$DWGCODEPAGE
  3
ANSI_1250
  9
$INSBASE
 10
0.0
 20
0.0
 30
0.0
  9
$EXTMIN
 10
-73.0882
 20
-14.8038
 30
0.0
  9
$EXTMAX
 10
73.0646
 20
14.7282
 30
0.0
  9
$LIMMIN
 10
0.0
 20
0.0
  9
$LIMMAX
 10
12.0
 20
9.0
  9
$ORTHOMODE
 70
     0
  9
$REGENMODE
 70
     1
  9
$FILLMODE
 70
     1
  9
$QTEXTMODE
 70
     0
  9
$MIRRTEXT
 70
     1
  9
$LTSCALE
 40
1.0
  9
$ATTMODE
 70
     1
  9
$TEXTSIZE
 40
0.2
  9
$TRACEWID
 40
0.05
  9
$TEXTSTYLE
  7
Standard
  9
$CLAYER
  8
0
  9
$CELTYPE
  6
ByLayer
  9
$CECOLOR
 62
   256
  9
$CELTSCALE
 40
1.0
  9
$DISPSILH
 70
     0
  9
$DIMSCALE
 40
1.0
  9
$DIMASZ
 40
0.18
  9
$DIMEXO
 40
0.0625
  9
$DIMDLI
 40
0.38
  9
$DIMRND
 40
0.0
  9
$DIMDLE
 40
0.0
  9
$DIMEXE
 40
0.18
  9
$DIMTP
 40
0.0
  9
$DIMTM
 40
0.0
  9
$DIMTXT
 40
0.18
  9
$DIMCEN
 40
0.09
  9
$DIMTSZ
 40
0.0
  9
$DIMTOL
 70
     0
  9
$DIMLIM
 70
     0
  9
$DIMTIH
 70
     1
  9
$DIMTOH
 70
     1
  9
$DIMSE1
 70
     0
  9
$DIMSE2
 70
     0
  9
$DIMTAD
 70
     0
  9
$DIMZIN
 70
     0
  9
$DIMBLK
  1

  9
$DIMASO
 70
     1
  9
$DIMSHO
 70
     1
  9
$DIMPOST
  1

  9
$DIMAPOST
  1

  9
$DIMALT
 70
     0
  9
$DIMALTD
 70
     2
  9
$DIMALTF
 40
25.4
  9
$DIMLFAC
 40
1.0
  9
$DIMTOFL
 70
     0
  9
$DIMTVP
 40
0.0
  9
$DIMTIX
 70
     0
  9
$DIMSOXD
 70
     0
  9
$DIMSAH
 70
     0
  9
$DIMBLK1
  1

  9
$DIMBLK2
  1

  9
$DIMSTYLE
  2
Standard
  9
$DIMCLRD
 70
     0
  9
$DIMCLRE
 70
     0
  9
$DIMCLRT
 70
     0
  9
$DIMTFAC
 40
1.0
  9
$DIMGAP
 40
0.09
  9
$DIMJUST
 70
     0
  9
$DIMSD1
 70
     0
  9
$DIMSD2
 70
     0
  9
$DIMTOLJ
 70
     1
  9
$DIMTZIN
 70
     0
  9
$DIMALTZ
 70
     0
  9
$DIMALTTZ
 70
     0
  9
$DIMUPT
 70
     0
  9
$DIMDEC
 70
     4
  9
$DIMTDEC
 70
     4
  9
$DIMALTU
 70
     2
  9
$DIMALTTD
 70
     2
  9
$DIMTXSTY
  7
Standard
  9
$DIMAUNIT
 70
     0
  9
$DIMADEC
 70
     0
  9
$DIMALTRND
 40
0.0
  9
$DIMAZIN
 70
     0
  9
$DIMDSEP
 70
    46
  9
$DIMATFIT
 70
     3
  9
$DIMFRAC
 70
     0
  9
$DIMLDRBLK
  1

  9
$DIMLUNIT
 70
     2
  9
$DIMLWD
 70
    -2
  9
$DIMLWE
 70
    -2
  9
$DIMTMOVE
 70
     0
  9
$LUNITS
 70
     2
  9
$LUPREC
 70
     4
  9
$SKETCHINC
 40
0.1
  9
$FILLETRAD
 40
0.5
  9
$AUNITS
 70
     0
  9
$AUPREC
 70
     0
  9
$MENU
  1
.
  9
$ELEVATION
 40
0.0
  9
$PELEVATION
 40
0.0
  9
$THICKNESS
 40
0.0
  9
$LIMCHECK
 70
     0
  9
$CHAMFERA
 40
0.5
  9
$CHAMFERB
 40
0.5
  9
$CHAMFERC
 40
1.0
  9
$CHAMFERD
 40
0.0
  9
$SKPOLY
 70
     0
  9
$TDCREATE
 40
2457637.401874328
  9
$TDUCREATE
 40
2457637.318540995
  9
$TDUPDATE
 40
2457637.40187434
  9
$TDUUPDATE
 40
2457637.318541007
  9
$TDINDWG
 40
0.0000000116
  9
$TDUSRTIMER
 40
0.0000000116
  9
$USRTIMER
 70
     1
  9
$ANGBASE
 50
0.0
  9
$ANGDIR
 70
     0
  9
$PDMODE
 70
     0
  9
$PDSIZE
 40
0.0
  9
$PLINEWID
 40
0.0
  9
$SPLFRAME
 70
     0
  9
$SPLINETYPE
 70
     6
  9
$SPLINESEGS
 70
     8
  9
$HANDSEED
  5
171
  9
$SURFTAB1
 70
     6
  9
$SURFTAB2
 70
     6
  9
$SURFTYPE
 70
     6
  9
$SURFU
 70
     6
  9
$SURFV
 70
     6
  9
$UCSBASE
  2

  9
$UCSNAME
  2

  9
$UCSORG
 10
0.0
 20
0.0
 30
0.0
  9
$UCSXDIR
 10
1.0
 20
0.0
 30
0.0
  9
$UCSYDIR
 10
0.0
 20
1.0
 30
0.0
  9
$UCSORTHOREF
  2

  9
$UCSORTHOVIEW
 70
     0
  9
$UCSORGTOP
 10
0.0
 20
0.0
 30
0.0
  9
$UCSORGBOTTOM
 10
0.0
 20
0.0
 30
0.0
  9
$UCSORGLEFT
 10
0.0
 20
0.0
 30
0.0
  9
$UCSORGRIGHT
 10
0.0
 20
0.0
 30
0.0
  9
$UCSORGFRONT
 10
0.0
 20
0.0
 30
0.0
  9
$UCSORGBACK
 10
0.0
 20
0.0
 30
0.0
  9
$PUCSBASE
  2

  9
$PUCSNAME
  2

  9
$PUCSORG
 10
0.0
 20
0.0
 30
0.0
  9
$PUCSXDIR
 10
1.0
 20
0.0
 30
0.0
  9
$PUCSYDIR
 10
0.0
 20
1.0
 30
0.0
  9
$PUCSORTHOREF
  2

  9
$PUCSORTHOVIEW
 70
     0
  9
$PUCSORGTOP
 10
0.0
 20
0.0
 30
0.0
  9
$PUCSORGBOTTOM
 10
0.0
 20
0.0
 30
0.0
  9
$PUCSORGLEFT
 10
0.0
 20
0.0
 30
0.0
  9
$PUCSORGRIGHT
 10
0.0
 20
0.0
 30
0.0
  9
$PUCSORGFRONT
 10
0.0
 20
0.0
 30
0.0
  9
$PUCSORGBACK
 10
0.0
 20
0.0
 30
0.0
  9
$USERI1
 70
     0
  9
$USERI2
 70
     0
  9
$USERI3
 70
     0
  9
$USERI4
 70
     0
  9
$USERI5
 70
     0
  9
$USERR1
 40
0.0
  9
$USERR2
 40
0.0
  9
$USERR3
 40
0.0
  9
$USERR4
 40
0.0
  9
$USERR5
 40
0.0
  9
$WORLDVIEW
 70
     1
  9
$SHADEDGE
 70
     3
  9
$SHADEDIF
 70
    70
  9
$TILEMODE
 70
     1
  9
$MAXACTVP
 70
    64
  9
$PINSBASE
 10
0.0
 20
0.0
 30
0.0
  9
$PLIMCHECK
 70
     0
  9
$PEXTMIN
 10
1.000000000000000E+20
 20
1.000000000000000E+20
 30
1.000000000000000E+20
  9
$PEXTMAX
 10
-1.000000000000000E+20
 20
-1.000000000000000E+20
 30
-1.000000000000000E+20
  9
$PLIMMIN
 10
0.0
 20
0.0
  9
$PLIMMAX
 10
12.0
 20
9.0
  9
$UNITMODE
 70
     0
  9
$VISRETAIN
 70
     1
  9
$PLINEGEN
 70
     0
  9
$PSLTSCALE
 70
     1
  9
$TREEDEPTH
 70
  3020
  9
$CMLSTYLE
  2
Standard
  9
$CMLJUST
 70
     0
  9
$CMLSCALE
 40
1.0
  9
$PROXYGRAPHICS
 70
     1
  9
$MEASUREMENT
 70
     0
  9
$CELWEIGHT
370
    -1
  9
$ENDCAPS
280
     0
  9
$JOINSTYLE
280
     0
  9
$LWDISPLAY
290
     0
  9
$INSUNITS
 70
     4
  9
$HYPERLINKBASE
  1

  9
$STYLESHEET
  1

  9
$XEDIT
290
     1
  9
$CEPSNTYPE
380
     0
  9
$PSTYLEMODE
290
     1
  9
$FINGERPRINTGUID
  2
{C958D1D6-075F-44D8-B053-8A1CA30A5A37}
  9
$VERSIONGUID
  2
{FAEB1C32-E019-11D5-929B-00C0DF256EC4}
  9
$EXTNAMES
290
     1
  9
$PSVPSCALE
 40
0.0
  9
$OLESTARTUP
290
     0
  0
ENDSEC
  0
SECTION
  2
CLASSES
  0
CLASS
  1
ACDBDICTIONARYWDFLT
  2
AcDbDictionaryWithDefault
  3
ObjectDBX Classes
 90
        0
280
     0
281
     0
  0
CLASS
  1
VISUALSTYLE
  2
AcDbVisualStyle
  3
ObjectDBX Classes
 90
     4095
280
     0
281
     0
  0
CLASS
  1
MATERIAL
  2
AcDbMaterial
  3
ObjectDBX Classes
 90
     1153
280
     0
281
     0
  0
CLASS
  1
DICTIONARYVAR
  2
AcDbDictionaryVar
  3
ObjectDBX Classes
 90
        0
280
     0
281
     0
  0
CLASS
  1
ACDBPLACEHOLDER
  2
AcDbPlaceHolder
  3
ObjectDBX Classes
 90
        0
280
     0
281
     0
  0
CLASS
  1
LAYOUT
  2
AcDbLayout
  3
ObjectDBX Classes
 90
        0
280
     0
281
     0
  0
ENDSEC
  0
SECTION
  2
TABLES
  0
TABLE
  2
VPORT
  5
8
330
0
100
AcDbSymbolTable
 70
     1
  0
VPORT
  5
29
330
8
100
AcDbSymbolTableRecord
100
AcDbViewportTableRecord
  2
*Active
 70
     0
 10
0.0
 20
0.0
 11
1.0
 21
1.0
 12
10.42990654205607
 22
4.5
 13
0.0
 23
0.0
 14
0.5
 24
0.5
 15
0.5
 25
0.5
 16
0.0
 26
0.0
 36
1.0
 17
0.0
 27
0.0
 37
0.0
 40
9.0
 41
1.972972972850329
 42
50.0
 43
0.0
 44
0.0
 50
0.0
 51
0.0
 71
     0
 72
   100
 73
     1
 74
     3
 75
     0
 76
     0
 77
     0
 78
     0
281
     0
 65
     1
110
0.0
120
0.0
130
0.0
111
1.0
121
0.0
131
0.0
112
0.0
122
1.0
132
0.0
 79
     0
146
0.0
  0
ENDTAB
  0
TABLE
  2
LTYPE
  5
5
330
0
100
AcDbSymbolTable
 70
     1
  0
LTYPE
  5
14
330
5
100
AcDbSymbolTableRecord
100
AcDbLinetypeTableRecord
  2
ByBlock
 70
     0
  3

 72
    65
 73
     0
 40
0.0
  0
LTYPE
  5
15
330
5
100
AcDbSymbolTableRecord
100
AcDbLinetypeTableRecord
  2
ByLayer
 70
     0
  3

 72
    65
 73
     0
 40
0.0
  0
LTYPE
  5
16
330
5
100
AcDbSymbolTableRecord
100
AcDbLinetypeTableRecord
  2
Continuous
 70
     0
  3
Solid line
 72
    65
 73
     0
 40
0.0
  0
ENDTAB
  0
TABLE
  2
LAYER
  5
2
330
0
100
AcDbSymbolTable
 70
     2
  0
LAYER
  5
10
330
2
100
AcDbSymbolTableRecord
100
AcDbLayerTableRecord
  2
0
 70
     0
 62
     7
  6
Continuous
370
    -3
390
F
  0
LAYER
  5
40
330
2
100
AcDbSymbolTableRecord
100
AcDbLayerTableRecord
  2
Ilustrace
 70
     0
 62
     7
  6
Continuous
370
    -3
390
F
  0
ENDTAB
  0
TABLE
  2
STYLE
  5
3
330
0
100
AcDbSymbolTable
 70
     1
  0
STYLE
  5
11
330
3
100
AcDbSymbolTableRecord
100
AcDbTextStyleTableRecord
  2
Standard
 70
     0
 40
0.0
 41
1.0
 50
0.0
 71
     0
 42
0.2
  3
txt
  4

  0
ENDTAB
  0
TABLE
  2
VIEW
  5
6
330
0
100
AcDbSymbolTable
 70
     0
  0
ENDTAB
  0
TABLE
  2
UCS
  5
7
330
0
100
AcDbSymbolTable
 70
     0
  0
ENDTAB
  0
TABLE
  2
APPID
  5
9
330
0
100
AcDbSymbolTable
 70
     2
  0
APPID
  5
12
330
9
100
AcDbSymbolTableRecord
100
AcDbRegAppTableRecord
  2
ACAD
 70
     0
  0
APPID
  5
3F
330
9
100
AcDbSymbolTableRecord
100
AcDbRegAppTableRecord
  2
ODA
 70
     0
  0
ENDTAB
  0
TABLE
  2
DIMSTYLE
  5
A
330
0
100
AcDbSymbolTable
 70
     1
100
AcDbDimStyleTable
  0
DIMSTYLE
105
27
330
A
100
AcDbSymbolTableRecord
100
AcDbDimStyleTableRecord
  2
Standard
 70
     0
340
11
  0
ENDTAB
  0
TABLE
  2
BLOCK_RECORD
  5
1
330
0
100
AcDbSymbolTable
 70
     1
  0
BLOCK_RECORD
  5
1F
330
1
100
AcDbSymbolTableRecord
100
AcDbBlockTableRecord
  2
*Model_Space
340
22
  0
BLOCK_RECORD
  5
1B
330
1
100
AcDbSymbolTableRecord
100
AcDbBlockTableRecord
  2
*Paper_Space
340
1E
  0
BLOCK_RECORD
  5
23
330
1
100
AcDbSymbolTableRecord
100
AcDbBlockTableRecord
  2
*Paper_Space0
340
26
  0
ENDTAB
  0
ENDSEC
  0
SECTION
  2
BLOCKS
  0
BLOCK
  5
20
330
1F
100
AcDbEntity
  8
0
100
AcDbBlockBegin
  2
*Model_Space
 70
     0
 10
0.0
 20
0.0
 30
0.0
  3
*Model_Space
  1

  0
ENDBLK
  5
21
330
1F
100
AcDbEntity
  8
0
100
AcDbBlockEnd
  0
BLOCK
  5
1C
330
1B
100
AcDbEntity
 67
     1
  8
0
100
AcDbBlockBegin
  2
*Paper_Space
 70
     0
 10
0.0
 20
0.0
 30
0.0
  3
*Paper_Space
  1

  0
ENDBLK
  5
1D
330
1B
100
AcDbEntity
 67
     1
  8
0
100
AcDbBlockEnd
  0
BLOCK
  5
24
330
23
100
AcDbEntity
  8
0
100
AcDbBlockBegin
  2
*Paper_Space0
 70
     0
 10
0.0
 20
0.0
 30
0.0
  3
*Paper_Space0
  1

  0
ENDBLK
  5
25
330
23
100
AcDbEntity
  8
0
100
AcDbBlockEnd
  0
ENDSEC
  0
SECTION
  2
ENTITIES
  0
SPLINE
  5
41
330
1F
100
AcDbEntity
  8
Ilustrace
 62
   254
100
AcDbSpline
210
0.0
220
0.0
230
1.0
 70
    11
 71
     3
 72
   116
 73
   112
 74
     0
 42
0.0000000001
 43
0.0000000001
 40
0.0
 40
0.0
 40
0.0
 40
0.0
 40
0.0344827586206897
 40
0.0344827586206897
 40
0.0344827586206897
 40
0.0344827586206897
 40
0.0689655172413793
 40
0.0689655172413793
 40
0.0689655172413793
 40
0.0689655172413793
 40
0.103448275862069
 40
0.103448275862069
 40
0.103448275862069
 40
0.103448275862069
 40
0.1379310344827586
 40
0.1379310344827586
 40
0.1379310344827586
 40
0.1379310344827586
 40
0.1724137931034483
 40
0.1724137931034483
 40
0.1724137931034483
 40
0.1724137931034483
 40
0.2068965517241379
 40
0.2068965517241379
 40
0.2068965517241379
 40
0.2068965517241379
 40
0.2413793103448276
 40
0.2413793103448276
 40
0.2413793103448276
 40
0.2413793103448276
 40
0.2758620689655172
 40
0.2758620689655172
 40
0.2758620689655172
 40
0.2758620689655172
 40
0.3103448275862069
 40
0.3103448275862069
 40
0.3103448275862069
 40
0.3103448275862069
 40
0.3448275862068966
 40
0.3448275862068966
 40
0.3448275862068966
 40
0.3448275862068966
 40
0.3793103448275862
 40
0.3793103448275862
 40
0.3793103448275862
 40
0.3793103448275862
 40
0.4137931034482759
 40
0.4137931034482759
 40
0.4137931034482759
 40
0.4137931034482759
 40
0.4482758620689655
 40
0.4482758620689655
 40
0.4482758620689655
 40
0.4482758620689655
 40
0.4827586206896552
 40
0.4827586206896552
 40
0.4827586206896552
 40
0.4827586206896552
 40
0.5172413793103449
 40
0.5172413793103449
 40
0.5172413793103449
 40
0.5172413793103449
 40
0.5517241379310345
 40
0.5517241379310345
 40
0.5517241379310345
 40
0.5517241379310345
 40
0.5862068965517241
 40
0.5862068965517241
 40
0.5862068965517241
 40
0.5862068965517241
 40
0.6206896551724138
 40
0.6206896551724138
 40
0.6206896551724138
 40
0.6206896551724138
 40
0.6551724137931034
 40
0.6551724137931034
 40
0.6551724137931034
 40
0.6551724137931034
 40
0.6896551724137931
 40
0.6896551724137931
 40
0.6896551724137931
 40
0.6896551724137931
 40
0.7241379310344828
 40
0.7241379310344828
 40
0.7241379310344828
 40
0.7241379310344828
 40
0.7586206896551724
 40
0.7586206896551724
 40
0.7586206896551724
 40
0.7586206896551724
 40
0.7931034482758621
 40
0.7931034482758621
 40
0.7931034482758621
 40
0.7931034482758621
 40
0.8275862068965517
 40
0.8275862068965517
 40
0.8275862068965517
 40
0.8275862068965517
 40
0.8620689655172413
 40
0.8620689655172413
 40
0.8620689655172413
 40
0.8620689655172413
 40
0.896551724137931
 40
0.896551724137931
 40
0.896551724137931
 40
0.896551724137931
 40
0.9310344827586207
 40
0.9310344827586207
 40
0.9310344827586207
 40
0.9310344827586207
 40
1.0
 40
1.0
 40
1.0
 40
1.0
 10
62.6402
 20
-14.658
 30
0.0
 10
62.6402
 20
-14.658
 30
0.0
 10
67.2705
 20
-14.716
 30
0.0
 10
67.2705
 20
-14.6746
 30
0.0
 10
67.2705
 20
-14.6746
 30
0.0
 10
67.2705
 20
-14.6332
 30
0.0
 10
67.2787
 20
-13.9221
 30
0.0
 10
67.2787
 20
-13.9221
 30
0.0
 10
67.2787
 20
-13.9221
 30
0.0
 10
67.2787
 20
-13.9221
 30
0.0
 10
66.1294
 20
-13.9056
 30
0.0
 10
66.1294
 20
-13.9056
 30
0.0
 10
66.1294
 20
-13.9056
 30
0.0
 10
66.1294
 20
-13.9056
 30
0.0
 10
66.1046
 20
-11.7393
 30
0.0
 10
66.1046
 20
-11.7393
 30
0.0
 10
66.1046
 20
-11.7393
 30
0.0
 10
66.1046
 20
-11.7393
 30
0.0
 10
67.2291
 20
-11.7476
 30
0.0
 10
67.2291
 20
-11.7476
 30
0.0
 10
67.2291
 20
-11.7476
 30
0.0
 10
67.2291
 20
-11.7476
 30
0.0
 10
67.2291
 20
-11.0365
 30
0.0
 10
67.2291
 20
-11.0365
 30
0.0
 10
67.2291
 20
-11.0365
 30
0.0
 10
67.2291
 20
-11.0365
 30
0.0
 10
66.1212
 20
-11.02
 30
0.0
 10
66.1212
 20
-11.02
 30
0.0
 10
66.1212
 20
-11.02
 30
0.0
 10
66.1212
 20
-11.02
 30
0.0
 10
66.0882
 20
-8.8495
 30
0.0
 10
66.0882
 20
-8.8495
 30
0.0
 10
66.0882
 20
-8.8495
 30
0.0
 10
66.0882
 20
-8.8495
 30
0.0
 10
67.2499
 20
-8.8619
 30
0.0
 10
67.2499
 20
-8.8619
 30
0.0
 10
67.2499
 20
-8.8619
 30
0.0
 10
67.2499
 20
-8.8619
 30
0.0
 10
67.2582
 20
-8.1218
 30
0.0
 10
67.2582
 20
-8.1218
 30
0.0
 10
67.2582
 20
-8.1218
 30
0.0
 10
67.2582
 20
-8.1218
 30
0.0
 10
66.1088
 20
-8.1218
 30
0.0
 10
66.1088
 20
-8.1218
 30
0.0
 10
66.1088
 20
-8.1218
 30
0.0
 10
66.1088
 20
-8.1218
 30
0.0
 10
66.0838
 20
-6.0005
 30
0.0
 10
66.0838
 20
-6.0005
 30
0.0
 10
66.0838
 20
-6.0005
 30
0.0
 10
66.0838
 20
-6.0005
 30
0.0
 10
67.2082
 20
-6.0088
 30
0.0
 10
67.2082
 20
-6.0088
 30
0.0
 10
67.2082
 20
-6.0088
 30
0.0
 10
67.2082
 20
-6.0088
 30
0.0
 10
67.2082
 20
-5.2812
 30
0.0
 10
67.2082
 20
-5.2812
 30
0.0
 10
67.2082
 20
-5.2812
 30
0.0
 10
67.2082
 20
-5.2812
 30
0.0
 10
66.1168
 20
-5.2647
 30
0.0
 10
66.1168
 20
-5.2647
 30
0.0
 10
66.1168
 20
-5.2647
 30
0.0
 10
66.1168
 20
-5.2647
 30
0.0
 10
66.1001
 20
-3.0565
 30
0.0
 10
66.1001
 20
-3.0565
 30
0.0
 10
66.1001
 20
-3.0565
 30
0.0
 10
66.1001
 20
-3.0565
 30
0.0
 10
67.2577
 20
-3.0565
 30
0.0
 10
67.2577
 20
-3.0565
 30
0.0
 10
67.2577
 20
-3.0565
 30
0.0
 10
67.2577
 20
-3.0565
 30
0.0
 10
67.2577
 20
-2.395
 30
0.0
 10
67.2577
 20
-2.395
 30
0.0
 10
67.2577
 20
-2.395
 30
0.0
 10
67.2577
 20
-2.395
 30
0.0
 10
66.1167
 20
-2.3867
 30
0.0
 10
66.1167
 20
-2.3867
 30
0.0
 10
66.1167
 20
-2.3867
 30
0.0
 10
66.1167
 20
-2.3867
 30
0.0
 10
66.0919
 20
-0.237
 30
0.0
 10
66.0919
 20
-0.237
 30
0.0
 10
66.0919
 20
-0.237
 30
0.0
 10
66.0919
 20
-0.237
 30
0.0
 10
67.2825
 20
-0.2452
 30
0.0
 10
67.2825
 20
-0.2452
 30
0.0
 10
67.2825
 20
-0.2452
 30
0.0
 10
67.2825
 20
-0.2452
 30
0.0
 10
67.2822
 20
0.4993
 30
0.0
 10
67.2822
 20
0.4993
 30
0.0
 10
67.2822
 20
0.4993
 30
0.0
 10
67.2822
 20
0.4993
 30
0.0
 10
66.1164
 20
0.4663
 30
0.0
 10
66.1164
 20
0.4663
 30
0.0
 10
66.1164
 20
0.4663
 30
0.0
 10
66.1164
 20
0.4663
 30
0.0
 10
66.0916
 20
2.6656
 30
0.0
 10
66.0916
 20
2.6656
 30
0.0
 10
66.0916
 20
2.6656
 30
0.0
 10
66.0916
 20
2.6656
 30
0.0
 10
67.2161
 20
2.6904
 30
0.0
 10
67.2161
 20
2.6904
 30
0.0
 10
67.2161
 20
2.6904
 30
0.0
 10
67.2161
 20
2.6904
 30
0.0
 10
67.2078
 20
3.4015
 30
0.0
 10
67.2078
 20
3.4015
 30
0.0
 10
67.2078
 20
3.4015
 30
0.0
 10
67.2078
 20
3.4015
 30
0.0
 10
62.6602
 20
3.3684
 30
0.0
 10
62.6602
 20
3.3684
 30
0.0
 10
62.6602
 20
3.3684
 30
0.0
 10
62.6602
 20
3.3684
 30
0.0
 10
62.6433
 20
-14.631
 30
0.0
 10
62.6402
 20
-14.658
 30
0.0
  0
SPLINE
  5
42
330
1F
100
AcDbEntity
  8
Ilustrace
 62
   250
370
    15
100
AcDbSpline
210
0.0
220
0.0
230
1.0
 70
    24
 71
     3
 72
     8
 73
     4
 74
     0
 42
0.0000000001
 43
0.0000000001
 40
0.0
 40
0.0
 40
0.0
 40
0.0
 40
1.0
 40
1.0
 40
1.0
 40
1.0
 10
67.2583
 20
3.7885
 30
0.0
 10
67.2583
 20
3.7885
 30
0.0
 10
67.2583
 20
7.5496
 30
0.0
 10
67.2583
 20
7.5496
 30
0.0
  0
SPLINE
  5
43
330
1F
100
AcDbEntity
  8
Ilustrace
 62
   250
370
    15
100
AcDbSpline
210
0.0
220
0.0
230
1.0
 70
    24
 71
     3
 72
     8
 73
     4
 74
     0
 42
0.0000000001
 43
0.0000000001
 40
0.0
 40
0.0
 40
0.0
 40
0.0
 40
1.0
 40
1.0
 40
1.0
 40
1.0
 10
62.6523
 20
3.7151
 30
0.0
 10
62.6523
 20
3.7151
 30
0.0
 10
62.6523
 20
7.4891
 30
0.0
 10
62.6523
 20
7.4891
 30
0.0
  0
SPLINE
  5
44
330
1F
100
AcDbEntity
  8
Ilustrace
 62
   250
370
    15
100
AcDbSpline
210
0.0
220
0.0
230
1.0
 70
    24
 71
     3
 72
     8
 73
     4
 74
     0
 42
0.0000000001
 43
0.0000000001
 40
0.0
 40
0.0
 40
0.0
 40
0.0
 40
1.0
 40
1.0
 40
1.0
 40
1.0
 10
72.7986
 20
-14.7279
 30
0.0
 10
72.7986
 20
-14.7279
 30
0.0
 10
67.355
 20
-14.7279
 30
0.0
 10
67.355
 20
-14.7279
 30
0.0
  0
SPLINE
  5
45
330
1F
100
AcDbEntity
  8
Ilustrace
 62
   250
100
AcDbSpline
210
0.0
220
0.0
230
1.0
 70
    11
 71
     3
 72
   124
 73
   120
 74
     0
 42
0.0000000001
 43
0.0000000001
 40
0.0
 40
0.0
 40
0.0
 40
0.0
 40
0.032258064516129
 40
0.032258064516129
 40
0.032258064516129
 40
0.032258064516129
 40
0.0645161290322581
 40
0.0645161290322581
 40
0.0645161290322581
 40
0.0645161290322581
 40
0.0967741935483871
 40
0.0967741935483871
 40
0.0967741935483871
 40
0.0967741935483871
 40
0.1290322580645161
 40
0.1290322580645161
 40
0.1290322580645161
 40
0.1290322580645161
 40
0.1612903225806452
 40
0.1612903225806452
 40
0.1612903225806452
 40
0.1612903225806452
 40
0.1935483870967742
 40
0.1935483870967742
 40
0.1935483870967742
 40
0.1935483870967742
 40
0.2258064516129032
 40
0.2258064516129032
 40
0.2258064516129032
 40
0.2258064516129032
 40
0.2580645161290323
 40
0.2580645161290323
 40
0.2580645161290323
 40
0.2580645161290323
 40
0.2903225806451613
 40
0.2903225806451613
 40
0.2903225806451613
 40
0.2903225806451613
 40
0.3225806451612903
 40
0.3225806451612903
 40
0.3225806451612903
 40
0.3225806451612903
 40
0.3548387096774194
 40
0.3548387096774194
 40
0.3548387096774194
 40
0.3548387096774194
 40
0.3870967741935484
 40
0.3870967741935484
 40
0.3870967741935484
 40
0.3870967741935484
 40
0.4193548387096774
 40
0.4193548387096774
 40
0.4193548387096774
 40
0.4193548387096774
 40
0.4516129032258064
 40
0.4516129032258064
 40
0.4516129032258064
 40
0.4516129032258064
 40
0.4838709677419355
 40
0.4838709677419355
 40
0.4838709677419355
 40
0.4838709677419355
 40
0.5161290322580645
 40
0.5161290322580645
 40
0.5161290322580645
 40
0.5161290322580645
 40
0.5483870967741935
 40
0.5483870967741935
 40
0.5483870967741935
 40
0.5483870967741935
 40
0.5806451612903226
 40
0.5806451612903226
 40
0.5806451612903226
 40
0.5806451612903226
 40
0.6129032258064516
 40
0.6129032258064516
 40
0.6129032258064516
 40
0.6129032258064516
 40
0.6451612903225806
 40
0.6451612903225806
 40
0.6451612903225806
 40
0.6451612903225806
 40
0.6774193548387096
 40
0.6774193548387096
 40
0.6774193548387096
 40
0.6774193548387096
 40
0.7096774193548387
 40
0.7096774193548387
 40
0.7096774193548387
 40
0.7096774193548387
 40
0.7419354838709677
 40
0.7419354838709677
 40
0.7419354838709677
 40
0.7419354838709677
 40
0.7741935483870968
 40
0.7741935483870968
 40
0.7741935483870968
 40
0.7741935483870968
 40
0.8064516129032258
 40
0.8064516129032258
 40
0.8064516129032258
 40
0.8064516129032258
 40
0.8387096774193549
 40
0.8387096774193549
 40
0.8387096774193549
 40
0.8387096774193549
 40
0.8709677419354839
 40
0.8709677419354839
 40
0.8709677419354839
 40
0.8709677419354839
 40
0.9032258064516129
 40
0.9032258064516129
 40
0.9032258064516129
 40
0.9032258064516129
 40
0.9354838709677419
 40
0.9354838709677419
 40
0.9354838709677419
 40
0.9354838709677419
 40
1.0
 40
1.0
 40
1.0
 40
1.0
 10
64.8195
 20
7.4335
 30
0.0
 10
64.8195
 20
7.4335
 30
0.0
 10
64.8195
 20
7.7167
 30
0.0
 10
64.8195
 20
7.7167
 30
0.0
 10
64.8195
 20
7.7167
 30
0.0
 10
64.8195
 20
7.7167
 30
0.0
 10
63.916
 20
7.7167
 30
0.0
 10
63.916
 20
7.7167
 30
0.0
 10
63.916
 20
7.7167
 30
0.0
 10
63.916
 20
7.7167
 30
0.0
 10
63.916
 20
7.7246
 30
0.0
 10
63.916
 20
7.7246
 30
0.0
 10
63.916
 20
7.7246
 30
0.0
 10
63.916
 20
7.7246
 30
0.0
 10
64.0744
 20
7.9107
 30
0.0
 10
64.0744
 20
7.9107
 30
0.0
 10
64.0744
 20
7.9107
 30
0.0
 10
64.181
 20
8.0382
 30
0.0
 10
64.2772
 20
8.1591
 30
0.0
 10
64.3625
 20
8.273
 30
0.0
 10
64.3625
 20
8.273
 30
0.0
 10
64.4479
 20
8.3867
 30
0.0
 10
64.5209
 20
8.4979
 30
0.0
 10
64.5815
 20
8.6053
 30
0.0
 10
64.5815
 20
8.6053
 30
0.0
 10
64.6424
 20
8.7128
 30
0.0
 10
64.6885
 20
8.8207
 30
0.0
 10
64.7211
 20
8.9294
 30
0.0
 10
64.7211
 20
8.9294
 30
0.0
 10
64.7532
 20
9.0374
 30
0.0
 10
64.7693
 20
9.1493
 30
0.0
 10
64.7697
 20
9.2649
 30
0.0
 10
64.7697
 20
9.2649
 30
0.0
 10
64.7697
 20
9.3562
 30
0.0
 10
64.7584
 20
9.4454
 30
0.0
 10
64.7346
 20
9.532
 30
0.0
 10
64.7346
 20
9.532
 30
0.0
 10
64.7107
 20
9.6188
 30
0.0
 10
64.6736
 20
9.697
 30
0.0
 10
64.6238
 20
9.7667
 30
0.0
 10
64.6238
 20
9.7667
 30
0.0
 10
64.5742
 20
9.8374
 30
0.0
 10
64.51
 20
9.893
 30
0.0
 10
64.432
 20
9.9343
 30
0.0
 10
64.432
 20
9.9343
 30
0.0
 10
64.3538
 20
9.9764
 30
0.0
 10
64.2607
 20
9.9977
 30
0.0
 10
64.1521
 20
9.9983
 30
0.0
 10
64.1521
 20
9.9983
 30
0.0
 10
64.0754
 20
9.9977
 30
0.0
 10
64.0026
 20
9.9866
 30
0.0
 10
63.9331
 20
9.964
 30
0.0
 10
63.9331
 20
9.964
 30
0.0
 10
63.8638
 20
9.9414
 30
0.0
 10
63.7997
 20
9.9111
 30
0.0
 10
63.7407
 20
9.8722
 30
0.0
 10
63.7407
 20
9.8722
 30
0.0
 10
63.6823
 20
9.834
 30
0.0
 10
63.63
 20
9.7908
 30
0.0
 10
63.5839
 20
9.7422
 30
0.0
 10
63.5839
 20
9.7422
 30
0.0
 10
63.5839
 20
9.7422
 30
0.0
 10
63.6708
 20
9.5017
 30
0.0
 10
63.6708
 20
9.5017
 30
0.0
 10
63.6708
 20
9.5017
 30
0.0
 10
63.702
 20
9.5347
 30
0.0
 10
63.7391
 20
9.5677
 30
0.0
 10
63.7826
 20
9.6
 30
0.0
 10
63.7826
 20
9.6
 30
0.0
 10
63.8261
 20
9.633
 30
0.0
 10
63.8741
 20
9.6595
 30
0.0
 10
63.9275
 20
9.6814
 30
0.0
 10
63.9275
 20
9.6814
 30
0.0
 10
63.9807
 20
9.7027
 30
0.0
 10
64.0381
 20
9.7144
 30
0.0
 10
64.0993
 20
9.7151
 30
0.0
 10
64.0993
 20
9.7151
 30
0.0
 10
64.1743
 20
9.7144
 30
0.0
 10
64.2374
 20
9.7009
 30
0.0
 10
64.2886
 20
9.6744
 30
0.0
 10
64.2886
 20
9.6744
 30
0.0
 10
64.3393
 20
9.6471
 30
0.0
 10
64.3802
 20
9.6109
 30
0.0
 10
64.4107
 20
9.565
 30
0.0
 10
64.4107
 20
9.565
 30
0.0
 10
64.4413
 20
9.5185
 30
0.0
 10
64.4635
 20
9.4662
 30
0.0
 10
64.4769
 20
9.4073
 30
0.0
 10
64.4769
 20
9.4073
 30
0.0
 10
64.4904
 20
9.3483
 30
0.0
 10
64.4971
 20
9.287
 30
0.0
 10
64.4965
 20
9.2223
 30
0.0
 10
64.4965
 20
9.2223
 30
0.0
 10
64.4965
 20
9.1279
 30
0.0
 10
64.4816
 20
9.0347
 30
0.0
 10
64.4516
 20
8.9423
 30
0.0
 10
64.4516
 20
8.9423
 30
0.0
 10
64.4216
 20
8.8492
 30
0.0
 10
64.376
 20
8.7522
 30
0.0
 10
64.3145
 20
8.65
 30
0.0
 10
64.3145
 20
8.65
 30
0.0
 10
64.2529
 20
8.5478
 30
0.0
 10
64.1747
 20
8.4358
 30
0.0
 10
64.0802
 20
8.3143
 30
0.0
 10
64.0802
 20
8.3143
 30
0.0
 10
63.9859
 20
8.1927
 30
0.0
 10
63.8741
 20
8.0556
 30
0.0
 10
63.7455
 20
7.903
 30
0.0
 10
63.7455
 20
7.903
 30
0.0
 10
63.7455
 20
7.903
 30
0.0
 10
63.5312
 20
7.643
 30
0.0
 10
63.5312
 20
7.643
 30
0.0
 10
63.5312
 20
7.643
 30
0.0
 10
63.5312
 20
7.643
 30
0.0
 10
63.5312
 20
7.4335
 30
0.0
 10
63.5312
 20
7.4335
 30
0.0
 10
63.5312
 20
7.4335
 30
0.0
 10
63.5312
 20
7.4335
 30
0.0
 10
64.8195
 20
7.4335
 30
0.0
 10
64.8195
 20
7.4335
 30
0.0
  0
SPLINE
  5
46
330
1F
100
AcDbEntity
  8
Ilustrace
 62
   250
100
AcDbSpline
210
0.0
220
0.0
230
1.0
 70
    11
 71
     3
 72
    56
 73
    52
 74
     0
 42
0.0000000001
 43
0.0000000001
 40
0.0
 40
0.0
 40
0.0
 40
0.0
 40
0.0714285714285714
 40
0.0714285714285714
 40
0.0714285714285714
 40
0.0714285714285714
 40
0.1428571428571428
 40
0.1428571428571428
 40
0.1428571428571428
 40
0.1428571428571428
 40
0.2142857142857143
 40
0.2142857142857143
 40
0.2142857142857143
 40
0.2142857142857143
 40
0.2857142857142857
 40
0.2857142857142857
 40
0.2857142857142857
 40
0.2857142857142857
 40
0.3571428571428572
 40
0.3571428571428572
 40
0.3571428571428572
 40
0.3571428571428572
 40
0.4285714285714285
 40
0.4285714285714285
 40
0.4285714285714285
 40
0.4285714285714285
 40
0.5
 40
0.5
 40
0.5
 40
0.5
 40
0.5714285714285714
 40
0.5714285714285714
 40
0.5714285714285714
 40
0.5714285714285714
 40
0.6428571428571429
 40
0.6428571428571429
 40
0.6428571428571429
 40
0.6428571428571429
 40
0.7142857142857143
 40
0.7142857142857143
 40
0.7142857142857143
 40
0.7142857142857143
 40
0.7857142857142857
 40
0.7857142857142857
 40
0.7857142857142857
 40
0.7857142857142857
 40
0.8571428571428571
 40
0.8571428571428571
 40
0.8571428571428571
 40
0.8571428571428571
 40
1.0
 40
1.0
 40
1.0
 40
1.0
 10
65.8003
 20
9.9983
 30
0.0
 10
65.6974
 20
9.9983
 30
0.0
 10
65.6032
 20
9.9699
 30
0.0
 10
65.5174
 20
9.9129
 30
0.0
 10
65.5174
 20
9.9129
 30
0.0
 10
65.4314
 20
9.8561
 30
0.0
 10
65.3575
 20
9.7727
 30
0.0
 10
65.2944
 20
9.6615
 30
0.0
 10
65.2944
 20
9.6615
 30
0.0
 10
65.2313
 20
9.5501
 30
0.0
 10
65.1826
 20
9.4131
 30
0.0
 10
65.1479
 20
9.2501
 30
0.0
 10
65.1479
 20
9.2501
 30
0.0
 10
65.1138
 20
9.0872
 30
0.0
 10
65.0963
 20
8.8996
 30
0.0
 10
65.0957
 20
8.6867
 30
0.0
 10
65.0957
 20
8.6867
 30
0.0
 10
65.0988
 20
8.408
 30
0.0
 10
65.1283
 20
8.1727
 30
0.0
 10
65.1846
 20
7.98
 30
0.0
 10
65.1846
 20
7.98
 30
0.0
 10
65.241
 20
7.7872
 30
0.0
 10
65.3192
 20
7.6412
 30
0.0
 10
65.4185
 20
7.5415
 30
0.0
 10
65.4185
 20
7.5415
 30
0.0
 10
65.5178
 20
7.4419
 30
0.0
 10
65.6337
 20
7.3915
 30
0.0
 10
65.7661
 20
7.3908
 30
0.0
 10
65.7661
 20
7.3908
 30
0.0
 10
65.9146
 20
7.3915
 30
0.0
 10
66.0409
 20
7.4432
 30
0.0
 10
66.1453
 20
7.5454
 30
0.0
 10
66.1453
 20
7.5454
 30
0.0
 10
66.2499
 20
7.6476
 30
0.0
 10
66.3296
 20
7.7976
 30
0.0
 10
66.3844
 20
7.9956
 30
0.0
 10
66.3844
 20
7.9956
 30
0.0
 10
66.4397
 20
8.1934
 30
0.0
 10
66.4672
 20
8.4353
 30
0.0
 10
66.4677
 20
8.7217
 30
0.0
 10
66.4677
 20
8.7217
 30
0.0
 10
66.4672
 20
8.9902
 30
0.0
 10
66.4408
 20
9.2198
 30
0.0
 10
66.3885
 20
9.4099
 30
0.0
 10
66.3885
 20
9.4099
 30
0.0
 10
66.3363
 20
9.6
 30
0.0
 10
66.2603
 20
9.7454
 30
0.0
 10
66.161
 20
9.8457
 30
0.0
 10
66.161
 20
9.8457
 30
0.0
 10
66.0616
 20
9.9466
 30
0.0
 10
65.9416
 20
9.9977
 30
0.0
 10
65.8003
 20
9.9983
 30
0.0
  0
SPLINE
  5
47
330
1F
100
AcDbEntity
  8
Ilustrace
 62
   250
100
AcDbSpline
210
0.0
220
0.0
230
1.0
 70
    11
 71
     3
 72
    56
 73
    52
 74
     0
 42
0.0000000001
 43
0.0000000001
 40
0.0
 40
0.0
 40
0.0
 40
0.0
 40
0.0714285714285714
 40
0.0714285714285714
 40
0.0714285714285714
 40
0.0714285714285714
 40
0.1428571428571428
 40
0.1428571428571428
 40
0.1428571428571428
 40
0.1428571428571428
 40
0.2142857142857143
 40
0.2142857142857143
 40
0.2142857142857143
 40
0.2142857142857143
 40
0.2857142857142857
 40
0.2857142857142857
 40
0.2857142857142857
 40
0.2857142857142857
 40
0.3571428571428572
 40
0.3571428571428572
 40
0.3571428571428572
 40
0.3571428571428572
 40
0.4285714285714285
 40
0.4285714285714285
 40
0.4285714285714285
 40
0.4285714285714285
 40
0.5
 40
0.5
 40
0.5
 40
0.5
 40
0.5714285714285714
 40
0.5714285714285714
 40
0.5714285714285714
 40
0.5714285714285714
 40
0.6428571428571429
 40
0.6428571428571429
 40
0.6428571428571429
 40
0.6428571428571429
 40
0.7142857142857143
 40
0.7142857142857143
 40
0.7142857142857143
 40
0.7142857142857143
 40
0.7857142857142857
 40
0.7857142857142857
 40
0.7857142857142857
 40
0.7857142857142857
 40
0.8571428571428571
 40
0.8571428571428571
 40
0.8571428571428571
 40
0.8571428571428571
 40
1.0
 40
1.0
 40
1.0
 40
1.0
 10
65.7816
 20
9.7345
 30
0.0
 10
65.8531
 20
9.7339
 30
0.0
 10
65.9146
 20
9.7099
 30
0.0
 10
65.9664
 20
9.6615
 30
0.0
 10
65.9664
 20
9.6615
 30
0.0
 10
66.0181
 20
9.6129
 30
0.0
 10
66.0605
 20
9.5436
 30
0.0
 10
66.0937
 20
9.4533
 30
0.0
 10
66.0937
 20
9.4533
 30
0.0
 10
66.1268
 20
9.3632
 30
0.0
 10
66.1517
 20
9.2545
 30
0.0
 10
66.1677
 20
9.1292
 30
0.0
 10
66.1677
 20
9.1292
 30
0.0
 10
66.1836
 20
9.0031
 30
0.0
 10
66.1914
 20
8.8621
 30
0.0
 10
66.1914
 20
8.7063
 30
0.0
 10
66.1914
 20
8.7063
 30
0.0
 10
66.1914
 20
8.4902
 30
0.0
 10
66.1765
 20
8.304
 30
0.0
 10
66.1465
 20
8.1475
 30
0.0
 10
66.1465
 20
8.1475
 30
0.0
 10
66.1169
 20
7.9904
 30
0.0
 10
66.0715
 20
7.8693
 30
0.0
 10
66.0109
 20
7.7839
 30
0.0
 10
66.0109
 20
7.7839
 30
0.0
 10
65.9504
 20
7.6986
 30
0.0
 10
65.8737
 20
7.6559
 30
0.0
 10
65.7816
 20
7.6546
 30
0.0
 10
65.7816
 20
7.6546
 30
0.0
 10
65.6984
 20
7.6553
 30
0.0
 10
65.6265
 20
7.6953
 30
0.0
 10
65.565
 20
7.7757
 30
0.0
 10
65.565
 20
7.7757
 30
0.0
 10
65.5039
 20
7.8559
 30
0.0
 10
65.4568
 20
7.9722
 30
0.0
 10
65.4231
 20
8.1249
 30
0.0
 10
65.4231
 20
8.1249
 30
0.0
 10
65.3895
 20
8.278
 30
0.0
 10
65.3724
 20
8.4636
 30
0.0
 10
65.3719
 20
8.683
 30
0.0
 10
65.3719
 20
8.683
 30
0.0
 10
65.3724
 20
8.9125
 30
0.0
 10
65.3905
 20
9.1046
 30
0.0
 10
65.4258
 20
9.2612
 30
0.0
 10
65.4258
 20
9.2612
 30
0.0
 10
65.461
 20
9.417
 30
0.0
 10
65.509
 20
9.5347
 30
0.0
 10
65.5706
 20
9.6148
 30
0.0
 10
65.5706
 20
9.6148
 30
0.0
 10
65.6321
 20
9.6945
 30
0.0
 10
65.7026
 20
9.7345
 30
0.0
 10
65.7816
 20
9.7345
 30
0.0
  0
SPLINE
  5
48
330
1F
100
AcDbEntity
  8
Ilustrace
 62
   250
370
    15
100
AcDbSpline
210
0.0
220
0.0
230
1.0
 70
    24
 71
     3
 72
     8
 73
     4
 74
     0
 42
0.0000000001
 43
0.0000000001
 40
0.0
 40
0.0
 40
0.0
 40
0.0
 40
1.0
 40
1.0
 40
1.0
 40
1.0
 10
69.4865
 20
6.9769
 30
0.0
 10
69.4865
 20
6.9769
 30
0.0
 10
60.7073
 20
6.9769
 30
0.0
 10
60.7073
 20
6.9769
 30
0.0
  0
SPLINE
  5
49
330
1F
100
AcDbEntity
  8
Ilustrace
 62
   250
370
    15
100
AcDbSpline
210
0.0
220
0.0
230
1.0
 70
    24
 71
     3
 72
     8
 73
     4
 74
     0
 42
0.0000000001
 43
0.0000000001
 40
0.0
 40
0.0
 40
0.0
 40
0.0
 40
1.0
 40
1.0
 40
1.0
 40
1.0
 10
72.5218
 20
2.6935
 30
0.0
 10
72.5218
 20
2.6935
 30
0.0
 10
72.5218
 20
-14.0714
 30
0.0
 10
72.5218
 20
-14.0714
 30
0.0
  0
SPLINE
  5
4A
330
1F
100
AcDbEntity
  8
Ilustrace
 62
   250
370
     9
100
AcDbSpline
210
0.0
220
0.0
230
1.0
 70
    11
 71
     3
 72
    32
 73
    28
 74
     0
 42
0.0000000001
 43
0.0000000001
 40
0.0
 40
0.0
 40
0.0
 40
0.0
 40
0.125
 40
0.125
 40
0.125
 40
0.125
 40
0.25
 40
0.25
 40
0.25
 40
0.25
 40
0.375
 40
0.375
 40
0.375
 40
0.375
 40
0.5
 40
0.5
 40
0.5
 40
0.5
 40
0.625
 40
0.625
 40
0.625
 40
0.625
 40
0.75
 40
0.75
 40
0.75
 40
0.75
 40
1.0
 40
1.0
 40
1.0
 40
1.0
 10
61.3707
 20
6.541
 30
0.0
 10
61.3707
 20
6.541
 30
0.0
 10
61.3707
 20
6.541
 30
0.0
 10
61.3707
 20
6.541
 30
0.0
 10
61.3707
 20
6.541
 30
0.0
 10
61.3707
 20
6.541
 30
0.0
 10
61.3707
 20
6.541
 30
0.0
 10
61.3707
 20
6.541
 30
0.0
 10
61.3707
 20
6.541
 30
0.0
 10
61.3707
 20
6.541
 30
0.0
 10
62.6435
 20
6.9844
 30
0.0
 10
62.6435
 20
6.9844
 30
0.0
 10
62.6435
 20
6.9844
 30
0.0
 10
62.6435
 20
6.9844
 30
0.0
 10
61.3707
 20
7.4278
 30
0.0
 10
61.3707
 20
7.4278
 30
0.0
 10
61.3707
 20
7.4278
 30
0.0
 10
61.3707
 20
7.4278
 30
0.0
 10
61.3707
 20
7.4278
 30
0.0
 10
61.3707
 20
7.4278
 30
0.0
 10
61.3707
 20
7.4278
 30
0.0
 10
61.3707
 20
7.4278
 30
0.0
 10
61.3707
 20
7.4278
 30
0.0
 10
61.3707
 20
7.4278
 30
0.0
 10
61.3707
 20
7.4278
 30
0.0
 10
61.3707
 20
7.4278
 30
0.0
 10
61.3707
 20
6.541
 30
0.0
 10
61.3707
 20
6.541
 30
0.0
  0
SPLINE
  5
4B
330
1F
100
AcDbEntity
  8
Ilustrace
 62
   250
370
     9
100
AcDbSpline
210
0.0
220
0.0
230
1.0
 70
    11
 71
     3
 72
    32
 73
    28
 74
     0
 42
0.0000000001
 43
0.0000000001
 40
0.0
 40
0.0
 40
0.0
 40
0.0
 40
0.125
 40
0.125
 40
0.125
 40
0.125
 40
0.25
 40
0.25
 40
0.25
 40
0.25
 40
0.375
 40
0.375
 40
0.375
 40
0.375
 40
0.5
 40
0.5
 40
0.5
 40
0.5
 40
0.625
 40
0.625
 40
0.625
 40
0.625
 40
0.75
 40
0.75
 40
0.75
 40
0.75
 40
1.0
 40
1.0
 40
1.0
 40
1.0
 10
72.9911
 20
2.1931
 30
0.0
 10
72.9911
 20
2.1931
 30
0.0
 10
72.9911
 20
2.1931
 30
0.0
 10
72.9911
 20
2.1931
 30
0.0
 10
72.9911
 20
2.1931
 30
0.0
 10
72.9911
 20
2.1931
 30
0.0
 10
72.9911
 20
2.1931
 30
0.0
 10
72.9911
 20
2.1931
 30
0.0
 10
72.9911
 20
2.1931
 30
0.0
 10
72.9911
 20
2.1931
 30
0.0
 10
72.5477
 20
3.4659
 30
0.0
 10
72.5477
 20
3.4659
 30
0.0
 10
72.5477
 20
3.4659
 30
0.0
 10
72.5477
 20
3.4659
 30
0.0
 10
72.1043
 20
2.1931
 30
0.0
 10
72.1043
 20
2.1931
 30
0.0
 10
72.1043
 20
2.1931
 30
0.0
 10
72.1043
 20
2.1931
 30
0.0
 10
72.1043
 20
2.1931
 30
0.0
 10
72.1043
 20
2.1931
 30
0.0
 10
72.1043
 20
2.1931
 30
0.0
 10
72.1043
 20
2.1931
 30
0.0
 10
72.1043
 20
2.1931
 30
0.0
 10
72.1043
 20
2.1931
 30
0.0
 10
72.1043
 20
2.1931
 30
0.0
 10
72.1043
 20
2.1931
 30
0.0
 10
72.9911
 20
2.1931
 30
0.0
 10
72.9911
 20
2.1931
 30
0.0
  0
SPLINE
  5
4C
330
1F
100
AcDbEntity
  8
Ilustrace
 62
   250
370
     9
100
AcDbSpline
210
0.0
220
0.0
230
1.0
 70
    11
 71
     3
 72
    32
 73
    28
 74
     0
 42
0.0000000001
 43
0.0000000001
 40
0.0
 40
0.0
 40
0.0
 40
0.0
 40
0.125
 40
0.125
 40
0.125
 40
0.125
 40
0.25
 40
0.25
 40
0.25
 40
0.25
 40
0.375
 40
0.375
 40
0.375
 40
0.375
 40
0.5
 40
0.5
 40
0.5
 40
0.5
 40
0.625
 40
0.625
 40
0.625
 40
0.625
 40
0.75
 40
0.75
 40
0.75
 40
0.75
 40
1.0
 40
1.0
 40
1.0
 40
1.0
 10
68.5503
 20
6.5486
 30
0.0
 10
68.5503
 20
6.5486
 30
0.0
 10
68.5503
 20
6.5486
 30
0.0
 10
68.5503
 20
6.5486
 30
0.0
 10
68.5503
 20
6.5486
 30
0.0
 10
68.5503
 20
6.5486
 30
0.0
 10
68.5503
 20
6.5486
 30
0.0
 10
68.5503
 20
6.5486
 30
0.0
 10
68.5503
 20
6.5486
 30
0.0
 10
68.5503
 20
6.5486
 30
0.0
 10
67.2775
 20
6.992
 30
0.0
 10
67.2775
 20
6.992
 30
0.0
 10
67.2775
 20
6.992
 30
0.0
 10
67.2775
 20
6.992
 30
0.0
 10
68.5503
 20
7.4354
 30
0.0
 10
68.5503
 20
7.4354
 30
0.0
 10
68.5503
 20
7.4354
 30
0.0
 10
68.5503
 20
7.4354
 30
0.0
 10
68.5503
 20
7.4354
 30
0.0
 10
68.5503
 20
7.4354
 30
0.0
 10
68.5503
 20
7.4354
 30
0.0
 10
68.5503
 20
7.4354
 30
0.0
 10
68.5503
 20
7.4354
 30
0.0
 10
68.5503
 20
7.4354
 30
0.0
 10
68.5503
 20
7.4354
 30
0.0
 10
68.5503
 20
7.4354
 30
0.0
 10
68.5503
 20
6.5486
 30
0.0
 10
68.5503
 20
6.5486
 30
0.0
  0
SPLINE
  5
4D
330
1F
100
AcDbEntity
  8
Ilustrace
 62
   250
370
     9
100
AcDbSpline
210
0.0
220
0.0
230
1.0
 70
    11
 71
     3
 72
    32
 73
    28
 74
     0
 42
0.0000000001
 43
0.0000000001
 40
0.0
 40
0.0
 40
0.0
 40
0.0
 40
0.125
 40
0.125
 40
0.125
 40
0.125
 40
0.25
 40
0.25
 40
0.25
 40
0.25
 40
0.375
 40
0.375
 40
0.375
 40
0.375
 40
0.5
 40
0.5
 40
0.5
 40
0.5
 40
0.625
 40
0.625
 40
0.625
 40
0.625
 40
0.75
 40
0.75
 40
0.75
 40
0.75
 40
1.0
 40
1.0
 40
1.0
 40
1.0
 10
73.011
 20
-13.3759
 30
0.0
 10
73.011
 20
-13.3759
 30
0.0
 10
73.011
 20
-13.3759
 30
0.0
 10
73.011
 20
-13.3759
 30
0.0
 10
73.011
 20
-13.3759
 30
0.0
 10
73.011
 20
-13.3759
 30
0.0
 10
73.011
 20
-13.3759
 30
0.0
 10
73.011
 20
-13.3759
 30
0.0
 10
73.011
 20
-13.3759
 30
0.0
 10
73.011
 20
-13.3759
 30
0.0
 10
72.5676
 20
-14.6487
 30
0.0
 10
72.5676
 20
-14.6487
 30
0.0
 10
72.5676
 20
-14.6487
 30
0.0
 10
72.5676
 20
-14.6487
 30
0.0
 10
72.1242
 20
-13.3759
 30
0.0
 10
72.1242
 20
-13.3759
 30
0.0
 10
72.1242
 20
-13.3759
 30
0.0
 10
72.1242
 20
-13.3759
 30
0.0
 10
72.1242
 20
-13.3759
 30
0.0
 10
72.1242
 20
-13.3759
 30
0.0
 10
72.1242
 20
-13.3759
 30
0.0
 10
72.1242
 20
-13.3759
 30
0.0
 10
72.1242
 20
-13.3759
 30
0.0
 10
72.1242
 20
-13.3759
 30
0.0
 10
72.1242
 20
-13.3759
 30
0.0
 10
72.1242
 20
-13.3759
 30
0.0
 10
73.011
 20
-13.3759
 30
0.0
 10
73.011
 20
-13.3759
 30
0.0
  0
SPLINE
  5
4E
330
1F
100
AcDbEntity
  8
Ilustrace
 62
   250
370
    15
100
AcDbSpline
210
0.0
220
0.0
230
1.0
 70
    24
 71
     3
 72
     8
 73
     4
 74
     0
 42
0.0000000001
 43
0.0000000001
 40
0.0
 40
0.0
 40
0.0
 40
0.0
 40
1.0
 40
1.0
 40
1.0
 40
1.0
 10
67.4983
 20
3.5046
 30
0.0
 10
67.4983
 20
3.5046
 30
0.0
 10
73.0049
 20
3.5046
 30
0.0
 10
73.0049
 20
3.5046
 30
0.0
  0
SPLINE
  5
4F
330
1F
100
AcDbEntity
  8
Ilustrace
 62
   250
100
AcDbSpline
210
0.0
220
0.0
230
1.0
 70
    11
 71
     3
 72
    36
 73
    32
 74
     0
 42
0.0000000001
 43
0.0000000001
 40
0.0
 40
0.0
 40
0.0
 40
0.0
 40
0.1111111111111111
 40
0.1111111111111111
 40
0.1111111111111111
 40
0.1111111111111111
 40
0.2222222222222222
 40
0.2222222222222222
 40
0.2222222222222222
 40
0.2222222222222222
 40
0.3333333333333333
 40
0.3333333333333333
 40
0.3333333333333333
 40
0.3333333333333333
 40
0.4444444444444444
 40
0.4444444444444444
 40
0.4444444444444444
 40
0.4444444444444444
 40
0.5555555555555556
 40
0.5555555555555556
 40
0.5555555555555556
 40
0.5555555555555556
 40
0.6666666666666666
 40
0.6666666666666666
 40
0.6666666666666666
 40
0.6666666666666666
 40
0.7777777777777778
 40
0.7777777777777778
 40
0.7777777777777778
 40
0.7777777777777778
 40
1.0
 40
1.0
 40
1.0
 40
1.0
 10
69.6306
 20
-7.4618
 30
0.0
 10
69.6306
 20
-7.4618
 30
0.0
 10
69.9138
 20
-7.4618
 30
0.0
 10
69.9138
 20
-7.4618
 30
0.0
 10
69.9138
 20
-7.4618
 30
0.0
 10
69.9138
 20
-7.4618
 30
0.0
 10
69.9138
 20
-6.4747
 30
0.0
 10
69.9138
 20
-6.4747
 30
0.0
 10
69.9138
 20
-6.4747
 30
0.0
 10
69.9138
 20
-6.4747
 30
0.0
 10
69.9216
 20
-6.4747
 30
0.0
 10
69.9216
 20
-6.4747
 30
0.0
 10
69.9216
 20
-6.4747
 30
0.0
 10
69.9216
 20
-6.4747
 30
0.0
 10
72.1528
 20
-7.3501
 30
0.0
 10
72.1528
 20
-7.3501
 30
0.0
 10
72.1528
 20
-7.3501
 30
0.0
 10
72.1528
 20
-7.3501
 30
0.0
 10
72.1528
 20
-7.0676
 30
0.0
 10
72.1528
 20
-7.0676
 30
0.0
 10
72.1528
 20
-7.0676
 30
0.0
 10
72.1528
 20
-7.0676
 30
0.0
 10
69.8556
 20
-6.1891
 30
0.0
 10
69.8556
 20
-6.1891
 30
0.0
 10
69.8556
 20
-6.1891
 30
0.0
 10
69.8556
 20
-6.1891
 30
0.0
 10
69.6306
 20
-6.1891
 30
0.0
 10
69.6306
 20
-6.1891
 30
0.0
 10
69.6306
 20
-6.1891
 30
0.0
 10
69.6306
 20
-6.1891
 30
0.0
 10
69.6306
 20
-7.4618
 30
0.0
 10
69.6306
 20
-7.4618
 30
0.0
  0
SPLINE
  5
50
330
1F
100
AcDbEntity
  8
Ilustrace
 62
   250
100
AcDbSpline
210
0.0
220
0.0
230
1.0
 70
    11
 71
     3
 72
   124
 73
   120
 74
     0
 42
0.0000000001
 43
0.0000000001
 40
0.0
 40
0.0
 40
0.0
 40
0.0
 40
0.032258064516129
 40
0.032258064516129
 40
0.032258064516129
 40
0.032258064516129
 40
0.0645161290322581
 40
0.0645161290322581
 40
0.0645161290322581
 40
0.0645161290322581
 40
0.0967741935483871
 40
0.0967741935483871
 40
0.0967741935483871
 40
0.0967741935483871
 40
0.1290322580645161
 40
0.1290322580645161
 40
0.1290322580645161
 40
0.1290322580645161
 40
0.1612903225806452
 40
0.1612903225806452
 40
0.1612903225806452
 40
0.1612903225806452
 40
0.1935483870967742
 40
0.1935483870967742
 40
0.1935483870967742
 40
0.1935483870967742
 40
0.2258064516129032
 40
0.2258064516129032
 40
0.2258064516129032
 40
0.2258064516129032
 40
0.2580645161290323
 40
0.2580645161290323
 40
0.2580645161290323
 40
0.2580645161290323
 40
0.2903225806451613
 40
0.2903225806451613
 40
0.2903225806451613
 40
0.2903225806451613
 40
0.3225806451612903
 40
0.3225806451612903
 40
0.3225806451612903
 40
0.3225806451612903
 40
0.3548387096774194
 40
0.3548387096774194
 40
0.3548387096774194
 40
0.3548387096774194
 40
0.3870967741935484
 40
0.3870967741935484
 40
0.3870967741935484
 40
0.3870967741935484
 40
0.4193548387096774
 40
0.4193548387096774
 40
0.4193548387096774
 40
0.4193548387096774
 40
0.4516129032258064
 40
0.4516129032258064
 40
0.4516129032258064
 40
0.4516129032258064
 40
0.4838709677419355
 40
0.4838709677419355
 40
0.4838709677419355
 40
0.4838709677419355
 40
0.5161290322580645
 40
0.5161290322580645
 40
0.5161290322580645
 40
0.5161290322580645
 40
0.5483870967741935
 40
0.5483870967741935
 40
0.5483870967741935
 40
0.5483870967741935
 40
0.5806451612903226
 40
0.5806451612903226
 40
0.5806451612903226
 40
0.5806451612903226
 40
0.6129032258064516
 40
0.6129032258064516
 40
0.6129032258064516
 40
0.6129032258064516
 40
0.6451612903225806
 40
0.6451612903225806
 40
0.6451612903225806
 40
0.6451612903225806
 40
0.6774193548387096
 40
0.6774193548387096
 40
0.6774193548387096
 40
0.6774193548387096
 40
0.7096774193548387
 40
0.7096774193548387
 40
0.7096774193548387
 40
0.7096774193548387
 40
0.7419354838709677
 40
0.7419354838709677
 40
0.7419354838709677
 40
0.7419354838709677
 40
0.7741935483870968
 40
0.7741935483870968
 40
0.7741935483870968
 40
0.7741935483870968
 40
0.8064516129032258
 40
0.8064516129032258
 40
0.8064516129032258
 40
0.8064516129032258
 40
0.8387096774193549
 40
0.8387096774193549
 40
0.8387096774193549
 40
0.8387096774193549
 40
0.8709677419354839
 40
0.8709677419354839
 40
0.8709677419354839
 40
0.8709677419354839
 40
0.9032258064516129
 40
0.9032258064516129
 40
0.9032258064516129
 40
0.9032258064516129
 40
0.9354838709677419
 40
0.9354838709677419
 40
0.9354838709677419
 40
0.9354838709677419
 40
1.0
 40
1.0
 40
1.0
 40
1.0
 10
70.8373
 20
-5.531
 30
0.0
 10
70.8813
 20
-5.6143
 30
0.0
 10
70.9363
 20
-5.6857
 30
0.0
 10
71.001
 20
-5.7451
 30
0.0
 10
71.001
 20
-5.7451
 30
0.0
 10
71.0662
 20
-5.8046
 30
0.0
 10
71.142
 20
-5.8507
 30
0.0
 10
71.228
 20
-5.8828
 30
0.0
 10
71.228
 20
-5.8828
 30
0.0
 10
71.314
 20
-5.9149
 30
0.0
 10
71.4104
 20
-5.9309
 30
0.0
 10
71.5164
 20
-5.9314
 30
0.0
 10
71.5164
 20
-5.9314
 30
0.0
 10
71.6096
 20
-5.9309
 30
0.0
 10
71.6962
 20
-5.9159
 30
0.0
 10
71.7784
 20
-5.8848
 30
0.0
 10
71.7784
 20
-5.8848
 30
0.0
 10
71.8598
 20
-5.8543
 30
0.0
 10
71.9316
 20
-5.8099
 30
0.0
 10
71.9944
 20
-5.7514
 30
0.0
 10
71.9944
 20
-5.7514
 30
0.0
 10
72.0564
 20
-5.6929
 30
0.0
 10
72.1056
 20
-5.6221
 30
0.0
 10
72.1411
 20
-5.5388
 30
0.0
 10
72.1411
 20
-5.5388
 30
0.0
 10
72.1767
 20
-5.4549
 30
0.0
 10
72.1949
 20
-5.3602
 30
0.0
 10
72.1955
 20
-5.2547
 30
0.0
 10
72.1955
 20
-5.2547
 30
0.0
 10
72.1949
 20
-5.1579
 30
0.0
 10
72.1774
 20
-5.0679
 30
0.0
 10
72.143
 20
-4.9851
 30
0.0
 10
72.143
 20
-4.9851
 30
0.0
 10
72.1088
 20
-4.9023
 30
0.0
 10
72.059
 20
-4.8294
 30
0.0
 10
71.9944
 20
-4.7673
 30
0.0
 10
71.9944
 20
-4.7673
 30
0.0
 10
71.9303
 20
-4.7052
 30
0.0
 10
71.8534
 20
-4.6566
 30
0.0
 10
71.7635
 20
-4.6219
 30
0.0
 10
71.7635
 20
-4.6219
 30
0.0
 10
71.6735
 20
-4.5867
 30
0.0
 10
71.5733
 20
-4.5691
 30
0.0
 10
71.4621
 20
-4.5686
 30
0.0
 10
71.4621
 20
-4.5686
 30
0.0
 10
71.3611
 20
-4.5691
 30
0.0
 10
71.2694
 20
-4.5857
 30
0.0
 10
71.1859
 20
-4.6183
 30
0.0
 10
71.1859
 20
-4.6183
 30
0.0
 10
71.1032
 20
-4.6509
 30
0.0
 10
71.0301
 20
-4.6975
 30
0.0
 10
70.9673
 20
-4.7579
 30
0.0
 10
70.9673
 20
-4.7579
 30
0.0
 10
70.904
 20
-4.8185
 30
0.0
 10
70.8516
 20
-4.891
 30
0.0
 10
70.8102
 20
-4.9752
 30
0.0
 10
70.8102
 20
-4.9752
 30
0.0
 10
70.8102
 20
-4.9752
 30
0.0
 10
70.7986
 20
-4.9752
 30
0.0
 10
70.7986
 20
-4.9752
 30
0.0
 10
70.7986
 20
-4.9752
 30
0.0
 10
70.7501
 20
-4.893
 30
0.0
 10
70.6937
 20
-4.8273
 30
0.0
 10
70.629
 20
-4.7782
 30
0.0
 10
70.629
 20
-4.7782
 30
0.0
 10
70.5651
 20
-4.729
 30
0.0
 10
70.4965
 20
-4.6933
 30
0.0
 10
70.4247
 20
-4.6716
 30
0.0
 10
70.4247
 20
-4.6716
 30
0.0
 10
70.3523
 20
-4.6504
 30
0.0
 10
70.2805
 20
-4.6395
 30
0.0
 10
70.2087
 20
-4.64
 30
0.0
 10
70.2087
 20
-4.64
 30
0.0
 10
70.1285
 20
-4.64
 30
0.0
 10
70.0509
 20
-4.6524
 30
0.0
 10
69.9772
 20
-4.6773
 30
0.0
 10
69.9772
 20
-4.6773
 30
0.0
 10
69.9035
 20
-4.7021
 30
0.0
 10
69.8375
 20
-4.7388
 30
0.0
 10
69.7787
 20
-4.788
 30
0.0
 10
69.7787
 20
-4.788
 30
0.0
 10
69.7204
 20
-4.8376
 30
0.0
 10
69.6738
 20
-4.8993
 30
0.0
 10
69.6402
 20
-4.9727
 30
0.0
 10
69.6402
 20
-4.9727
 30
0.0
 10
69.606
 20
-5.0462
 30
0.0
 10
69.5885
 20
-5.132
 30
0.0
 10
69.5879
 20
-5.2298
 30
0.0
 10
69.5879
 20
-5.2298
 30
0.0
 10
69.5885
 20
-5.3194
 30
0.0
 10
69.6047
 20
-5.4027
 30
0.0
 10
69.6364
 20
-5.4782
 30
0.0
 10
69.6364
 20
-5.4782
 30
0.0
 10
69.6687
 20
-5.5543
 30
0.0
 10
69.714
 20
-5.6204
 30
0.0
 10
69.7734
 20
-5.6774
 30
0.0
 10
69.7734
 20
-5.6774
 30
0.0
 10
69.833
 20
-5.7338
 30
0.0
 10
69.9035
 20
-5.7777
 30
0.0
 10
69.9856
 20
-5.8093
 30
0.0
 10
69.9856
 20
-5.8093
 30
0.0
 10
70.0678
 20
-5.8404
 30
0.0
 10
70.1589
 20
-5.8564
 30
0.0
 10
70.2591
 20
-5.8569
 30
0.0
 10
70.2591
 20
-5.8569
 30
0.0
 10
70.3322
 20
-5.8569
 30
0.0
 10
70.4035
 20
-5.846
 30
0.0
 10
70.4732
 20
-5.8233
 30
0.0
 10
70.4732
 20
-5.8233
 30
0.0
 10
70.5431
 20
-5.801
 30
0.0
 10
70.6084
 20
-5.7658
 30
0.0
 10
70.6685
 20
-5.7183
 30
0.0
 10
70.6685
 20
-5.7183
 30
0.0
 10
70.7287
 20
-5.6707
 30
0.0
 10
70.7811
 20
-5.6096
 30
0.0
 10
70.8256
 20
-5.5341
 30
0.0
 10
70.8256
 20
-5.5341
 30
0.0
 10
70.8256
 20
-5.5341
 30
0.0
 10
70.8373
 20
-5.531
 30
0.0
 10
70.8373
 20
-5.531
 30
0.0
  0
SPLINE
  5
51
330
1F
100
AcDbEntity
  8
Ilustrace
 62
   250
100
AcDbSpline
210
0.0
220
0.0
230
1.0
 70
    11
 71
     3
 72
    56
 73
    52
 74
     0
 42
0.0000000001
 43
0.0000000001
 40
0.0
 40
0.0
 40
0.0
 40
0.0
 40
0.0714285714285714
 40
0.0714285714285714
 40
0.0714285714285714
 40
0.0714285714285714
 40
0.1428571428571428
 40
0.1428571428571428
 40
0.1428571428571428
 40
0.1428571428571428
 40
0.2142857142857143
 40
0.2142857142857143
 40
0.2142857142857143
 40
0.2142857142857143
 40
0.2857142857142857
 40
0.2857142857142857
 40
0.2857142857142857
 40
0.2857142857142857
 40
0.3571428571428572
 40
0.3571428571428572
 40
0.3571428571428572
 40
0.3571428571428572
 40
0.4285714285714285
 40
0.4285714285714285
 40
0.4285714285714285
 40
0.4285714285714285
 40
0.5
 40
0.5
 40
0.5
 40
0.5
 40
0.5714285714285714
 40
0.5714285714285714
 40
0.5714285714285714
 40
0.5714285714285714
 40
0.6428571428571429
 40
0.6428571428571429
 40
0.6428571428571429
 40
0.6428571428571429
 40
0.7142857142857143
 40
0.7142857142857143
 40
0.7142857142857143
 40
0.7142857142857143
 40
0.7857142857142857
 40
0.7857142857142857
 40
0.7857142857142857
 40
0.7857142857142857
 40
0.8571428571428571
 40
0.8571428571428571
 40
0.8571428571428571
 40
0.8571428571428571
 40
1.0
 40
1.0
 40
1.0
 40
1.0
 10
71.9472
 20
-5.2484
 30
0.0
 10
71.9464
 20
-5.3131
 30
0.0
 10
71.9336
 20
-5.3705
 30
0.0
 10
71.9083
 20
-5.4212
 30
0.0
 10
71.9083
 20
-5.4212
 30
0.0
 10
71.8825
 20
-5.4725
 30
0.0
 10
71.8476
 20
-5.5155
 30
0.0
 10
71.803
 20
-5.5507
 30
0.0
 10
71.803
 20
-5.5507
 30
0.0
 10
71.759
 20
-5.5853
 30
0.0
 10
71.7079
 20
-5.6117
 30
0.0
 10
71.6509
 20
-5.6293
 30
0.0
 10
71.6509
 20
-5.6293
 30
0.0
 10
71.594
 20
-5.6463
 30
0.0
 10
71.5333
 20
-5.6541
 30
0.0
 10
71.4698
 20
-5.652
 30
0.0
 10
71.4698
 20
-5.652
 30
0.0
 10
71.389
 20
-5.652
 30
0.0
 10
71.3147
 20
-5.638
 30
0.0
 10
71.2461
 20
-5.6101
 30
0.0
 10
71.2461
 20
-5.6101
 30
0.0
 10
71.1775
 20
-5.5827
 30
0.0
 10
71.1173
 20
-5.5418
 30
0.0
 10
71.0662
 20
-5.488
 30
0.0
 10
71.0662
 20
-5.488
 30
0.0
 10
71.0153
 20
-5.4337
 30
0.0
 10
70.9751
 20
-5.3675
 30
0.0
 10
70.9459
 20
-5.2889
 30
0.0
 10
70.9459
 20
-5.2889
 30
0.0
 10
70.9777
 20
-5.1973
 30
0.0
 10
71.0172
 20
-5.1186
 30
0.0
 10
71.0651
 20
-5.0524
 30
0.0
 10
71.0651
 20
-5.0524
 30
0.0
 10
71.1123
 20
-4.9862
 30
0.0
 10
71.1711
 20
-4.9349
 30
0.0
 10
71.2408
 20
-4.8993
 30
0.0
 10
71.2408
 20
-4.8993
 30
0.0
 10
71.3113
 20
-4.8635
 30
0.0
 10
71.3968
 20
-4.8454
 30
0.0
 10
71.497
 20
-4.8449
 30
0.0
 10
71.497
 20
-4.8449
 30
0.0
 10
71.5844
 20
-4.8454
 30
0.0
 10
71.6619
 20
-4.862
 30
0.0
 10
71.7292
 20
-4.8951
 30
0.0
 10
71.7292
 20
-4.8951
 30
0.0
 10
71.7964
 20
-4.9282
 30
0.0
 10
71.8494
 20
-4.9748
 30
0.0
 10
71.8883
 20
-5.0348
 30
0.0
 10
71.8883
 20
-5.0348
 30
0.0
 10
71.9271
 20
-5.0948
 30
0.0
 10
71.9464
 20
-5.1662
 30
0.0
 10
71.9472
 20
-5.2484
 30
0.0
  0
SPLINE
  5
52
330
1F
100
AcDbEntity
  8
Ilustrace
 62
   250
100
AcDbSpline
210
0.0
220
0.0
230
1.0
 70
    11
 71
     3
 72
    56
 73
    52
 74
     0
 42
0.0000000001
 43
0.0000000001
 40
0.0
 40
0.0
 40
0.0
 40
0.0
 40
0.0714285714285714
 40
0.0714285714285714
 40
0.0714285714285714
 40
0.0714285714285714
 40
0.1428571428571428
 40
0.1428571428571428
 40
0.1428571428571428
 40
0.1428571428571428
 40
0.2142857142857143
 40
0.2142857142857143
 40
0.2142857142857143
 40
0.2142857142857143
 40
0.2857142857142857
 40
0.2857142857142857
 40
0.2857142857142857
 40
0.2857142857142857
 40
0.3571428571428572
 40
0.3571428571428572
 40
0.3571428571428572
 40
0.3571428571428572
 40
0.4285714285714285
 40
0.4285714285714285
 40
0.4285714285714285
 40
0.4285714285714285
 40
0.5
 40
0.5
 40
0.5
 40
0.5
 40
0.5714285714285714
 40
0.5714285714285714
 40
0.5714285714285714
 40
0.5714285714285714
 40
0.6428571428571429
 40
0.6428571428571429
 40
0.6428571428571429
 40
0.6428571428571429
 40
0.7142857142857143
 40
0.7142857142857143
 40
0.7142857142857143
 40
0.7142857142857143
 40
0.7857142857142857
 40
0.7857142857142857
 40
0.7857142857142857
 40
0.7857142857142857
 40
0.8571428571428571
 40
0.8571428571428571
 40
0.8571428571428571
 40
0.8571428571428571
 40
1.0
 40
1.0
 40
1.0
 40
1.0
 10
69.8323
 20
-5.2454
 30
0.0
 10
69.833
 20
-5.1844
 30
0.0
 10
69.8447
 20
-5.132
 30
0.0
 10
69.868
 20
-5.0886
 30
0.0
 10
69.868
 20
-5.0886
 30
0.0
 10
69.8911
 20
-5.0451
 30
0.0
 10
69.9229
 20
-5.0099
 30
0.0
 10
69.9623
 20
-4.9826
 30
0.0
 10
69.9623
 20
-4.9826
 30
0.0
 10
70.0018
 20
-4.9557
 30
0.0
 10
70.0458
 20
-4.9355
 30
0.0
 10
70.0943
 20
-4.9226
 30
0.0
 10
70.0943
 20
-4.9226
 30
0.0
 10
70.1428
 20
-4.9101
 30
0.0
 10
70.1926
 20
-4.9039
 30
0.0
 10
70.2437
 20
-4.9039
 30
0.0
 10
70.2437
 20
-4.9039
 30
0.0
 10
70.32
 20
-4.9044
 30
0.0
 10
70.3879
 20
-4.9179
 30
0.0
 10
70.4474
 20
-4.9447
 30
0.0
 10
70.4474
 20
-4.9447
 30
0.0
 10
70.5076
 20
-4.9716
 30
0.0
 10
70.5586
 20
-5.0078
 30
0.0
 10
70.6006
 20
-5.0545
 30
0.0
 10
70.6006
 20
-5.0545
 30
0.0
 10
70.6433
 20
-5.1005
 30
0.0
 10
70.677
 20
-5.1528
 30
0.0
 10
70.7016
 20
-5.2112
 30
0.0
 10
70.7016
 20
-5.2112
 30
0.0
 10
70.6756
 20
-5.2893
 30
0.0
 10
70.6427
 20
-5.3571
 30
0.0
 10
70.6025
 20
-5.415
 30
0.0
 10
70.6025
 20
-5.415
 30
0.0
 10
70.5619
 20
-5.4731
 30
0.0
 10
70.5114
 20
-5.518
 30
0.0
 10
70.4512
 20
-5.5496
 30
0.0
 10
70.4512
 20
-5.5496
 30
0.0
 10
70.3911
 20
-5.5812
 30
0.0
 10
70.3193
 20
-5.5967
 30
0.0
 10
70.2358
 20
-5.5961
 30
0.0
 10
70.2358
 20
-5.5961
 30
0.0
 10
70.1621
 20
-5.5961
 30
0.0
 10
70.0956
 20
-5.5827
 30
0.0
 10
70.0347
 20
-5.5558
 30
0.0
 10
70.0347
 20
-5.5558
 30
0.0
 10
69.974
 20
-5.5289
 30
0.0
 10
69.9255
 20
-5.489
 30
0.0
 10
69.8886
 20
-5.4368
 30
0.0
 10
69.8886
 20
-5.4368
 30
0.0
 10
69.8518
 20
-5.3851
 30
0.0
 10
69.833
 20
-5.3209
 30
0.0
 10
69.8323
 20
-5.2454
 30
0.0
  0
SPLINE
  5
53
330
1F
100
AcDbEntity
  8
Ilustrace
 62
   250
370
    15
100
AcDbSpline
210
0.0
220
0.0
230
1.0
 70
    24
 71
     3
 72
     8
 73
     4
 74
     0
 42
0.0000000001
 43
0.0000000001
 40
0.0
 40
0.0
 40
0.0
 40
0.0
 40
1.0
 40
1.0
 40
1.0
 40
1.0
 10
55.585
 20
3.6193
 30
0.0
 10
55.585
 20
3.6193
 30
0.0
 10
55.585
 20
11.7844
 30
0.0
 10
55.585
 20
11.7844
 30
0.0
  0
SPLINE
  5
54
330
1F
100
AcDbEntity
  8
Ilustrace
 62
   250
370
    15
100
AcDbSpline
210
0.0
220
0.0
230
1.0
 70
    24
 71
     3
 72
     8
 73
     4
 74
     0
 42
0.0000000001
 43
0.0000000001
 40
0.0
 40
0.0
 40
0.0
 40
0.0
 40
1.0
 40
1.0
 40
1.0
 40
1.0
 10
-72.7286
 20
3.6237
 30
0.0
 10
-72.7286
 20
3.6237
 30
0.0
 10
-72.7286
 20
11.7845
 30
0.0
 10
-72.7286
 20
11.7845
 30
0.0
  0
SPLINE
  5
55
330
1F
100
AcDbEntity
  8
Ilustrace
 62
   250
100
AcDbSpline
210
0.0
220
0.0
230
1.0
 70
    11
 71
     3
 72
   124
 73
   120
 74
     0
 42
0.0000000001
 43
0.0000000001
 40
0.0
 40
0.0
 40
0.0
 40
0.0
 40
0.032258064516129
 40
0.032258064516129
 40
0.032258064516129
 40
0.032258064516129
 40
0.0645161290322581
 40
0.0645161290322581
 40
0.0645161290322581
 40
0.0645161290322581
 40
0.0967741935483871
 40
0.0967741935483871
 40
0.0967741935483871
 40
0.0967741935483871
 40
0.1290322580645161
 40
0.1290322580645161
 40
0.1290322580645161
 40
0.1290322580645161
 40
0.1612903225806452
 40
0.1612903225806452
 40
0.1612903225806452
 40
0.1612903225806452
 40
0.1935483870967742
 40
0.1935483870967742
 40
0.1935483870967742
 40
0.1935483870967742
 40
0.2258064516129032
 40
0.2258064516129032
 40
0.2258064516129032
 40
0.2258064516129032
 40
0.2580645161290323
 40
0.2580645161290323
 40
0.2580645161290323
 40
0.2580645161290323
 40
0.2903225806451613
 40
0.2903225806451613
 40
0.2903225806451613
 40
0.2903225806451613
 40
0.3225806451612903
 40
0.3225806451612903
 40
0.3225806451612903
 40
0.3225806451612903
 40
0.3548387096774194
 40
0.3548387096774194
 40
0.3548387096774194
 40
0.3548387096774194
 40
0.3870967741935484
 40
0.3870967741935484
 40
0.3870967741935484
 40
0.3870967741935484
 40
0.4193548387096774
 40
0.4193548387096774
 40
0.4193548387096774
 40
0.4193548387096774
 40
0.4516129032258064
 40
0.4516129032258064
 40
0.4516129032258064
 40
0.4516129032258064
 40
0.4838709677419355
 40
0.4838709677419355
 40
0.4838709677419355
 40
0.4838709677419355
 40
0.5161290322580645
 40
0.5161290322580645
 40
0.5161290322580645
 40
0.5161290322580645
 40
0.5483870967741935
 40
0.5483870967741935
 40
0.5483870967741935
 40
0.5483870967741935
 40
0.5806451612903226
 40
0.5806451612903226
 40
0.5806451612903226
 40
0.5806451612903226
 40
0.6129032258064516
 40
0.6129032258064516
 40
0.6129032258064516
 40
0.6129032258064516
 40
0.6451612903225806
 40
0.6451612903225806
 40
0.6451612903225806
 40
0.6451612903225806
 40
0.6774193548387096
 40
0.6774193548387096
 40
0.6774193548387096
 40
0.6774193548387096
 40
0.7096774193548387
 40
0.7096774193548387
 40
0.7096774193548387
 40
0.7096774193548387
 40
0.7419354838709677
 40
0.7419354838709677
 40
0.7419354838709677
 40
0.7419354838709677
 40
0.7741935483870968
 40
0.7741935483870968
 40
0.7741935483870968
 40
0.7741935483870968
 40
0.8064516129032258
 40
0.8064516129032258
 40
0.8064516129032258
 40
0.8064516129032258
 40
0.8387096774193549
 40
0.8387096774193549
 40
0.8387096774193549
 40
0.8387096774193549
 40
0.8709677419354839
 40
0.8709677419354839
 40
0.8709677419354839
 40
0.8709677419354839
 40
0.9032258064516129
 40
0.9032258064516129
 40
0.9032258064516129
 40
0.9032258064516129
 40
0.9354838709677419
 40
0.9354838709677419
 40
0.9354838709677419
 40
0.9354838709677419
 40
1.0
 40
1.0
 40
1.0
 40
1.0
 10
-17.8501
 20
12.1247
 30
0.0
 10
-17.8175
 20
12.1227
 30
0.0
 10
-17.7798
 20
12.1227
 30
0.0
 10
-17.7373
 20
12.1259
 30
0.0
 10
-17.7373
 20
12.1259
 30
0.0
 10
-17.6949
 20
12.1284
 30
0.0
 10
-17.6484
 20
12.1343
 30
0.0
 10
-17.5986
 20
12.144
 30
0.0
 10
-17.5986
 20
12.144
 30
0.0
 10
-17.5257
 20
12.1544
 30
0.0
 10
-17.4543
 20
12.1743
 30
0.0
 10
-17.3845
 20
12.2029
 30
0.0
 10
-17.3845
 20
12.2029
 30
0.0
 10
-17.3147
 20
12.2319
 30
0.0
 10
-17.2479
 20
12.2701
 30
0.0
 10
-17.1848
 20
12.3167
 30
0.0
 10
-17.1848
 20
12.3167
 30
0.0
 10
-17.1217
 20
12.3632
 30
0.0
 10
-17.0642
 20
12.4182
 30
0.0
 10
-17.0119
 20
12.4816
 30
0.0
 10
-17.0119
 20
12.4816
 30
0.0
 10
-16.9452
 20
12.5617
 30
0.0
 10
-16.8857
 20
12.6582
 30
0.0
 10
-16.8334
 20
12.7719
 30
0.0
 10
-16.8334
 20
12.7719
 30
0.0
 10
-16.7812
 20
12.8851
 30
0.0
 10
-16.7403
 20
13.0158
 30
0.0
 10
-16.7103
 20
13.1638
 30
0.0
 10
-16.7103
 20
13.1638
 30
0.0
 10
-16.6804
 20
13.3119
 30
0.0
 10
-16.6649
 20
13.4774
 30
0.0
 10
-16.6643
 20
13.6611
 30
0.0
 10
-16.6643
 20
13.6611
 30
0.0
 10
-16.6643
 20
13.8248
 30
0.0
 10
-16.6798
 20
13.9715
 30
0.0
 10
-16.7103
 20
14.1028
 30
0.0
 10
-16.7103
 20
14.1028
 30
0.0
 10
-16.7409
 20
14.2341
 30
0.0
 10
-16.7854
 20
14.346
 30
0.0
 10
-16.8433
 20
14.4393
 30
0.0
 10
-16.8433
 20
14.4393
 30
0.0
 10
-16.9013
 20
14.5323
 30
0.0
 10
-16.971
 20
14.6034
 30
0.0
 10
-17.0534
 20
14.6532
 30
0.0
 10
-17.0534
 20
14.6532
 30
0.0
 10
-17.1356
 20
14.7031
 30
0.0
 10
-17.2283
 20
14.7276
 30
0.0
 10
-17.3317
 20
14.7282
 30
0.0
 10
-17.3317
 20
14.7282
 30
0.0
 10
-17.4352
 20
14.7276
 30
0.0
 10
-17.5293
 20
14.7031
 30
0.0
 10
-17.6137
 20
14.6552
 30
0.0
 10
-17.6137
 20
14.6552
 30
0.0
 10
-17.698
 20
14.608
 30
0.0
 10
-17.7705
 20
14.542
 30
0.0
 10
-17.831
 20
14.4592
 30
0.0
 10
-17.831
 20
14.4592
 30
0.0
 10
-17.892
 20
14.3758
 30
0.0
 10
-17.9386
 20
14.2807
 30
0.0
 10
-17.9712
 20
14.1733
 30
0.0
 10
-17.9712
 20
14.1733
 30
0.0
 10
-18.0038
 20
14.066
 30
0.0
 10
-18.0203
 20
13.9522
 30
0.0
 10
-18.0208
 20
13.8318
 30
0.0
 10
-18.0208
 20
13.8318
 30
0.0
 10
-18.0203
 20
13.7239
 30
0.0
 10
-18.0063
 20
13.6231
 30
0.0
 10
-17.9789
 20
13.5298
 30
0.0
 10
-17.9789
 20
13.5298
 30
0.0
 10
-17.951
 20
13.4362
 30
0.0
 10
-17.9111
 20
13.3546
 30
0.0
 10
-17.8594
 20
13.2841
 30
0.0
 10
-17.8594
 20
13.2841
 30
0.0
 10
-17.8076
 20
13.2143
 30
0.0
 10
-17.7451
 20
13.1593
 30
0.0
 10
-17.6726
 20
13.1198
 30
0.0
 10
-17.6726
 20
13.1198
 30
0.0
 10
-17.5997
 20
13.0804
 30
0.0
 10
-17.5184
 20
13.0605
 30
0.0
 10
-17.4279
 20
13.0598
 30
0.0
 10
-17.4279
 20
13.0598
 30
0.0
 10
-17.3254
 20
13.0605
 30
0.0
 10
-17.2339
 20
13.0836
 30
0.0
 10
-17.1537
 20
13.1295
 30
0.0
 10
-17.1537
 20
13.1295
 30
0.0
 10
-17.0741
 20
13.1754
 30
0.0
 10
-17.0058
 20
13.2414
 30
0.0
 10
-16.9499
 20
13.3275
 30
0.0
 10
-16.9499
 20
13.3275
 30
0.0
 10
-16.9499
 20
13.3275
 30
0.0
 10
-16.9406
 20
13.3275
 30
0.0
 10
-16.9406
 20
13.3275
 30
0.0
 10
-16.9406
 20
13.3275
 30
0.0
 10
-16.9597
 20
13.1801
 30
0.0
 10
-16.9923
 20
13.0506
 30
0.0
 10
-17.0379
 20
12.9401
 30
0.0
 10
-17.0379
 20
12.9401
 30
0.0
 10
-17.0838
 20
12.8289
 30
0.0
 10
-17.1403
 20
12.7357
 30
0.0
 10
-17.2075
 20
12.66
 30
0.0
 10
-17.2075
 20
12.66
 30
0.0
 10
-17.2654
 20
12.5902
 30
0.0
 10
-17.3302
 20
12.5359
 30
0.0
 10
-17.402
 20
12.4957
 30
0.0
 10
-17.402
 20
12.4957
 30
0.0
 10
-17.4739
 20
12.4557
 30
0.0
 10
-17.55
 20
12.4292
 30
0.0
 10
-17.6297
 20
12.4156
 30
0.0
 10
-17.6297
 20
12.4156
 30
0.0
 10
-17.6758
 20
12.4098
 30
0.0
 10
-17.7171
 20
12.4053
 30
0.0
 10
-17.7528
 20
12.4026
 30
0.0
 10
-17.7528
 20
12.4026
 30
0.0
 10
-17.7886
 20
12.4001
 30
0.0
 10
-17.8211
 20
12.4001
 30
0.0
 10
-17.8501
 20
12.4039
 30
0.0
 10
-17.8501
 20
12.4039
 30
0.0
 10
-17.8501
 20
12.4039
 30
0.0
 10
-17.8501
 20
12.1247
 30
0.0
 10
-17.8501
 20
12.1247
 30
0.0
  0
SPLINE
  5
56
330
1F
100
AcDbEntity
  8
Ilustrace
 62
   250
100
AcDbSpline
210
0.0
220
0.0
230
1.0
 70
    11
 71
     3
 72
    64
 73
    60
 74
     0
 42
0.0000000001
 43
0.0000000001
 40
0.0
 40
0.0
 40
0.0
 40
0.0
 40
0.0625
 40
0.0625
 40
0.0625
 40
0.0625
 40
0.125
 40
0.125
 40
0.125
 40
0.125
 40
0.1875
 40
0.1875
 40
0.1875
 40
0.1875
 40
0.25
 40
0.25
 40
0.25
 40
0.25
 40
0.3125
 40
0.3125
 40
0.3125
 40
0.3125
 40
0.375
 40
0.375
 40
0.375
 40
0.375
 40
0.4375
 40
0.4375
 40
0.4375
 40
0.4375
 40
0.5
 40
0.5
 40
0.5
 40
0.5
 40
0.5625
 40
0.5625
 40
0.5625
 40
0.5625
 40
0.625
 40
0.625
 40
0.625
 40
0.625
 40
0.6875
 40
0.6875
 40
0.6875
 40
0.6875
 40
0.75
 40
0.75
 40
0.75
 40
0.75
 40
0.8125
 40
0.8125
 40
0.8125
 40
0.8125
 40
0.875
 40
0.875
 40
0.875
 40
0.875
 40
1.0
 40
1.0
 40
1.0
 40
1.0
 10
-17.3566
 20
14.4683
 30
0.0
 10
-17.2847
 20
14.4676
 30
0.0
 10
-17.222
 20
14.4482
 30
0.0
 10
-17.1698
 20
14.41
 30
0.0
 10
-17.1698
 20
14.41
 30
0.0
 10
-17.1175
 20
14.3718
 30
0.0
 10
-17.0741
 20
14.3182
 30
0.0
 10
-17.0405
 20
14.2497
 30
0.0
 10
-17.0405
 20
14.2497
 30
0.0
 10
-17.0063
 20
14.1812
 30
0.0
 10
-16.9814
 20
14.1003
 30
0.0
 10
-16.9649
 20
14.0085
 30
0.0
 10
-16.9649
 20
14.0085
 30
0.0
 10
-16.9484
 20
13.9159
 30
0.0
 10
-16.9406
 20
13.8157
 30
0.0
 10
-16.9406
 20
13.7077
 30
0.0
 10
-16.9406
 20
13.7077
 30
0.0
 10
-16.9406
 20
13.6792
 30
0.0
 10
-16.9426
 20
13.6546
 30
0.0
 10
-16.9472
 20
13.6353
 30
0.0
 10
-16.9472
 20
13.6353
 30
0.0
 10
-16.9514
 20
13.6152
 30
0.0
 10
-16.9577
 20
13.5965
 30
0.0
 10
-16.9654
 20
13.5797
 30
0.0
 10
-16.9654
 20
13.5797
 30
0.0
 10
-16.9893
 20
13.5286
 30
0.0
 10
-17.0208
 20
13.4834
 30
0.0
 10
-17.0596
 20
13.4439
 30
0.0
 10
-17.0596
 20
13.4439
 30
0.0
 10
-17.0979
 20
13.4045
 30
0.0
 10
-17.1429
 20
13.3734
 30
0.0
 10
-17.1941
 20
13.3508
 30
0.0
 10
-17.1941
 20
13.3508
 30
0.0
 10
-17.2454
 20
13.3281
 30
0.0
 10
-17.3017
 20
13.3164
 30
0.0
 10
-17.3627
 20
13.3159
 30
0.0
 10
-17.3627
 20
13.3159
 30
0.0
 10
-17.4419
 20
13.3164
 30
0.0
 10
-17.5102
 20
13.3397
 30
0.0
 10
-17.5682
 20
13.3851
 30
0.0
 10
-17.5682
 20
13.3851
 30
0.0
 10
-17.6261
 20
13.4303
 30
0.0
 10
-17.671
 20
13.4923
 30
0.0
 10
-17.7026
 20
13.5725
 30
0.0
 10
-17.7026
 20
13.5725
 30
0.0
 10
-17.7342
 20
13.6528
 30
0.0
 10
-17.7502
 20
13.7459
 30
0.0
 10
-17.7508
 20
13.8514
 30
0.0
 10
-17.7508
 20
13.8514
 30
0.0
 10
-17.7502
 20
13.973
 30
0.0
 10
-17.7332
 20
14.0797
 30
0.0
 10
-17.6996
 20
14.1715
 30
0.0
 10
-17.6996
 20
14.1715
 30
0.0
 10
-17.6659
 20
14.2639
 30
0.0
 10
-17.6198
 20
14.3363
 30
0.0
 10
-17.5609
 20
14.3887
 30
0.0
 10
-17.5609
 20
14.3887
 30
0.0
 10
-17.5019
 20
14.4411
 30
0.0
 10
-17.4336
 20
14.4676
 30
0.0
 10
-17.3566
 20
14.4683
 30
0.0
  0
SPLINE
  5
57
330
1F
100
AcDbEntity
  8
Ilustrace
 62
   250
100
AcDbSpline
210
0.0
220
0.0
230
1.0
 70
    11
 71
     3
 72
   124
 73
   120
 74
     0
 42
0.0000000001
 43
0.0000000001
 40
0.0
 40
0.0
 40
0.0
 40
0.0
 40
0.032258064516129
 40
0.032258064516129
 40
0.032258064516129
 40
0.032258064516129
 40
0.0645161290322581
 40
0.0645161290322581
 40
0.0645161290322581
 40
0.0645161290322581
 40
0.0967741935483871
 40
0.0967741935483871
 40
0.0967741935483871
 40
0.0967741935483871
 40
0.1290322580645161
 40
0.1290322580645161
 40
0.1290322580645161
 40
0.1290322580645161
 40
0.1612903225806452
 40
0.1612903225806452
 40
0.1612903225806452
 40
0.1612903225806452
 40
0.1935483870967742
 40
0.1935483870967742
 40
0.1935483870967742
 40
0.1935483870967742
 40
0.2258064516129032
 40
0.2258064516129032
 40
0.2258064516129032
 40
0.2258064516129032
 40
0.2580645161290323
 40
0.2580645161290323
 40
0.2580645161290323
 40
0.2580645161290323
 40
0.2903225806451613
 40
0.2903225806451613
 40
0.2903225806451613
 40
0.2903225806451613
 40
0.3225806451612903
 40
0.3225806451612903
 40
0.3225806451612903
 40
0.3225806451612903
 40
0.3548387096774194
 40
0.3548387096774194
 40
0.3548387096774194
 40
0.3548387096774194
 40
0.3870967741935484
 40
0.3870967741935484
 40
0.3870967741935484
 40
0.3870967741935484
 40
0.4193548387096774
 40
0.4193548387096774
 40
0.4193548387096774
 40
0.4193548387096774
 40
0.4516129032258064
 40
0.4516129032258064
 40
0.4516129032258064
 40
0.4516129032258064
 40
0.4838709677419355
 40
0.4838709677419355
 40
0.4838709677419355
 40
0.4838709677419355
 40
0.5161290322580645
 40
0.5161290322580645
 40
0.5161290322580645
 40
0.5161290322580645
 40
0.5483870967741935
 40
0.5483870967741935
 40
0.5483870967741935
 40
0.5483870967741935
 40
0.5806451612903226
 40
0.5806451612903226
 40
0.5806451612903226
 40
0.5806451612903226
 40
0.6129032258064516
 40
0.6129032258064516
 40
0.6129032258064516
 40
0.6129032258064516
 40
0.6451612903225806
 40
0.6451612903225806
 40
0.6451612903225806
 40
0.6451612903225806
 40
0.6774193548387096
 40
0.6774193548387096
 40
0.6774193548387096
 40
0.6774193548387096
 40
0.7096774193548387
 40
0.7096774193548387
 40
0.7096774193548387
 40
0.7096774193548387
 40
0.7419354838709677
 40
0.7419354838709677
 40
0.7419354838709677
 40
0.7419354838709677
 40
0.7741935483870968
 40
0.7741935483870968
 40
0.7741935483870968
 40
0.7741935483870968
 40
0.8064516129032258
 40
0.8064516129032258
 40
0.8064516129032258
 40
0.8064516129032258
 40
0.8387096774193549
 40
0.8387096774193549
 40
0.8387096774193549
 40
0.8387096774193549
 40
0.8709677419354839
 40
0.8709677419354839
 40
0.8709677419354839
 40
0.8709677419354839
 40
0.9032258064516129
 40
0.9032258064516129
 40
0.9032258064516129
 40
0.9032258064516129
 40
0.9354838709677419
 40
0.9354838709677419
 40
0.9354838709677419
 40
0.9354838709677419
 40
1.0
 40
1.0
 40
1.0
 40
1.0
 10
-16.2577
 20
12.1247
 30
0.0
 10
-16.2251
 20
12.1227
 30
0.0
 10
-16.1874
 20
12.1227
 30
0.0
 10
-16.1449
 20
12.1259
 30
0.0
 10
-16.1449
 20
12.1259
 30
0.0
 10
-16.1024
 20
12.1284
 30
0.0
 10
-16.056
 20
12.1343
 30
0.0
 10
-16.0062
 20
12.144
 30
0.0
 10
-16.0062
 20
12.144
 30
0.0
 10
-15.9333
 20
12.1544
 30
0.0
 10
-15.8618
 20
12.1743
 30
0.0
 10
-15.7921
 20
12.2029
 30
0.0
 10
-15.7921
 20
12.2029
 30
0.0
 10
-15.7222
 20
12.2319
 30
0.0
 10
-15.6555
 20
12.2701
 30
0.0
 10
-15.5924
 20
12.3167
 30
0.0
 10
-15.5924
 20
12.3167
 30
0.0
 10
-15.5293
 20
12.3632
 30
0.0
 10
-15.4717
 20
12.4182
 30
0.0
 10
-15.4195
 20
12.4816
 30
0.0
 10
-15.4195
 20
12.4816
 30
0.0
 10
-15.3528
 20
12.5617
 30
0.0
 10
-15.2933
 20
12.6582
 30
0.0
 10
-15.241
 20
12.7719
 30
0.0
 10
-15.241
 20
12.7719
 30
0.0
 10
-15.1888
 20
12.8851
 30
0.0
 10
-15.1479
 20
13.0158
 30
0.0
 10
-15.1179
 20
13.1638
 30
0.0
 10
-15.1179
 20
13.1638
 30
0.0
 10
-15.0879
 20
13.3119
 30
0.0
 10
-15.0724
 20
13.4774
 30
0.0
 10
-15.0719
 20
13.6611
 30
0.0
 10
-15.0719
 20
13.6611
 30
0.0
 10
-15.0719
 20
13.8248
 30
0.0
 10
-15.0874
 20
13.9715
 30
0.0
 10
-15.1179
 20
14.1028
 30
0.0
 10
-15.1179
 20
14.1028
 30
0.0
 10
-15.1485
 20
14.2341
 30
0.0
 10
-15.193
 20
14.346
 30
0.0
 10
-15.2509
 20
14.4393
 30
0.0
 10
-15.2509
 20
14.4393
 30
0.0
 10
-15.3089
 20
14.5323
 30
0.0
 10
-15.3786
 20
14.6034
 30
0.0
 10
-15.461
 20
14.6532
 30
0.0
 10
-15.461
 20
14.6532
 30
0.0
 10
-15.5432
 20
14.7031
 30
0.0
 10
-15.6359
 20
14.7276
 30
0.0
 10
-15.7393
 20
14.7282
 30
0.0
 10
-15.7393
 20
14.7282
 30
0.0
 10
-15.8428
 20
14.7276
 30
0.0
 10
-15.9369
 20
14.7031
 30
0.0
 10
-16.0212
 20
14.6552
 30
0.0
 10
-16.0212
 20
14.6552
 30
0.0
 10
-16.1056
 20
14.608
 30
0.0
 10
-16.1781
 20
14.542
 30
0.0
 10
-16.2386
 20
14.4592
 30
0.0
 10
-16.2386
 20
14.4592
 30
0.0
 10
-16.2996
 20
14.3758
 30
0.0
 10
-16.3462
 20
14.2807
 30
0.0
 10
-16.3788
 20
14.1733
 30
0.0
 10
-16.3788
 20
14.1733
 30
0.0
 10
-16.4113
 20
14.066
 30
0.0
 10
-16.4278
 20
13.9522
 30
0.0
 10
-16.4284
 20
13.8318
 30
0.0
 10
-16.4284
 20
13.8318
 30
0.0
 10
-16.4278
 20
13.7239
 30
0.0
 10
-16.4139
 20
13.6231
 30
0.0
 10
-16.3865
 20
13.5298
 30
0.0
 10
-16.3865
 20
13.5298
 30
0.0
 10
-16.3585
 20
13.4362
 30
0.0
 10
-16.3187
 20
13.3546
 30
0.0
 10
-16.267
 20
13.2841
 30
0.0
 10
-16.267
 20
13.2841
 30
0.0
 10
-16.2152
 20
13.2143
 30
0.0
 10
-16.1527
 20
13.1593
 30
0.0
 10
-16.0802
 20
13.1198
 30
0.0
 10
-16.0802
 20
13.1198
 30
0.0
 10
-16.0073
 20
13.0804
 30
0.0
 10
-15.926
 20
13.0605
 30
0.0
 10
-15.8354
 20
13.0598
 30
0.0
 10
-15.8354
 20
13.0598
 30
0.0
 10
-15.733
 20
13.0605
 30
0.0
 10
-15.6415
 20
13.0836
 30
0.0
 10
-15.5613
 20
13.1295
 30
0.0
 10
-15.5613
 20
13.1295
 30
0.0
 10
-15.4816
 20
13.1754
 30
0.0
 10
-15.4133
 20
13.2414
 30
0.0
 10
-15.3575
 20
13.3275
 30
0.0
 10
-15.3575
 20
13.3275
 30
0.0
 10
-15.3575
 20
13.3275
 30
0.0
 10
-15.3482
 20
13.3275
 30
0.0
 10
-15.3482
 20
13.3275
 30
0.0
 10
-15.3482
 20
13.3275
 30
0.0
 10
-15.3673
 20
13.1801
 30
0.0
 10
-15.3999
 20
13.0506
 30
0.0
 10
-15.4455
 20
12.9401
 30
0.0
 10
-15.4455
 20
12.9401
 30
0.0
 10
-15.4914
 20
12.8289
 30
0.0
 10
-15.5479
 20
12.7357
 30
0.0
 10
-15.6151
 20
12.66
 30
0.0
 10
-15.6151
 20
12.66
 30
0.0
 10
-15.673
 20
12.5902
 30
0.0
 10
-15.7377
 20
12.5359
 30
0.0
 10
-15.8096
 20
12.4957
 30
0.0
 10
-15.8096
 20
12.4957
 30
0.0
 10
-15.8815
 20
12.4557
 30
0.0
 10
-15.9575
 20
12.4292
 30
0.0
 10
-16.0373
 20
12.4156
 30
0.0
 10
-16.0373
 20
12.4156
 30
0.0
 10
-16.0834
 20
12.4098
 30
0.0
 10
-16.1247
 20
12.4053
 30
0.0
 10
-16.1604
 20
12.4026
 30
0.0
 10
-16.1604
 20
12.4026
 30
0.0
 10
-16.1961
 20
12.4001
 30
0.0
 10
-16.2287
 20
12.4001
 30
0.0
 10
-16.2577
 20
12.4039
 30
0.0
 10
-16.2577
 20
12.4039
 30
0.0
 10
-16.2577
 20
12.4039
 30
0.0
 10
-16.2577
 20
12.1247
 30
0.0
 10
-16.2577
 20
12.1247
 30
0.0
  0
SPLINE
  5
58
330
1F
100
AcDbEntity
  8
Ilustrace
 62
   250
100
AcDbSpline
210
0.0
220
0.0
230
1.0
 70
    11
 71
     3
 72
    64
 73
    60
 74
     0
 42
0.0000000001
 43
0.0000000001
 40
0.0
 40
0.0
 40
0.0
 40
0.0
 40
0.0625
 40
0.0625
 40
0.0625
 40
0.0625
 40
0.125
 40
0.125
 40
0.125
 40
0.125
 40
0.1875
 40
0.1875
 40
0.1875
 40
0.1875
 40
0.25
 40
0.25
 40
0.25
 40
0.25
 40
0.3125
 40
0.3125
 40
0.3125
 40
0.3125
 40
0.375
 40
0.375
 40
0.375
 40
0.375
 40
0.4375
 40
0.4375
 40
0.4375
 40
0.4375
 40
0.5
 40
0.5
 40
0.5
 40
0.5
 40
0.5625
 40
0.5625
 40
0.5625
 40
0.5625
 40
0.625
 40
0.625
 40
0.625
 40
0.625
 40
0.6875
 40
0.6875
 40
0.6875
 40
0.6875
 40
0.75
 40
0.75
 40
0.75
 40
0.75
 40
0.8125
 40
0.8125
 40
0.8125
 40
0.8125
 40
0.875
 40
0.875
 40
0.875
 40
0.875
 40
1.0
 40
1.0
 40
1.0
 40
1.0
 10
-15.7641
 20
14.4683
 30
0.0
 10
-15.6923
 20
14.4676
 30
0.0
 10
-15.6296
 20
14.4482
 30
0.0
 10
-15.5773
 20
14.41
 30
0.0
 10
-15.5773
 20
14.41
 30
0.0
 10
-15.5251
 20
14.3718
 30
0.0
 10
-15.4816
 20
14.3182
 30
0.0
 10
-15.4481
 20
14.2497
 30
0.0
 10
-15.4481
 20
14.2497
 30
0.0
 10
-15.4139
 20
14.1812
 30
0.0
 10
-15.389
 20
14.1003
 30
0.0
 10
-15.3725
 20
14.0085
 30
0.0
 10
-15.3725
 20
14.0085
 30
0.0
 10
-15.356
 20
13.9159
 30
0.0
 10
-15.3482
 20
13.8157
 30
0.0
 10
-15.3482
 20
13.7077
 30
0.0
 10
-15.3482
 20
13.7077
 30
0.0
 10
-15.3482
 20
13.6792
 30
0.0
 10
-15.3502
 20
13.6546
 30
0.0
 10
-15.3548
 20
13.6353
 30
0.0
 10
-15.3548
 20
13.6353
 30
0.0
 10
-15.359
 20
13.6152
 30
0.0
 10
-15.3653
 20
13.5965
 30
0.0
 10
-15.373
 20
13.5797
 30
0.0
 10
-15.373
 20
13.5797
 30
0.0
 10
-15.3968
 20
13.5286
 30
0.0
 10
-15.4284
 20
13.4834
 30
0.0
 10
-15.4671
 20
13.4439
 30
0.0
 10
-15.4671
 20
13.4439
 30
0.0
 10
-15.5055
 20
13.4045
 30
0.0
 10
-15.5505
 20
13.3734
 30
0.0
 10
-15.6017
 20
13.3508
 30
0.0
 10
-15.6017
 20
13.3508
 30
0.0
 10
-15.6529
 20
13.3281
 30
0.0
 10
-15.7093
 20
13.3164
 30
0.0
 10
-15.7703
 20
13.3159
 30
0.0
 10
-15.7703
 20
13.3159
 30
0.0
 10
-15.8495
 20
13.3164
 30
0.0
 10
-15.9178
 20
13.3397
 30
0.0
 10
-15.9758
 20
13.3851
 30
0.0
 10
-15.9758
 20
13.3851
 30
0.0
 10
-16.0337
 20
13.4303
 30
0.0
 10
-16.0786
 20
13.4923
 30
0.0
 10
-16.1102
 20
13.5725
 30
0.0
 10
-16.1102
 20
13.5725
 30
0.0
 10
-16.1418
 20
13.6528
 30
0.0
 10
-16.1578
 20
13.7459
 30
0.0
 10
-16.1584
 20
13.8514
 30
0.0
 10
-16.1584
 20
13.8514
 30
0.0
 10
-16.1578
 20
13.973
 30
0.0
 10
-16.1408
 20
14.0797
 30
0.0
 10
-16.1072
 20
14.1715
 30
0.0
 10
-16.1072
 20
14.1715
 30
0.0
 10
-16.0735
 20
14.2639
 30
0.0
 10
-16.0274
 20
14.3363
 30
0.0
 10
-15.9684
 20
14.3887
 30
0.0
 10
-15.9684
 20
14.3887
 30
0.0
 10
-15.9095
 20
14.4411
 30
0.0
 10
-15.8412
 20
14.4676
 30
0.0
 10
-15.7641
 20
14.4683
 30
0.0
  0
SPLINE
  5
59
330
1F
100
AcDbEntity
  8
Ilustrace
 62
   250
100
AcDbSpline
210
0.0
220
0.0
230
1.0
 70
    11
 71
     3
 72
   124
 73
   120
 74
     0
 42
0.0000000001
 43
0.0000000001
 40
0.0
 40
0.0
 40
0.0
 40
0.0
 40
0.032258064516129
 40
0.032258064516129
 40
0.032258064516129
 40
0.032258064516129
 40
0.0645161290322581
 40
0.0645161290322581
 40
0.0645161290322581
 40
0.0645161290322581
 40
0.0967741935483871
 40
0.0967741935483871
 40
0.0967741935483871
 40
0.0967741935483871
 40
0.1290322580645161
 40
0.1290322580645161
 40
0.1290322580645161
 40
0.1290322580645161
 40
0.1612903225806452
 40
0.1612903225806452
 40
0.1612903225806452
 40
0.1612903225806452
 40
0.1935483870967742
 40
0.1935483870967742
 40
0.1935483870967742
 40
0.1935483870967742
 40
0.2258064516129032
 40
0.2258064516129032
 40
0.2258064516129032
 40
0.2258064516129032
 40
0.2580645161290323
 40
0.2580645161290323
 40
0.2580645161290323
 40
0.2580645161290323
 40
0.2903225806451613
 40
0.2903225806451613
 40
0.2903225806451613
 40
0.2903225806451613
 40
0.3225806451612903
 40
0.3225806451612903
 40
0.3225806451612903
 40
0.3225806451612903
 40
0.3548387096774194
 40
0.3548387096774194
 40
0.3548387096774194
 40
0.3548387096774194
 40
0.3870967741935484
 40
0.3870967741935484
 40
0.3870967741935484
 40
0.3870967741935484
 40
0.4193548387096774
 40
0.4193548387096774
 40
0.4193548387096774
 40
0.4193548387096774
 40
0.4516129032258064
 40
0.4516129032258064
 40
0.4516129032258064
 40
0.4516129032258064
 40
0.4838709677419355
 40
0.4838709677419355
 40
0.4838709677419355
 40
0.4838709677419355
 40
0.5161290322580645
 40
0.5161290322580645
 40
0.5161290322580645
 40
0.5161290322580645
 40
0.5483870967741935
 40
0.5483870967741935
 40
0.5483870967741935
 40
0.5483870967741935
 40
0.5806451612903226
 40
0.5806451612903226
 40
0.5806451612903226
 40
0.5806451612903226
 40
0.6129032258064516
 40
0.6129032258064516
 40
0.6129032258064516
 40
0.6129032258064516
 40
0.6451612903225806
 40
0.6451612903225806
 40
0.6451612903225806
 40
0.6451612903225806
 40
0.6774193548387096
 40
0.6774193548387096
 40
0.6774193548387096
 40
0.6774193548387096
 40
0.7096774193548387
 40
0.7096774193548387
 40
0.7096774193548387
 40
0.7096774193548387
 40
0.7419354838709677
 40
0.7419354838709677
 40
0.7419354838709677
 40
0.7419354838709677
 40
0.7741935483870968
 40
0.7741935483870968
 40
0.7741935483870968
 40
0.7741935483870968
 40
0.8064516129032258
 40
0.8064516129032258
 40
0.8064516129032258
 40
0.8064516129032258
 40
0.8387096774193549
 40
0.8387096774193549
 40
0.8387096774193549
 40
0.8387096774193549
 40
0.8709677419354839
 40
0.8709677419354839
 40
0.8709677419354839
 40
0.8709677419354839
 40
0.9032258064516129
 40
0.9032258064516129
 40
0.9032258064516129
 40
0.9032258064516129
 40
0.9354838709677419
 40
0.9354838709677419
 40
0.9354838709677419
 40
0.9354838709677419
 40
1.0
 40
1.0
 40
1.0
 40
1.0
 10
-14.4479
 20
13.4789
 30
0.0
 10
-14.5313
 20
13.4348
 30
0.0
 10
-14.6027
 20
13.3799
 30
0.0
 10
-14.6621
 20
13.3151
 30
0.0
 10
-14.6621
 20
13.3151
 30
0.0
 10
-14.7217
 20
13.2499
 30
0.0
 10
-14.7677
 20
13.1742
 30
0.0
 10
-14.7998
 20
13.0883
 30
0.0
 10
-14.7998
 20
13.0883
 30
0.0
 10
-14.8318
 20
13.0022
 30
0.0
 10
-14.8479
 20
12.9059
 30
0.0
 10
-14.8483
 20
12.7997
 30
0.0
 10
-14.8483
 20
12.7997
 30
0.0
 10
-14.8479
 20
12.7066
 30
0.0
 10
-14.8328
 20
12.62
 30
0.0
 10
-14.8019
 20
12.5379
 30
0.0
 10
-14.8019
 20
12.5379
 30
0.0
 10
-14.7713
 20
12.4564
 30
0.0
 10
-14.7268
 20
12.3845
 30
0.0
 10
-14.6684
 20
12.3218
 30
0.0
 10
-14.6684
 20
12.3218
 30
0.0
 10
-14.6099
 20
12.2597
 30
0.0
 10
-14.539
 20
12.2106
 30
0.0
 10
-14.4558
 20
12.1751
 30
0.0
 10
-14.4558
 20
12.1751
 30
0.0
 10
-14.3719
 20
12.1395
 30
0.0
 10
-14.2772
 20
12.1214
 30
0.0
 10
-14.1717
 20
12.1207
 30
0.0
 10
-14.1717
 20
12.1207
 30
0.0
 10
-14.0749
 20
12.1214
 30
0.0
 10
-13.9849
 20
12.1388
 30
0.0
 10
-13.9021
 20
12.1731
 30
0.0
 10
-13.9021
 20
12.1731
 30
0.0
 10
-13.8193
 20
12.2073
 30
0.0
 10
-13.7465
 20
12.2572
 30
0.0
 10
-13.6843
 20
12.3218
 30
0.0
 10
-13.6843
 20
12.3218
 30
0.0
 10
-13.6222
 20
12.3858
 30
0.0
 10
-13.5736
 20
12.4629
 30
0.0
 10
-13.539
 20
12.5528
 30
0.0
 10
-13.539
 20
12.5528
 30
0.0
 10
-13.5037
 20
12.6426
 30
0.0
 10
-13.4862
 20
12.7429
 30
0.0
 10
-13.4856
 20
12.854
 30
0.0
 10
-13.4856
 20
12.854
 30
0.0
 10
-13.4862
 20
12.955
 30
0.0
 10
-13.5027
 20
13.0468
 30
0.0
 10
-13.5353
 20
13.1302
 30
0.0
 10
-13.5353
 20
13.1302
 30
0.0
 10
-13.568
 20
13.2131
 30
0.0
 10
-13.6145
 20
13.2861
 30
0.0
 10
-13.675
 20
13.3489
 30
0.0
 10
-13.675
 20
13.3489
 30
0.0
 10
-13.7356
 20
13.4122
 30
0.0
 10
-13.808
 20
13.4645
 30
0.0
 10
-13.8924
 20
13.506
 30
0.0
 10
-13.8924
 20
13.506
 30
0.0
 10
-13.8924
 20
13.506
 30
0.0
 10
-13.8924
 20
13.5176
 30
0.0
 10
-13.8924
 20
13.5176
 30
0.0
 10
-13.8924
 20
13.5176
 30
0.0
 10
-13.81
 20
13.566
 30
0.0
 10
-13.7443
 20
13.6224
 30
0.0
 10
-13.6952
 20
13.6871
 30
0.0
 10
-13.6952
 20
13.6871
 30
0.0
 10
-13.646
 20
13.7511
 30
0.0
 10
-13.6103
 20
13.8196
 30
0.0
 10
-13.5886
 20
13.8914
 30
0.0
 10
-13.5886
 20
13.8914
 30
0.0
 10
-13.5674
 20
13.9638
 30
0.0
 10
-13.5565
 20
14.0356
 30
0.0
 10
-13.5571
 20
14.1075
 30
0.0
 10
-13.5571
 20
14.1075
 30
0.0
 10
-13.5571
 20
14.1876
 30
0.0
 10
-13.5694
 20
14.2651
 30
0.0
 10
-13.5944
 20
14.339
 30
0.0
 10
-13.5944
 20
14.339
 30
0.0
 10
-13.6192
 20
14.4127
 30
0.0
 10
-13.6559
 20
14.4785
 30
0.0
 10
-13.705
 20
14.5375
 30
0.0
 10
-13.705
 20
14.5375
 30
0.0
 10
-13.7546
 20
14.5956
 30
0.0
 10
-13.8162
 20
14.6423
 30
0.0
 10
-13.8898
 20
14.6758
 30
0.0
 10
-13.8898
 20
14.6758
 30
0.0
 10
-13.9633
 20
14.7101
 30
0.0
 10
-14.049
 20
14.7276
 30
0.0
 10
-14.1469
 20
14.7282
 30
0.0
 10
-14.1469
 20
14.7282
 30
0.0
 10
-14.2364
 20
14.7276
 30
0.0
 10
-14.3196
 20
14.7115
 30
0.0
 10
-14.3953
 20
14.6798
 30
0.0
 10
-14.3953
 20
14.6798
 30
0.0
 10
-14.4713
 20
14.6475
 30
0.0
 10
-14.5374
 20
14.6021
 30
0.0
 10
-14.5944
 20
14.5426
 30
0.0
 10
-14.5944
 20
14.5426
 30
0.0
 10
-14.6508
 20
14.4832
 30
0.0
 10
-14.6947
 20
14.4127
 30
0.0
 10
-14.7262
 20
14.3306
 30
0.0
 10
-14.7262
 20
14.3306
 30
0.0
 10
-14.7574
 20
14.2484
 30
0.0
 10
-14.7734
 20
14.1572
 30
0.0
 10
-14.7739
 20
14.0569
 30
0.0
 10
-14.7739
 20
14.0569
 30
0.0
 10
-14.7739
 20
13.9839
 30
0.0
 10
-14.763
 20
13.9127
 30
0.0
 10
-14.7403
 20
13.8429
 30
0.0
 10
-14.7403
 20
13.8429
 30
0.0
 10
-14.7181
 20
13.773
 30
0.0
 10
-14.6829
 20
13.7077
 30
0.0
 10
-14.6353
 20
13.6476
 30
0.0
 10
-14.6353
 20
13.6476
 30
0.0
 10
-14.5876
 20
13.5874
 30
0.0
 10
-14.5267
 20
13.535
 30
0.0
 10
-14.4511
 20
13.4905
 30
0.0
 10
-14.4511
 20
13.4905
 30
0.0
 10
-14.4511
 20
13.4905
 30
0.0
 10
-14.4479
 20
13.4789
 30
0.0
 10
-14.4479
 20
13.4789
 30
0.0
  0
SPLINE
  5
5A
330
1F
100
AcDbEntity
  8
Ilustrace
 62
   250
100
AcDbSpline
210
0.0
220
0.0
230
1.0
 70
    11
 71
     3
 72
    56
 73
    52
 74
     0
 42
0.0000000001
 43
0.0000000001
 40
0.0
 40
0.0
 40
0.0
 40
0.0
 40
0.0714285714285714
 40
0.0714285714285714
 40
0.0714285714285714
 40
0.0714285714285714
 40
0.1428571428571428
 40
0.1428571428571428
 40
0.1428571428571428
 40
0.1428571428571428
 40
0.2142857142857143
 40
0.2142857142857143
 40
0.2142857142857143
 40
0.2142857142857143
 40
0.2857142857142857
 40
0.2857142857142857
 40
0.2857142857142857
 40
0.2857142857142857
 40
0.3571428571428572
 40
0.3571428571428572
 40
0.3571428571428572
 40
0.3571428571428572
 40
0.4285714285714285
 40
0.4285714285714285
 40
0.4285714285714285
 40
0.4285714285714285
 40
0.5
 40
0.5
 40
0.5
 40
0.5
 40
0.5714285714285714
 40
0.5714285714285714
 40
0.5714285714285714
 40
0.5714285714285714
 40
0.6428571428571429
 40
0.6428571428571429
 40
0.6428571428571429
 40
0.6428571428571429
 40
0.7142857142857143
 40
0.7142857142857143
 40
0.7142857142857143
 40
0.7142857142857143
 40
0.7857142857142857
 40
0.7857142857142857
 40
0.7857142857142857
 40
0.7857142857142857
 40
0.8571428571428571
 40
0.8571428571428571
 40
0.8571428571428571
 40
0.8571428571428571
 40
1.0
 40
1.0
 40
1.0
 40
1.0
 10
-14.1655
 20
12.3691
 30
0.0
 10
-14.2301
 20
12.3696
 30
0.0
 10
-14.2876
 20
12.3826
 30
0.0
 10
-14.3383
 20
12.4078
 30
0.0
 10
-14.3383
 20
12.4078
 30
0.0
 10
-14.3895
 20
12.4337
 30
0.0
 10
-14.4324
 20
12.4686
 30
0.0
 10
-14.4676
 20
12.5133
 30
0.0
 10
-14.4676
 20
12.5133
 30
0.0
 10
-14.5023
 20
12.5572
 30
0.0
 10
-14.5287
 20
12.6083
 30
0.0
 10
-14.5463
 20
12.6652
 30
0.0
 10
-14.5463
 20
12.6652
 30
0.0
 10
-14.5634
 20
12.7222
 30
0.0
 10
-14.5711
 20
12.783
 30
0.0
 10
-14.569
 20
12.8463
 30
0.0
 10
-14.569
 20
12.8463
 30
0.0
 10
-14.569
 20
12.9272
 30
0.0
 10
-14.5551
 20
13.0015
 30
0.0
 10
-14.5271
 20
13.0702
 30
0.0
 10
-14.5271
 20
13.0702
 30
0.0
 10
-14.4997
 20
13.1387
 30
0.0
 10
-14.4588
 20
13.1987
 30
0.0
 10
-14.405
 20
13.2499
 30
0.0
 10
-14.405
 20
13.2499
 30
0.0
 10
-14.3506
 20
13.301
 30
0.0
 10
-14.2845
 20
13.3411
 30
0.0
 10
-14.2059
 20
13.3702
 30
0.0
 10
-14.2059
 20
13.3702
 30
0.0
 10
-14.1143
 20
13.3385
 30
0.0
 10
-14.0356
 20
13.299
 30
0.0
 10
-13.9694
 20
13.2511
 30
0.0
 10
-13.9694
 20
13.2511
 30
0.0
 10
-13.9031
 20
13.2039
 30
0.0
 10
-13.8519
 20
13.1451
 30
0.0
 10
-13.8162
 20
13.0752
 30
0.0
 10
-13.8162
 20
13.0752
 30
0.0
 10
-13.7806
 20
13.0047
 30
0.0
 10
-13.7624
 20
12.9193
 30
0.0
 10
-13.762
 20
12.8191
 30
0.0
 10
-13.762
 20
12.8191
 30
0.0
 10
-13.7624
 20
12.7319
 30
0.0
 10
-13.779
 20
12.6543
 30
0.0
 10
-13.8122
 20
12.587
 30
0.0
 10
-13.8122
 20
12.587
 30
0.0
 10
-13.8452
 20
12.5198
 30
0.0
 10
-13.8918
 20
12.4667
 30
0.0
 10
-13.9518
 20
12.4279
 30
0.0
 10
-13.9518
 20
12.4279
 30
0.0
 10
-14.0119
 20
12.389
 30
0.0
 10
-14.0832
 20
12.3696
 30
0.0
 10
-14.1655
 20
12.3691
 30
0.0
  0
SPLINE
  5
5B
330
1F
100
AcDbEntity
  8
Ilustrace
 62
   250
100
AcDbSpline
210
0.0
220
0.0
230
1.0
 70
    11
 71
     3
 72
    56
 73
    52
 74
     0
 42
0.0000000001
 43
0.0000000001
 40
0.0
 40
0.0
 40
0.0
 40
0.0
 40
0.0714285714285714
 40
0.0714285714285714
 40
0.0714285714285714
 40
0.0714285714285714
 40
0.1428571428571428
 40
0.1428571428571428
 40
0.1428571428571428
 40
0.1428571428571428
 40
0.2142857142857143
 40
0.2142857142857143
 40
0.2142857142857143
 40
0.2142857142857143
 40
0.2857142857142857
 40
0.2857142857142857
 40
0.2857142857142857
 40
0.2857142857142857
 40
0.3571428571428572
 40
0.3571428571428572
 40
0.3571428571428572
 40
0.3571428571428572
 40
0.4285714285714285
 40
0.4285714285714285
 40
0.4285714285714285
 40
0.4285714285714285
 40
0.5
 40
0.5
 40
0.5
 40
0.5
 40
0.5714285714285714
 40
0.5714285714285714
 40
0.5714285714285714
 40
0.5714285714285714
 40
0.6428571428571429
 40
0.6428571428571429
 40
0.6428571428571429
 40
0.6428571428571429
 40
0.7142857142857143
 40
0.7142857142857143
 40
0.7142857142857143
 40
0.7142857142857143
 40
0.7857142857142857
 40
0.7857142857142857
 40
0.7857142857142857
 40
0.7857142857142857
 40
0.8571428571428571
 40
0.8571428571428571
 40
0.8571428571428571
 40
0.8571428571428571
 40
1.0
 40
1.0
 40
1.0
 40
1.0
 10
-14.1624
 20
14.4837
 30
0.0
 10
-14.1013
 20
14.4832
 30
0.0
 10
-14.049
 20
14.4715
 30
0.0
 10
-14.0056
 20
14.4482
 30
0.0
 10
-14.0056
 20
14.4482
 30
0.0
 10
-13.9621
 20
14.4249
 30
0.0
 10
-13.927
 20
14.3932
 30
0.0
 10
-13.8995
 20
14.3539
 30
0.0
 10
-13.8995
 20
14.3539
 30
0.0
 10
-13.8727
 20
14.3144
 30
0.0
 10
-13.8525
 20
14.2703
 30
0.0
 10
-13.8396
 20
14.2219
 30
0.0
 10
-13.8396
 20
14.2219
 30
0.0
 10
-13.8271
 20
14.1733
 30
0.0
 10
-13.8209
 20
14.1236
 30
0.0
 10
-13.8209
 20
14.0725
 30
0.0
 10
-13.8209
 20
14.0725
 30
0.0
 10
-13.8215
 20
13.9961
 30
0.0
 10
-13.8348
 20
13.9283
 30
0.0
 10
-13.8618
 20
13.8688
 30
0.0
 10
-13.8618
 20
13.8688
 30
0.0
 10
-13.8886
 20
13.8087
 30
0.0
 10
-13.9249
 20
13.7576
 30
0.0
 10
-13.9714
 20
13.7154
 30
0.0
 10
-13.9714
 20
13.7154
 30
0.0
 10
-14.0175
 20
13.6727
 30
0.0
 10
-14.0697
 20
13.6392
 30
0.0
 10
-14.1282
 20
13.6146
 30
0.0
 10
-14.1282
 20
13.6146
 30
0.0
 10
-14.2063
 20
13.6405
 30
0.0
 10
-14.2742
 20
13.6735
 30
0.0
 10
-14.3321
 20
13.7136
 30
0.0
 10
-14.3321
 20
13.7136
 30
0.0
 10
-14.3901
 20
13.7543
 30
0.0
 10
-14.435
 20
13.8047
 30
0.0
 10
-14.4666
 20
13.8648
 30
0.0
 10
-14.4666
 20
13.8648
 30
0.0
 10
-14.4981
 20
13.9251
 30
0.0
 10
-14.5136
 20
13.9968
 30
0.0
 10
-14.5132
 20
14.0802
 30
0.0
 10
-14.5132
 20
14.0802
 30
0.0
 10
-14.5132
 20
14.1539
 30
0.0
 10
-14.4997
 20
14.2206
 30
0.0
 10
-14.4729
 20
14.2814
 30
0.0
 10
-14.4729
 20
14.2814
 30
0.0
 10
-14.4459
 20
14.3422
 30
0.0
 10
-14.406
 20
14.3907
 30
0.0
 10
-14.3538
 20
14.4276
 30
0.0
 10
-14.3538
 20
14.4276
 30
0.0
 10
-14.3021
 20
14.4644
 30
0.0
 10
-14.2379
 20
14.4832
 30
0.0
 10
-14.1624
 20
14.4837
 30
0.0
  0
SPLINE
  5
5C
330
1F
100
AcDbEntity
  8
Ilustrace
 62
   250
370
    15
100
AcDbSpline
210
0.0
220
0.0
230
1.0
 70
    24
 71
     3
 72
     8
 73
     4
 74
     0
 42
0.0000000001
 43
0.0000000001
 40
0.0
 40
0.0
 40
0.0
 40
0.0
 40
1.0
 40
1.0
 40
1.0
 40
1.0
 10
54.838
 20
11.365
 30
0.0
 10
54.838
 20
11.365
 30
0.0
 10
-71.6333
 20
11.365
 30
0.0
 10
-71.6333
 20
11.365
 30
0.0
  0
SPLINE
  5
5D
330
1F
100
AcDbEntity
  8
Ilustrace
 62
   250
370
     9
100
AcDbSpline
210
0.0
220
0.0
230
1.0
 70
    11
 71
     3
 72
    32
 73
    28
 74
     0
 42
0.0000000001
 43
0.0000000001
 40
0.0
 40
0.0
 40
0.0
 40
0.0
 40
0.125
 40
0.125
 40
0.125
 40
0.125
 40
0.25
 40
0.25
 40
0.25
 40
0.25
 40
0.375
 40
0.375
 40
0.375
 40
0.375
 40
0.5
 40
0.5
 40
0.5
 40
0.5
 40
0.625
 40
0.625
 40
0.625
 40
0.625
 40
0.75
 40
0.75
 40
0.75
 40
0.75
 40
1.0
 40
1.0
 40
1.0
 40
1.0
 10
54.2473
 20
10.9063
 30
0.0
 10
54.2473
 20
10.9063
 30
0.0
 10
54.2473
 20
10.9063
 30
0.0
 10
54.2473
 20
10.9063
 30
0.0
 10
54.2473
 20
10.9063
 30
0.0
 10
54.2473
 20
10.9063
 30
0.0
 10
54.2473
 20
10.9063
 30
0.0
 10
54.2473
 20
10.9063
 30
0.0
 10
54.2473
 20
10.9063
 30
0.0
 10
54.2473
 20
10.9063
 30
0.0
 10
55.5201
 20
11.3497
 30
0.0
 10
55.5201
 20
11.3497
 30
0.0
 10
55.5201
 20
11.3497
 30
0.0
 10
55.5201
 20
11.3497
 30
0.0
 10
54.2473
 20
11.7931
 30
0.0
 10
54.2473
 20
11.7931
 30
0.0
 10
54.2473
 20
11.7931
 30
0.0
 10
54.2473
 20
11.7931
 30
0.0
 10
54.2473
 20
11.7931
 30
0.0
 10
54.2473
 20
11.7931
 30
0.0
 10
54.2473
 20
11.7931
 30
0.0
 10
54.2473
 20
11.7931
 30
0.0
 10
54.2473
 20
11.7931
 30
0.0
 10
54.2473
 20
11.7931
 30
0.0
 10
54.2473
 20
11.7931
 30
0.0
 10
54.2473
 20
11.7931
 30
0.0
 10
54.2473
 20
10.9063
 30
0.0
 10
54.2473
 20
10.9063
 30
0.0
  0
SPLINE
  5
5E
330
1F
100
AcDbEntity
  8
Ilustrace
 62
   250
370
     9
100
AcDbSpline
210
0.0
220
0.0
230
1.0
 70
    11
 71
     3
 72
    32
 73
    28
 74
     0
 42
0.0000000001
 43
0.0000000001
 40
0.0
 40
0.0
 40
0.0
 40
0.0
 40
0.125
 40
0.125
 40
0.125
 40
0.125
 40
0.25
 40
0.25
 40
0.25
 40
0.25
 40
0.375
 40
0.375
 40
0.375
 40
0.375
 40
0.5
 40
0.5
 40
0.5
 40
0.5
 40
0.625
 40
0.625
 40
0.625
 40
0.625
 40
0.75
 40
0.75
 40
0.75
 40
0.75
 40
1.0
 40
1.0
 40
1.0
 40
1.0
 10
-71.4193
 20
10.8609
 30
0.0
 10
-71.4193
 20
10.8609
 30
0.0
 10
-71.4193
 20
10.8609
 30
0.0
 10
-71.4193
 20
10.8609
 30
0.0
 10
-71.4193
 20
10.8609
 30
0.0
 10
-71.4193
 20
10.8609
 30
0.0
 10
-71.4193
 20
10.8609
 30
0.0
 10
-71.4193
 20
10.8609
 30
0.0
 10
-71.4193
 20
10.8609
 30
0.0
 10
-71.4193
 20
10.8609
 30
0.0
 10
-72.6921
 20
11.3043
 30
0.0
 10
-72.6921
 20
11.3043
 30
0.0
 10
-72.6921
 20
11.3043
 30
0.0
 10
-72.6921
 20
11.3043
 30
0.0
 10
-71.4193
 20
11.7477
 30
0.0
 10
-71.4193
 20
11.7477
 30
0.0
 10
-71.4193
 20
11.7477
 30
0.0
 10
-71.4193
 20
11.7477
 30
0.0
 10
-71.4193
 20
11.7477
 30
0.0
 10
-71.4193
 20
11.7477
 30
0.0
 10
-71.4193
 20
11.7477
 30
0.0
 10
-71.4193
 20
11.7477
 30
0.0
 10
-71.4193
 20
11.7477
 30
0.0
 10
-71.4193
 20
11.7477
 30
0.0
 10
-71.4193
 20
11.7477
 30
0.0
 10
-71.4193
 20
11.7477
 30
0.0
 10
-71.4193
 20
10.8609
 30
0.0
 10
-71.4193
 20
10.8609
 30
0.0
  0
SPLINE
  5
5F
330
1F
100
AcDbEntity
  8
Ilustrace
 62
   250
100
AcDbSpline
210
0.0
220
0.0
230
1.0
 70
    11
 71
     3
 72
   124
 73
   120
 74
     0
 42
0.0000000001
 43
0.0000000001
 40
0.0
 40
0.0
 40
0.0
 40
0.0
 40
0.032258064516129
 40
0.032258064516129
 40
0.032258064516129
 40
0.032258064516129
 40
0.0645161290322581
 40
0.0645161290322581
 40
0.0645161290322581
 40
0.0645161290322581
 40
0.0967741935483871
 40
0.0967741935483871
 40
0.0967741935483871
 40
0.0967741935483871
 40
0.1290322580645161
 40
0.1290322580645161
 40
0.1290322580645161
 40
0.1290322580645161
 40
0.1612903225806452
 40
0.1612903225806452
 40
0.1612903225806452
 40
0.1612903225806452
 40
0.1935483870967742
 40
0.1935483870967742
 40
0.1935483870967742
 40
0.1935483870967742
 40
0.2258064516129032
 40
0.2258064516129032
 40
0.2258064516129032
 40
0.2258064516129032
 40
0.2580645161290323
 40
0.2580645161290323
 40
0.2580645161290323
 40
0.2580645161290323
 40
0.2903225806451613
 40
0.2903225806451613
 40
0.2903225806451613
 40
0.2903225806451613
 40
0.3225806451612903
 40
0.3225806451612903
 40
0.3225806451612903
 40
0.3225806451612903
 40
0.3548387096774194
 40
0.3548387096774194
 40
0.3548387096774194
 40
0.3548387096774194
 40
0.3870967741935484
 40
0.3870967741935484
 40
0.3870967741935484
 40
0.3870967741935484
 40
0.4193548387096774
 40
0.4193548387096774
 40
0.4193548387096774
 40
0.4193548387096774
 40
0.4516129032258064
 40
0.4516129032258064
 40
0.4516129032258064
 40
0.4516129032258064
 40
0.4838709677419355
 40
0.4838709677419355
 40
0.4838709677419355
 40
0.4838709677419355
 40
0.5161290322580645
 40
0.5161290322580645
 40
0.5161290322580645
 40
0.5161290322580645
 40
0.5483870967741935
 40
0.5483870967741935
 40
0.5483870967741935
 40
0.5483870967741935
 40
0.5806451612903226
 40
0.5806451612903226
 40
0.5806451612903226
 40
0.5806451612903226
 40
0.6129032258064516
 40
0.6129032258064516
 40
0.6129032258064516
 40
0.6129032258064516
 40
0.6451612903225806
 40
0.6451612903225806
 40
0.6451612903225806
 40
0.6451612903225806
 40
0.6774193548387096
 40
0.6774193548387096
 40
0.6774193548387096
 40
0.6774193548387096
 40
0.7096774193548387
 40
0.7096774193548387
 40
0.7096774193548387
 40
0.7096774193548387
 40
0.7419354838709677
 40
0.7419354838709677
 40
0.7419354838709677
 40
0.7419354838709677
 40
0.7741935483870968
 40
0.7741935483870968
 40
0.7741935483870968
 40
0.7741935483870968
 40
0.8064516129032258
 40
0.8064516129032258
 40
0.8064516129032258
 40
0.8064516129032258
 40
0.8387096774193549
 40
0.8387096774193549
 40
0.8387096774193549
 40
0.8387096774193549
 40
0.8709677419354839
 40
0.8709677419354839
 40
0.8709677419354839
 40
0.8709677419354839
 40
0.9032258064516129
 40
0.9032258064516129
 40
0.9032258064516129
 40
0.9032258064516129
 40
0.9354838709677419
 40
0.9354838709677419
 40
0.9354838709677419
 40
0.9354838709677419
 40
1.0
 40
1.0
 40
1.0
 40
1.0
 10
58.7105
 20
-4.7994
 30
0.0
 10
58.7125
 20
-4.7668
 30
0.0
 10
58.7125
 20
-4.7291
 30
0.0
 10
58.7093
 20
-4.6866
 30
0.0
 10
58.7093
 20
-4.6866
 30
0.0
 10
58.7068
 20
-4.6442
 30
0.0
 10
58.7009
 20
-4.5977
 30
0.0
 10
58.6912
 20
-4.5479
 30
0.0
 10
58.6912
 20
-4.5479
 30
0.0
 10
58.6808
 20
-4.475
 30
0.0
 10
58.6609
 20
-4.4036
 30
0.0
 10
58.6323
 20
-4.3338
 30
0.0
 10
58.6323
 20
-4.3338
 30
0.0
 10
58.6033
 20
-4.264
 30
0.0
 10
58.5651
 20
-4.1972
 30
0.0
 10
58.5185
 20
-4.1341
 30
0.0
 10
58.5185
 20
-4.1341
 30
0.0
 10
58.472
 20
-4.071
 30
0.0
 10
58.417
 20
-4.0135
 30
0.0
 10
58.3536
 20
-3.9612
 30
0.0
 10
58.3536
 20
-3.9612
 30
0.0
 10
58.2735
 20
-3.8945
 30
0.0
 10
58.177
 20
-3.835
 30
0.0
 10
58.0633
 20
-3.7827
 30
0.0
 10
58.0633
 20
-3.7827
 30
0.0
 10
57.9501
 20
-3.7305
 30
0.0
 10
57.8194
 20
-3.6896
 30
0.0
 10
57.6714
 20
-3.6596
 30
0.0
 10
57.6714
 20
-3.6596
 30
0.0
 10
57.5233
 20
-3.6297
 30
0.0
 10
57.3578
 20
-3.6142
 30
0.0
 10
57.1741
 20
-3.6136
 30
0.0
 10
57.1741
 20
-3.6136
 30
0.0
 10
57.0104
 20
-3.6136
 30
0.0
 10
56.8637
 20
-3.6291
 30
0.0
 10
56.7324
 20
-3.6596
 30
0.0
 10
56.7324
 20
-3.6596
 30
0.0
 10
56.6011
 20
-3.6902
 30
0.0
 10
56.4892
 20
-3.7347
 30
0.0
 10
56.3959
 20
-3.7926
 30
0.0
 10
56.3959
 20
-3.7926
 30
0.0
 10
56.3029
 20
-3.8506
 30
0.0
 10
56.2318
 20
-3.9203
 30
0.0
 10
56.182
 20
-4.0027
 30
0.0
 10
56.182
 20
-4.0027
 30
0.0
 10
56.1321
 20
-4.0849
 30
0.0
 10
56.1076
 20
-4.1776
 30
0.0
 10
56.107
 20
-4.281
 30
0.0
 10
56.107
 20
-4.281
 30
0.0
 10
56.1076
 20
-4.3845
 30
0.0
 10
56.1321
 20
-4.4786
 30
0.0
 10
56.18
 20
-4.563
 30
0.0
 10
56.18
 20
-4.563
 30
0.0
 10
56.2272
 20
-4.6473
 30
0.0
 10
56.2932
 20
-4.7198
 30
0.0
 10
56.376
 20
-4.7803
 30
0.0
 10
56.376
 20
-4.7803
 30
0.0
 10
56.4594
 20
-4.8413
 30
0.0
 10
56.5545
 20
-4.8879
 30
0.0
 10
56.6619
 20
-4.9205
 30
0.0
 10
56.6619
 20
-4.9205
 30
0.0
 10
56.7692
 20
-4.9531
 30
0.0
 10
56.883
 20
-4.9696
 30
0.0
 10
57.0034
 20
-4.9701
 30
0.0
 10
57.0034
 20
-4.9701
 30
0.0
 10
57.1113
 20
-4.9696
 30
0.0
 10
57.2121
 20
-4.9556
 30
0.0
 10
57.3054
 20
-4.9282
 30
0.0
 10
57.3054
 20
-4.9282
 30
0.0
 10
57.399
 20
-4.9003
 30
0.0
 10
57.4806
 20
-4.8604
 30
0.0
 10
57.5511
 20
-4.8087
 30
0.0
 10
57.5511
 20
-4.8087
 30
0.0
 10
57.6209
 20
-4.7569
 30
0.0
 10
57.6759
 20
-4.6944
 30
0.0
 10
57.7154
 20
-4.6219
 30
0.0
 10
57.7154
 20
-4.6219
 30
0.0
 10
57.7548
 20
-4.549
 30
0.0
 10
57.7747
 20
-4.4677
 30
0.0
 10
57.7754
 20
-4.3772
 30
0.0
 10
57.7754
 20
-4.3772
 30
0.0
 10
57.7747
 20
-4.2747
 30
0.0
 10
57.7516
 20
-4.1832
 30
0.0
 10
57.7057
 20
-4.103
 30
0.0
 10
57.7057
 20
-4.103
 30
0.0
 10
57.6598
 20
-4.0234
 30
0.0
 10
57.5938
 20
-3.9551
 30
0.0
 10
57.5077
 20
-3.8992
 30
0.0
 10
57.5077
 20
-3.8992
 30
0.0
 10
57.5077
 20
-3.8992
 30
0.0
 10
57.5077
 20
-3.8899
 30
0.0
 10
57.5077
 20
-3.8899
 30
0.0
 10
57.5077
 20
-3.8899
 30
0.0
 10
57.6551
 20
-3.909
 30
0.0
 10
57.7846
 20
-3.9416
 30
0.0
 10
57.8951
 20
-3.9872
 30
0.0
 10
57.8951
 20
-3.9872
 30
0.0
 10
58.0063
 20
-4.0331
 30
0.0
 10
58.0995
 20
-4.0896
 30
0.0
 10
58.1752
 20
-4.1568
 30
0.0
 10
58.1752
 20
-4.1568
 30
0.0
 10
58.245
 20
-4.2147
 30
0.0
 10
58.2993
 20
-4.2795
 30
0.0
 10
58.3395
 20
-4.3513
 30
0.0
 10
58.3395
 20
-4.3513
 30
0.0
 10
58.3795
 20
-4.4232
 30
0.0
 10
58.406
 20
-4.4993
 30
0.0
 10
58.4196
 20
-4.579
 30
0.0
 10
58.4196
 20
-4.579
 30
0.0
 10
58.4254
 20
-4.6251
 30
0.0
 10
58.4299
 20
-4.6664
 30
0.0
 10
58.4326
 20
-4.7021
 30
0.0
 10
58.4326
 20
-4.7021
 30
0.0
 10
58.4351
 20
-4.7379
 30
0.0
 10
58.4351
 20
-4.7704
 30
0.0
 10
58.4313
 20
-4.7994
 30
0.0
 10
58.4313
 20
-4.7994
 30
0.0
 10
58.4313
 20
-4.7994
 30
0.0
 10
58.7105
 20
-4.7994
 30
0.0
 10
58.7105
 20
-4.7994
 30
0.0
  0
SPLINE
  5
60
330
1F
100
AcDbEntity
  8
Ilustrace
 62
   250
100
AcDbSpline
210
0.0
220
0.0
230
1.0
 70
    11
 71
     3
 72
    64
 73
    60
 74
     0
 42
0.0000000001
 43
0.0000000001
 40
0.0
 40
0.0
 40
0.0
 40
0.0
 40
0.0625
 40
0.0625
 40
0.0625
 40
0.0625
 40
0.125
 40
0.125
 40
0.125
 40
0.125
 40
0.1875
 40
0.1875
 40
0.1875
 40
0.1875
 40
0.25
 40
0.25
 40
0.25
 40
0.25
 40
0.3125
 40
0.3125
 40
0.3125
 40
0.3125
 40
0.375
 40
0.375
 40
0.375
 40
0.375
 40
0.4375
 40
0.4375
 40
0.4375
 40
0.4375
 40
0.5
 40
0.5
 40
0.5
 40
0.5
 40
0.5625
 40
0.5625
 40
0.5625
 40
0.5625
 40
0.625
 40
0.625
 40
0.625
 40
0.625
 40
0.6875
 40
0.6875
 40
0.6875
 40
0.6875
 40
0.75
 40
0.75
 40
0.75
 40
0.75
 40
0.8125
 40
0.8125
 40
0.8125
 40
0.8125
 40
0.875
 40
0.875
 40
0.875
 40
0.875
 40
1.0
 40
1.0
 40
1.0
 40
1.0
 10
56.3669
 20
-4.3059
 30
0.0
 10
56.3676
 20
-4.234
 30
0.0
 10
56.387
 20
-4.1713
 30
0.0
 10
56.4252
 20
-4.1191
 30
0.0
 10
56.4252
 20
-4.1191
 30
0.0
 10
56.4634
 20
-4.0668
 30
0.0
 10
56.517
 20
-4.0234
 30
0.0
 10
56.5855
 20
-3.9898
 30
0.0
 10
56.5855
 20
-3.9898
 30
0.0
 10
56.654
 20
-3.9556
 30
0.0
 10
56.7349
 20
-3.9307
 30
0.0
 10
56.8267
 20
-3.9142
 30
0.0
 10
56.8267
 20
-3.9142
 30
0.0
 10
56.9193
 20
-3.8977
 30
0.0
 10
57.0195
 20
-3.8899
 30
0.0
 10
57.1275
 20
-3.8899
 30
0.0
 10
57.1275
 20
-3.8899
 30
0.0
 10
57.156
 20
-3.8899
 30
0.0
 10
57.1806
 20
-3.8919
 30
0.0
 10
57.1999
 20
-3.8965
 30
0.0
 10
57.1999
 20
-3.8965
 30
0.0
 10
57.22
 20
-3.9007
 30
0.0
 10
57.2387
 20
-3.907
 30
0.0
 10
57.2555
 20
-3.9147
 30
0.0
 10
57.2555
 20
-3.9147
 30
0.0
 10
57.3066
 20
-3.9386
 30
0.0
 10
57.3518
 20
-3.9701
 30
0.0
 10
57.3913
 20
-4.0089
 30
0.0
 10
57.3913
 20
-4.0089
 30
0.0
 10
57.4307
 20
-4.0472
 30
0.0
 10
57.4618
 20
-4.0922
 30
0.0
 10
57.4844
 20
-4.1434
 30
0.0
 10
57.4844
 20
-4.1434
 30
0.0
 10
57.5071
 20
-4.1947
 30
0.0
 10
57.5188
 20
-4.251
 30
0.0
 10
57.5193
 20
-4.312
 30
0.0
 10
57.5193
 20
-4.312
 30
0.0
 10
57.5188
 20
-4.3912
 30
0.0
 10
57.4955
 20
-4.4595
 30
0.0
 10
57.4501
 20
-4.5175
 30
0.0
 10
57.4501
 20
-4.5175
 30
0.0
 10
57.4049
 20
-4.5754
 30
0.0
 10
57.3429
 20
-4.6203
 30
0.0
 10
57.2627
 20
-4.6519
 30
0.0
 10
57.2627
 20
-4.6519
 30
0.0
 10
57.1824
 20
-4.6835
 30
0.0
 10
57.0893
 20
-4.6995
 30
0.0
 10
56.9838
 20
-4.7001
 30
0.0
 10
56.9838
 20
-4.7001
 30
0.0
 10
56.8622
 20
-4.6995
 30
0.0
 10
56.7555
 20
-4.6825
 30
0.0
 10
56.6637
 20
-4.6489
 30
0.0
 10
56.6637
 20
-4.6489
 30
0.0
 10
56.5713
 20
-4.6152
 30
0.0
 10
56.4989
 20
-4.5691
 30
0.0
 10
56.4465
 20
-4.5102
 30
0.0
 10
56.4465
 20
-4.5102
 30
0.0
 10
56.3941
 20
-4.4512
 30
0.0
 10
56.3676
 20
-4.3829
 30
0.0
 10
56.3669
 20
-4.3059
 30
0.0
  0
SPLINE
  5
61
330
1F
100
AcDbEntity
  8
Ilustrace
 62
   250
100
AcDbSpline
210
0.0
220
0.0
230
1.0
 70
    11
 71
     3
 72
    44
 73
    40
 74
     0
 42
0.0000000001
 43
0.0000000001
 40
0.0
 40
0.0
 40
0.0
 40
0.0
 40
0.0909090909090909
 40
0.0909090909090909
 40
0.0909090909090909
 40
0.0909090909090909
 40
0.1818181818181818
 40
0.1818181818181818
 40
0.1818181818181818
 40
0.1818181818181818
 40
0.2727272727272727
 40
0.2727272727272727
 40
0.2727272727272727
 40
0.2727272727272727
 40
0.3636363636363636
 40
0.3636363636363636
 40
0.3636363636363636
 40
0.3636363636363636
 40
0.4545454545454545
 40
0.4545454545454545
 40
0.4545454545454545
 40
0.4545454545454545
 40
0.5454545454545454
 40
0.5454545454545454
 40
0.5454545454545454
 40
0.5454545454545454
 40
0.6363636363636364
 40
0.6363636363636364
 40
0.6363636363636364
 40
0.6363636363636364
 40
0.7272727272727273
 40
0.7272727272727273
 40
0.7272727272727273
 40
0.7272727272727273
 40
0.8181818181818182
 40
0.8181818181818182
 40
0.8181818181818182
 40
0.8181818181818182
 40
1.0
 40
1.0
 40
1.0
 40
1.0
 10
59.1257
 20
-3.2628
 30
0.0
 10
59.0793
 20
-3.2406
 30
0.0
 10
59.0197
 20
-3.2167
 30
0.0
 10
58.948
 20
-3.1899
 30
0.0
 10
58.948
 20
-3.1899
 30
0.0
 10
58.8755
 20
-3.1635
 30
0.0
 10
58.7966
 20
-3.1367
 30
0.0
 10
58.7093
 20
-3.1091
 30
0.0
 10
58.7093
 20
-3.1091
 30
0.0
 10
58.6227
 20
-3.0817
 30
0.0
 10
58.5341
 20
-3.0553
 30
0.0
 10
58.4435
 20
-3.0305
 30
0.0
 10
58.4435
 20
-3.0305
 30
0.0
 10
58.3529
 20
-3.0057
 30
0.0
 10
58.2663
 20
-2.984
 30
0.0
 10
58.1829
 20
-2.9648
 30
0.0
 10
58.1829
 20
-2.9648
 30
0.0
 10
58.1829
 20
-2.9648
 30
0.0
 10
58.2217
 20
-3.2691
 30
0.0
 10
58.2217
 20
-3.2691
 30
0.0
 10
58.2217
 20
-3.2691
 30
0.0
 10
58.2934
 20
-3.2779
 30
0.0
 10
58.3705
 20
-3.2892
 30
0.0
 10
58.4539
 20
-3.3027
 30
0.0
 10
58.4539
 20
-3.3027
 30
0.0
 10
58.5373
 20
-3.3166
 30
0.0
 10
58.6214
 20
-3.3322
 30
0.0
 10
58.7061
 20
-3.3493
 30
0.0
 10
58.7061
 20
-3.3493
 30
0.0
 10
58.7914
 20
-3.3664
 30
0.0
 10
58.8723
 20
-3.3839
 30
0.0
 10
58.9492
 20
-3.402
 30
0.0
 10
58.9492
 20
-3.402
 30
0.0
 10
59.0262
 20
-3.4202
 30
0.0
 10
59.0942
 20
-3.4383
 30
0.0
 10
59.153
 20
-3.4553
 30
0.0
 10
59.153
 20
-3.4553
 30
0.0
 10
59.153
 20
-3.4553
 30
0.0
 10
59.1257
 20
-3.2628
 30
0.0
 10
59.1257
 20
-3.2628
 30
0.0
  0
SPLINE
  5
62
330
1F
100
AcDbEntity
  8
Ilustrace
 62
   250
100
AcDbSpline
210
0.0
220
0.0
230
1.0
 70
    11
 71
     3
 72
   132
 73
   128
 74
     0
 42
0.0000000001
 43
0.0000000001
 40
0.0
 40
0.0
 40
0.0
 40
0.0
 40
0.0303030303030303
 40
0.0303030303030303
 40
0.0303030303030303
 40
0.0303030303030303
 40
0.0606060606060606
 40
0.0606060606060606
 40
0.0606060606060606
 40
0.0606060606060606
 40
0.0909090909090909
 40
0.0909090909090909
 40
0.0909090909090909
 40
0.0909090909090909
 40
0.1212121212121212
 40
0.1212121212121212
 40
0.1212121212121212
 40
0.1212121212121212
 40
0.1515151515151515
 40
0.1515151515151515
 40
0.1515151515151515
 40
0.1515151515151515
 40
0.1818181818181818
 40
0.1818181818181818
 40
0.1818181818181818
 40
0.1818181818181818
 40
0.2121212121212121
 40
0.2121212121212121
 40
0.2121212121212121
 40
0.2121212121212121
 40
0.2424242424242424
 40
0.2424242424242424
 40
0.2424242424242424
 40
0.2424242424242424
 40
0.2727272727272727
 40
0.2727272727272727
 40
0.2727272727272727
 40
0.2727272727272727
 40
0.303030303030303
 40
0.303030303030303
 40
0.303030303030303
 40
0.303030303030303
 40
0.3333333333333333
 40
0.3333333333333333
 40
0.3333333333333333
 40
0.3333333333333333
 40
0.3636363636363636
 40
0.3636363636363636
 40
0.3636363636363636
 40
0.3636363636363636
 40
0.3939393939393939
 40
0.3939393939393939
 40
0.3939393939393939
 40
0.3939393939393939
 40
0.4242424242424243
 40
0.4242424242424243
 40
0.4242424242424243
 40
0.4242424242424243
 40
0.4545454545454545
 40
0.4545454545454545
 40
0.4545454545454545
 40
0.4545454545454545
 40
0.4848484848484849
 40
0.4848484848484849
 40
0.4848484848484849
 40
0.4848484848484849
 40
0.5151515151515151
 40
0.5151515151515151
 40
0.5151515151515151
 40
0.5151515151515151
 40
0.5454545454545454
 40
0.5454545454545454
 40
0.5454545454545454
 40
0.5454545454545454
 40
0.5757575757575758
 40
0.5757575757575758
 40
0.5757575757575758
 40
0.5757575757575758
 40
0.6060606060606061
 40
0.6060606060606061
 40
0.6060606060606061
 40
0.6060606060606061
 40
0.6363636363636364
 40
0.6363636363636364
 40
0.6363636363636364
 40
0.6363636363636364
 40
0.6666666666666666
 40
0.6666666666666666
 40
0.6666666666666666
 40
0.6666666666666666
 40
0.696969696969697
 40
0.696969696969697
 40
0.696969696969697
 40
0.696969696969697
 40
0.7272727272727273
 40
0.7272727272727273
 40
0.7272727272727273
 40
0.7272727272727273
 40
0.7575757575757576
 40
0.7575757575757576
 40
0.7575757575757576
 40
0.7575757575757576
 40
0.7878787878787878
 40
0.7878787878787878
 40
0.7878787878787878
 40
0.7878787878787878
 40
0.8181818181818182
 40
0.8181818181818182
 40
0.8181818181818182
 40
0.8181818181818182
 40
0.8484848484848485
 40
0.8484848484848485
 40
0.8484848484848485
 40
0.8484848484848485
 40
0.8787878787878788
 40
0.8787878787878788
 40
0.8787878787878788
 40
0.8787878787878788
 40
0.9090909090909091
 40
0.9090909090909091
 40
0.9090909090909091
 40
0.9090909090909091
 40
0.9393939393939394
 40
0.9393939393939394
 40
0.9393939393939394
 40
0.9393939393939394
 40
1.0
 40
1.0
 40
1.0
 40
1.0
 10
56.1497
 20
-1.5183
 30
0.0
 10
56.1497
 20
-1.5183
 30
0.0
 10
56.1497
 20
-2.4836
 30
0.0
 10
56.1497
 20
-2.4836
 30
0.0
 10
56.1497
 20
-2.4836
 30
0.0
 10
56.1497
 20
-2.4836
 30
0.0
 10
57.3603
 20
-2.614
 30
0.0
 10
57.3603
 20
-2.614
 30
0.0
 10
57.3603
 20
-2.614
 30
0.0
 10
57.3538
 20
-2.5767
 30
0.0
 10
57.3486
 20
-2.5354
 30
0.0
 10
57.3441
 20
-2.4888
 30
0.0
 10
57.3441
 20
-2.4888
 30
0.0
 10
57.3396
 20
-2.4428
 30
0.0
 10
57.337
 20
-2.39
 30
0.0
 10
57.337
 20
-2.3315
 30
0.0
 10
57.337
 20
-2.3315
 30
0.0
 10
57.3377
 20
-2.1981
 30
0.0
 10
57.3615
 20
-2.0889
 30
0.0
 10
57.4082
 20
-2.0041
 30
0.0
 10
57.4082
 20
-2.0041
 30
0.0
 10
57.4553
 20
-1.9187
 30
0.0
 10
57.5201
 20
-1.8556
 30
0.0
 10
57.6027
 20
-1.8147
 30
0.0
 10
57.6027
 20
-1.8147
 30
0.0
 10
57.6861
 20
-1.7738
 30
0.0
 10
57.7826
 20
-1.7536
 30
0.0
 10
57.8918
 20
-1.7542
 30
0.0
 10
57.8918
 20
-1.7542
 30
0.0
 10
57.9767
 20
-1.7536
 30
0.0
 10
58.0522
 20
-1.7661
 30
0.0
 10
58.1194
 20
-1.7915
 30
0.0
 10
58.1194
 20
-1.7915
 30
0.0
 10
58.1874
 20
-1.8163
 30
0.0
 10
58.2442
 20
-1.8509
 30
0.0
 10
58.2921
 20
-1.8949
 30
0.0
 10
58.2921
 20
-1.8949
 30
0.0
 10
58.3395
 20
-1.9388
 30
0.0
 10
58.3755
 20
-1.9896
 30
0.0
 10
58.4008
 20
-2.047
 30
0.0
 10
58.4008
 20
-2.047
 30
0.0
 10
58.4261
 20
-2.1044
 30
0.0
 10
58.439
 20
-2.1649
 30
0.0
 10
58.439
 20
-2.2291
 30
0.0
 10
58.439
 20
-2.2291
 30
0.0
 10
58.4383
 20
-2.2918
 30
0.0
 10
58.4313
 20
-2.3507
 30
0.0
 10
58.4164
 20
-2.4061
 30
0.0
 10
58.4164
 20
-2.4061
 30
0.0
 10
58.4021
 20
-2.4614
 30
0.0
 10
58.3847
 20
-2.5111
 30
0.0
 10
58.3633
 20
-2.555
 30
0.0
 10
58.3633
 20
-2.555
 30
0.0
 10
58.342
 20
-2.5991
 30
0.0
 10
58.3206
 20
-2.6352
 30
0.0
 10
58.2993
 20
-2.6637
 30
0.0
 10
58.2993
 20
-2.6637
 30
0.0
 10
58.2993
 20
-2.6637
 30
0.0
 10
58.5594
 20
-2.7319
 30
0.0
 10
58.5594
 20
-2.7319
 30
0.0
 10
58.5594
 20
-2.7319
 30
0.0
 10
58.5857
 20
-2.6984
 30
0.0
 10
58.6103
 20
-2.6565
 30
0.0
 10
58.6343
 20
-2.6063
 30
0.0
 10
58.6343
 20
-2.6063
 30
0.0
 10
58.6576
 20
-2.556
 30
0.0
 10
58.6763
 20
-2.4992
 30
0.0
 10
58.6912
 20
-2.4355
 30
0.0
 10
58.6912
 20
-2.4355
 30
0.0
 10
58.7061
 20
-2.3714
 30
0.0
 10
58.7138
 20
-2.3025
 30
0.0
 10
58.7145
 20
-2.2291
 30
0.0
 10
58.7145
 20
-2.2291
 30
0.0
 10
58.7138
 20
-2.1189
 30
0.0
 10
58.6919
 20
-2.0186
 30
0.0
 10
58.6492
 20
-1.9269
 30
0.0
 10
58.6492
 20
-1.9269
 30
0.0
 10
58.6065
 20
-1.8354
 30
0.0
 10
58.5463
 20
-1.7562
 30
0.0
 10
58.4688
 20
-1.6895
 30
0.0
 10
58.4688
 20
-1.6895
 30
0.0
 10
58.3911
 20
-1.6222
 30
0.0
 10
58.3
 20
-1.5705
 30
0.0
 10
58.1958
 20
-1.5338
 30
0.0
 10
58.1958
 20
-1.5338
 30
0.0
 10
58.0911
 20
-1.4971
 30
0.0
 10
57.9767
 20
-1.4784
 30
0.0
 10
57.8531
 20
-1.4778
 30
0.0
 10
57.8531
 20
-1.4778
 30
0.0
 10
57.7484
 20
-1.4784
 30
0.0
 10
57.6539
 20
-1.4919
 30
0.0
 10
57.5705
 20
-1.5177
 30
0.0
 10
57.5705
 20
-1.5177
 30
0.0
 10
57.4871
 20
-1.5435
 30
0.0
 10
57.4153
 20
-1.5777
 30
0.0
 10
57.3545
 20
-1.6212
 30
0.0
 10
57.3545
 20
-1.6212
 30
0.0
 10
57.2937
 20
-1.6646
 30
0.0
 10
57.2451
 20
-1.7133
 30
0.0
 10
57.2089
 20
-1.7665
 30
0.0
 10
57.2089
 20
-1.7665
 30
0.0
 10
57.161
 20
-1.8292
 30
0.0
 10
57.1262
 20
-1.8969
 30
0.0
 10
57.1049
 20
-1.971
 30
0.0
 10
57.1049
 20
-1.971
 30
0.0
 10
57.0835
 20
-2.045
 30
0.0
 10
57.0724
 20
-2.1215
 30
0.0
 10
57.0731
 20
-2.2012
 30
0.0
 10
57.0731
 20
-2.2012
 30
0.0
 10
57.0731
 20
-2.2374
 30
0.0
 10
57.0739
 20
-2.2684
 30
0.0
 10
57.0757
 20
-2.2938
 30
0.0
 10
57.0757
 20
-2.2938
 30
0.0
 10
57.0776
 20
-2.3192
 30
0.0
 10
57.0809
 20
-2.343
 30
0.0
 10
57.0848
 20
-2.3657
 30
0.0
 10
57.0848
 20
-2.3657
 30
0.0
 10
57.0848
 20
-2.3657
 30
0.0
 10
56.4368
 20
-2.288
 30
0.0
 10
56.4368
 20
-2.288
 30
0.0
 10
56.4368
 20
-2.288
 30
0.0
 10
56.4368
 20
-2.288
 30
0.0
 10
56.4368
 20
-1.5183
 30
0.0
 10
56.4368
 20
-1.5183
 30
0.0
 10
56.4368
 20
-1.5183
 30
0.0
 10
56.4368
 20
-1.5183
 30
0.0
 10
56.1497
 20
-1.5183
 30
0.0
 10
56.1497
 20
-1.5183
 30
0.0
  0
SPLINE
  5
63
330
1F
100
AcDbEntity
  8
Ilustrace
 62
   250
370
    15
100
AcDbSpline
210
0.0
220
0.0
230
1.0
 70
    24
 71
     3
 72
     8
 73
     4
 74
     0
 42
0.0000000001
 43
0.0000000001
 40
0.0
 40
0.0
 40
0.0
 40
0.0
 40
1.0
 40
1.0
 40
1.0
 40
1.0
 10
59.2436
 20
4.4065
 30
0.0
 10
59.2436
 20
4.4065
 30
0.0
 10
59.2436
 20
-4.3248
 30
0.0
 10
59.2436
 20
-4.3248
 30
0.0
  0
SPLINE
  5
64
330
1F
100
AcDbEntity
  8
Ilustrace
 62
   250
370
     9
100
AcDbSpline
210
0.0
220
0.0
230
1.0
 70
    11
 71
     3
 72
    32
 73
    28
 74
     0
 42
0.0000000001
 43
0.0000000001
 40
0.0
 40
0.0
 40
0.0
 40
0.0
 40
0.125
 40
0.125
 40
0.125
 40
0.125
 40
0.25
 40
0.25
 40
0.25
 40
0.25
 40
0.375
 40
0.375
 40
0.375
 40
0.375
 40
0.5
 40
0.5
 40
0.5
 40
0.5
 40
0.625
 40
0.625
 40
0.625
 40
0.625
 40
0.75
 40
0.75
 40
0.75
 40
0.75
 40
1.0
 40
1.0
 40
1.0
 40
1.0
 10
59.6909
 20
-0.5625
 30
0.0
 10
59.6909
 20
-0.5625
 30
0.0
 10
59.6909
 20
-0.5625
 30
0.0
 10
59.6909
 20
-0.5625
 30
0.0
 10
59.6909
 20
-0.5625
 30
0.0
 10
59.6909
 20
-0.5625
 30
0.0
 10
59.6909
 20
-0.5625
 30
0.0
 10
59.6909
 20
-0.5625
 30
0.0
 10
59.6909
 20
-0.5625
 30
0.0
 10
59.6909
 20
-0.5625
 30
0.0
 10
59.2475
 20
0.7103
 30
0.0
 10
59.2475
 20
0.7103
 30
0.0
 10
59.2475
 20
0.7103
 30
0.0
 10
59.2475
 20
0.7103
 30
0.0
 10
58.8041
 20
-0.5625
 30
0.0
 10
58.8041
 20
-0.5625
 30
0.0
 10
58.8041
 20
-0.5625
 30
0.0
 10
58.8041
 20
-0.5625
 30
0.0
 10
58.8041
 20
-0.5625
 30
0.0
 10
58.8041
 20
-0.5625
 30
0.0
 10
58.8041
 20
-0.5625
 30
0.0
 10
58.8041
 20
-0.5625
 30
0.0
 10
58.8041
 20
-0.5625
 30
0.0
 10
58.8041
 20
-0.5625
 30
0.0
 10
58.8041
 20
-0.5625
 30
0.0
 10
58.8041
 20
-0.5625
 30
0.0
 10
59.6909
 20
-0.5625
 30
0.0
 10
59.6909
 20
-0.5625
 30
0.0
  0
SPLINE
  5
65
330
1F
100
AcDbEntity
  8
Ilustrace
 62
   250
370
     9
100
AcDbSpline
210
0.0
220
0.0
230
1.0
 70
    11
 71
     3
 72
    32
 73
    28
 74
     0
 42
0.0000000001
 43
0.0000000001
 40
0.0
 40
0.0
 40
0.0
 40
0.0
 40
0.125
 40
0.125
 40
0.125
 40
0.125
 40
0.25
 40
0.25
 40
0.25
 40
0.25
 40
0.375
 40
0.375
 40
0.375
 40
0.375
 40
0.5
 40
0.5
 40
0.5
 40
0.5
 40
0.625
 40
0.625
 40
0.625
 40
0.625
 40
0.75
 40
0.75
 40
0.75
 40
0.75
 40
1.0
 40
1.0
 40
1.0
 40
1.0
 10
59.6795
 20
3.4548
 30
0.0
 10
59.6795
 20
3.4548
 30
0.0
 10
59.6795
 20
3.4548
 30
0.0
 10
59.6795
 20
3.4548
 30
0.0
 10
59.6795
 20
3.4548
 30
0.0
 10
59.6795
 20
3.4548
 30
0.0
 10
59.6795
 20
3.4548
 30
0.0
 10
59.6795
 20
3.4548
 30
0.0
 10
59.6795
 20
3.4548
 30
0.0
 10
59.6795
 20
3.4548
 30
0.0
 10
59.2361
 20
2.182
 30
0.0
 10
59.2361
 20
2.182
 30
0.0
 10
59.2361
 20
2.182
 30
0.0
 10
59.2361
 20
2.182
 30
0.0
 10
58.7927
 20
3.4548
 30
0.0
 10
58.7927
 20
3.4548
 30
0.0
 10
58.7927
 20
3.4548
 30
0.0
 10
58.7927
 20
3.4548
 30
0.0
 10
58.7927
 20
3.4548
 30
0.0
 10
58.7927
 20
3.4548
 30
0.0
 10
58.7927
 20
3.4548
 30
0.0
 10
58.7927
 20
3.4548
 30
0.0
 10
58.7927
 20
3.4548
 30
0.0
 10
58.7927
 20
3.4548
 30
0.0
 10
58.7927
 20
3.4548
 30
0.0
 10
58.7927
 20
3.4548
 30
0.0
 10
59.6795
 20
3.4548
 30
0.0
 10
59.6795
 20
3.4548
 30
0.0
  0
SPLINE
  5
66
330
1F
100
AcDbEntity
  8
Ilustrace
 62
   250
370
    15
100
AcDbSpline
210
0.0
220
0.0
230
1.0
 70
    24
 71
     3
 72
     8
 73
     4
 74
     0
 42
0.0000000001
 43
0.0000000001
 40
0.0
 40
0.0
 40
0.0
 40
0.0
 40
1.0
 40
1.0
 40
1.0
 40
1.0
 10
55.9889
 20
0.696
 30
0.0
 10
55.9889
 20
0.696
 30
0.0
 10
59.457
 20
0.696
 30
0.0
 10
59.457
 20
0.696
 30
0.0
  0
SPLINE
  5
67
330
1F
100
AcDbEntity
  8
Ilustrace
 62
   250
370
    15
100
AcDbSpline
210
0.0
220
0.0
230
1.0
 70
    24
 71
     3
 72
     8
 73
     4
 74
     0
 42
0.0000000001
 43
0.0000000001
 40
0.0
 40
0.0
 40
0.0
 40
0.0
 40
1.0
 40
1.0
 40
1.0
 40
1.0
 10
55.9338
 20
2.1979
 30
0.0
 10
55.9338
 20
2.1979
 30
0.0
 10
59.4901
 20
2.1979
 30
0.0
 10
59.4901
 20
2.1979
 30
0.0
  0
SPLINE
  5
68
330
1F
100
AcDbEntity
  8
Ilustrace
 62
   254
100
AcDbSpline
210
0.0
220
0.0
230
1.0
 70
    11
 71
     3
 72
    20
 73
    16
 74
     0
 42
0.0000000001
 43
0.0000000001
 40
0.0
 40
0.0
 40
0.0
 40
0.0
 40
0.2
 40
0.2
 40
0.2
 40
0.2
 40
0.4
 40
0.4
 40
0.4
 40
0.4
 40
0.6
 40
0.6
 40
0.6
 40
0.6
 40
1.0
 40
1.0
 40
1.0
 40
1.0
 10
55.6314
 20
3.2207
 30
0.0
 10
55.6314
 20
3.2207
 30
0.0
 10
-33.5119
 20
3.2153
 30
0.0
 10
-33.5119
 20
3.2153
 30
0.0
 10
-33.5119
 20
3.2153
 30
0.0
 10
-33.5119
 20
3.2153
 30
0.0
 10
-33.5228
 20
2.3057
 30
0.0
 10
-33.5228
 20
2.3057
 30
0.0
 10
-33.5228
 20
2.3057
 30
0.0
 10
-33.5228
 20
2.3057
 30
0.0
 10
55.6314
 20
2.2947
 30
0.0
 10
55.6314
 20
2.2947
 30
0.0
 10
55.6314
 20
2.2947
 30
0.0
 10
55.6314
 20
2.2947
 30
0.0
 10
55.6314
 20
3.2207
 30
0.0
 10
55.6314
 20
3.2207
 30
0.0
  0
SPLINE
  5
69
330
1F
100
AcDbEntity
  8
Ilustrace
 62
   254
100
AcDbSpline
210
0.0
220
0.0
230
1.0
 70
    11
 71
     3
 72
    20
 73
    16
 74
     0
 42
0.0000000001
 43
0.0000000001
 40
0.0
 40
0.0
 40
0.0
 40
0.0
 40
0.2
 40
0.2
 40
0.2
 40
0.2
 40
0.4
 40
0.4
 40
0.4
 40
0.4
 40
0.6
 40
0.6
 40
0.6
 40
0.6
 40
1.0
 40
1.0
 40
1.0
 40
1.0
 10
55.6754
 20
0.6379
 30
0.0
 10
55.6754
 20
0.6379
 30
0.0
 10
-33.5063
 20
0.5994
 30
0.0
 10
-33.5063
 20
0.5994
 30
0.0
 10
-33.5063
 20
0.5994
 30
0.0
 10
-33.5063
 20
0.5994
 30
0.0
 10
-33.5174
 20
-0.2716
 30
0.0
 10
-33.5174
 20
-0.2716
 30
0.0
 10
-33.5174
 20
-0.2716
 30
0.0
 10
-33.5174
 20
-0.2716
 30
0.0
 10
55.6754
 20
-0.2881
 30
0.0
 10
55.6754
 20
-0.2881
 30
0.0
 10
55.6754
 20
-0.2881
 30
0.0
 10
55.6754
 20
-0.2881
 30
0.0
 10
55.6754
 20
0.6379
 30
0.0
 10
55.6754
 20
0.6379
 30
0.0
  0
SPLINE
  5
6A
330
1F
100
AcDbEntity
  8
Ilustrace
 62
   254
100
AcDbSpline
210
0.0
220
0.0
230
1.0
 70
    11
 71
     3
 72
    20
 73
    16
 74
     0
 42
0.0000000001
 43
0.0000000001
 40
0.0
 40
0.0
 40
0.0
 40
0.0
 40
0.2
 40
0.2
 40
0.2
 40
0.2
 40
0.4
 40
0.4
 40
0.4
 40
0.4
 40
0.6
 40
0.6
 40
0.6
 40
0.6
 40
1.0
 40
1.0
 40
1.0
 40
1.0
 10
55.7194
 20
-2.1449
 30
0.0
 10
55.7194
 20
-2.1449
 30
0.0
 10
-33.4623
 20
-2.1614
 30
0.0
 10
-33.4623
 20
-2.1614
 30
0.0
 10
-33.4623
 20
-2.1614
 30
0.0
 10
-33.4623
 20
-2.1614
 30
0.0
 10
-33.5726
 20
-3.0819
 30
0.0
 10
-33.5726
 20
-3.0819
 30
0.0
 10
-33.5726
 20
-3.0819
 30
0.0
 10
-33.5726
 20
-3.0819
 30
0.0
 10
55.7194
 20
-3.0709
 30
0.0
 10
55.7194
 20
-3.0709
 30
0.0
 10
55.7194
 20
-3.0709
 30
0.0
 10
55.7194
 20
-3.0709
 30
0.0
 10
55.7194
 20
-2.1449
 30
0.0
 10
55.7194
 20
-2.1449
 30
0.0
  0
SPLINE
  5
6B
330
1F
100
AcDbEntity
  8
Ilustrace
 62
   254
100
AcDbSpline
210
0.0
220
0.0
230
1.0
 70
    11
 71
     3
 72
    20
 73
    16
 74
     0
 42
0.0000000001
 43
0.0000000001
 40
0.0
 40
0.0
 40
0.0
 40
0.0
 40
0.2
 40
0.2
 40
0.2
 40
0.2
 40
0.4
 40
0.4
 40
0.4
 40
0.4
 40
0.6
 40
0.6
 40
0.6
 40
0.6
 40
1.0
 40
1.0
 40
1.0
 40
1.0
 10
55.6532
 20
-4.9387
 30
0.0
 10
55.6532
 20
-4.9387
 30
0.0
 10
-33.6498
 20
-4.9607
 30
0.0
 10
-33.6498
 20
-4.9607
 30
0.0
 10
-33.6498
 20
-4.9607
 30
0.0
 10
-33.6498
 20
-4.9607
 30
0.0
 10
-33.738
 20
-5.9254
 30
0.0
 10
-33.738
 20
-5.9254
 30
0.0
 10
-33.738
 20
-5.9254
 30
0.0
 10
-33.738
 20
-5.9254
 30
0.0
 10
55.6532
 20
-5.8647
 30
0.0
 10
55.6532
 20
-5.8647
 30
0.0
 10
55.6532
 20
-5.8647
 30
0.0
 10
55.6532
 20
-5.8647
 30
0.0
 10
55.6532
 20
-4.9387
 30
0.0
 10
55.6532
 20
-4.9387
 30
0.0
  0
SPLINE
  5
6C
330
1F
100
AcDbEntity
  8
Ilustrace
 62
   254
100
AcDbSpline
210
0.0
220
0.0
230
1.0
 70
    11
 71
     3
 72
    20
 73
    16
 74
     0
 42
0.0000000001
 43
0.0000000001
 40
0.0
 40
0.0
 40
0.0
 40
0.0
 40
0.2
 40
0.2
 40
0.2
 40
0.2
 40
0.4
 40
0.4
 40
0.4
 40
0.4
 40
0.6
 40
0.6
 40
0.6
 40
0.6
 40
1.0
 40
1.0
 40
1.0
 40
1.0
 10
55.62
 20
-7.9546
 30
0.0
 10
55.62
 20
-7.9546
 30
0.0
 10
-33.7767
 20
-7.9601
 30
0.0
 10
-33.7767
 20
-7.9601
 30
0.0
 10
-33.7767
 20
-7.9601
 30
0.0
 10
-33.7767
 20
-7.9601
 30
0.0
 10
-33.8483
 20
-8.8696
 30
0.0
 10
-33.8483
 20
-8.8696
 30
0.0
 10
-33.8483
 20
-8.8696
 30
0.0
 10
-33.8483
 20
-8.8696
 30
0.0
 10
55.62
 20
-8.8806
 30
0.0
 10
55.62
 20
-8.8806
 30
0.0
 10
55.62
 20
-8.8806
 30
0.0
 10
55.62
 20
-8.8806
 30
0.0
 10
55.62
 20
-7.9546
 30
0.0
 10
55.62
 20
-7.9546
 30
0.0
  0
SPLINE
  5
6D
330
1F
100
AcDbEntity
  8
Ilustrace
 62
   254
100
AcDbSpline
210
0.0
220
0.0
230
1.0
 70
    11
 71
     3
 72
    20
 73
    16
 74
     0
 42
0.0000000001
 43
0.0000000001
 40
0.0
 40
0.0
 40
0.0
 40
0.0
 40
0.2
 40
0.2
 40
0.2
 40
0.2
 40
0.4
 40
0.4
 40
0.4
 40
0.4
 40
0.6
 40
0.6
 40
0.6
 40
0.6
 40
1.0
 40
1.0
 40
1.0
 40
1.0
 10
55.6309
 20
-10.8044
 30
0.0
 10
55.6309
 20
-10.8044
 30
0.0
 10
-33.9036
 20
-10.8595
 30
0.0
 10
-33.9036
 20
-10.8595
 30
0.0
 10
-33.9036
 20
-10.8595
 30
0.0
 10
-33.9036
 20
-10.8595
 30
0.0
 10
-34.2288
 20
-11.791
 30
0.0
 10
-34.2288
 20
-11.791
 30
0.0
 10
-34.2288
 20
-11.791
 30
0.0
 10
-34.2288
 20
-11.791
 30
0.0
 10
55.6309
 20
-11.7304
 30
0.0
 10
55.6309
 20
-11.7304
 30
0.0
 10
55.6309
 20
-11.7304
 30
0.0
 10
55.6309
 20
-11.7304
 30
0.0
 10
55.6309
 20
-10.8044
 30
0.0
 10
55.6309
 20
-10.8044
 30
0.0
  0
SPLINE
  5
6E
330
1F
100
AcDbEntity
  8
Ilustrace
 62
   254
100
AcDbSpline
210
0.0
220
0.0
230
1.0
 70
    11
 71
     3
 72
    20
 73
    16
 74
     0
 42
0.0000000001
 43
0.0000000001
 40
0.0
 40
0.0
 40
0.0
 40
0.0
 40
0.2
 40
0.2
 40
0.2
 40
0.2
 40
0.4
 40
0.4
 40
0.4
 40
0.4
 40
0.6
 40
0.6
 40
0.6
 40
0.6
 40
1.0
 40
1.0
 40
1.0
 40
1.0
 10
55.6088
 20
-13.7643
 30
0.0
 10
55.6088
 20
-13.7643
 30
0.0
 10
-34.3997
 20
-13.7257
 30
0.0
 10
-34.3997
 20
-13.7257
 30
0.0
 10
-34.3997
 20
-13.7257
 30
0.0
 10
-34.3997
 20
-13.7257
 30
0.0
 10
-34.8297
 20
-14.6572
 30
0.0
 10
-34.8297
 20
-14.6572
 30
0.0
 10
-34.8297
 20
-14.6572
 30
0.0
 10
-34.8297
 20
-14.6572
 30
0.0
 10
55.6088
 20
-14.6903
 30
0.0
 10
55.6088
 20
-14.6903
 30
0.0
 10
55.6088
 20
-14.6903
 30
0.0
 10
55.6088
 20
-14.6903
 30
0.0
 10
55.6088
 20
-13.7643
 30
0.0
 10
55.6088
 20
-13.7643
 30
0.0
  0
SPLINE
  5
6F
330
1F
100
AcDbEntity
  8
Ilustrace
 62
   254
100
AcDbSpline
210
0.0
220
0.0
230
1.0
 70
    11
 71
     3
 72
    20
 73
    16
 74
     0
 42
0.0000000001
 43
0.0000000001
 40
0.0
 40
0.0
 40
0.0
 40
0.0
 40
0.2
 40
0.2
 40
0.2
 40
0.2
 40
0.4
 40
0.4
 40
0.4
 40
0.4
 40
0.6
 40
0.6
 40
0.6
 40
0.6
 40
1.0
 40
1.0
 40
1.0
 40
1.0
 10
-73.0111
 20
3.1973
 30
0.0
 10
-73.0111
 20
3.1973
 30
0.0
 10
-35.0709
 20
3.1532
 30
0.0
 10
-35.0709
 20
3.1532
 30
0.0
 10
-35.0709
 20
3.1532
 30
0.0
 10
-35.0709
 20
3.1532
 30
0.0
 10
-35.0323
 20
2.2877
 30
0.0
 10
-35.0323
 20
2.2877
 30
0.0
 10
-35.0323
 20
2.2877
 30
0.0
 10
-35.0323
 20
2.2877
 30
0.0
 10
-73.0111
 20
2.2712
 30
0.0
 10
-73.0111
 20
2.2712
 30
0.0
 10
-73.0111
 20
2.2712
 30
0.0
 10
-73.0111
 20
2.2712
 30
0.0
 10
-73.0111
 20
3.1973
 30
0.0
 10
-73.0111
 20
3.1973
 30
0.0
  0
SPLINE
  5
70
330
1F
100
AcDbEntity
  8
Ilustrace
 62
   254
100
AcDbSpline
210
0.0
220
0.0
230
1.0
 70
    11
 71
     3
 72
    20
 73
    16
 74
     0
 42
0.0000000001
 43
0.0000000001
 40
0.0
 40
0.0
 40
0.0
 40
0.0
 40
0.2
 40
0.2
 40
0.2
 40
0.2
 40
0.4
 40
0.4
 40
0.4
 40
0.4
 40
0.6
 40
0.6
 40
0.6
 40
0.6
 40
1.0
 40
1.0
 40
1.0
 40
1.0
 10
-72.9395
 20
0.6255
 30
0.0
 10
-72.9395
 20
0.6255
 30
0.0
 10
-35.0268
 20
0.6365
 30
0.0
 10
-35.0268
 20
0.6365
 30
0.0
 10
-35.0268
 20
0.6365
 30
0.0
 10
-35.0268
 20
0.6365
 30
0.0
 10
-35.0709
 20
-0.3281
 30
0.0
 10
-35.0709
 20
-0.3281
 30
0.0
 10
-35.0709
 20
-0.3281
 30
0.0
 10
-35.0709
 20
-0.3281
 30
0.0
 10
-72.9395
 20
-0.3006
 30
0.0
 10
-72.9395
 20
-0.3006
 30
0.0
 10
-72.9395
 20
-0.3006
 30
0.0
 10
-72.9395
 20
-0.3006
 30
0.0
 10
-72.9395
 20
0.6255
 30
0.0
 10
-72.9395
 20
0.6255
 30
0.0
  0
SPLINE
  5
71
330
1F
100
AcDbEntity
  8
Ilustrace
 62
   254
100
AcDbSpline
210
0.0
220
0.0
230
1.0
 70
    11
 71
     3
 72
    20
 73
    16
 74
     0
 42
0.0000000001
 43
0.0000000001
 40
0.0
 40
0.0
 40
0.0
 40
0.0
 40
0.2
 40
0.2
 40
0.2
 40
0.2
 40
0.4
 40
0.4
 40
0.4
 40
0.4
 40
0.6
 40
0.6
 40
0.6
 40
0.6
 40
1.0
 40
1.0
 40
1.0
 40
1.0
 10
-72.9229
 20
-2.218
 30
0.0
 10
-72.9229
 20
-2.218
 30
0.0
 10
-35.0654
 20
-2.1628
 30
0.0
 10
-35.0654
 20
-2.1628
 30
0.0
 10
-35.0654
 20
-2.1628
 30
0.0
 10
-35.0654
 20
-2.1628
 30
0.0
 10
-35.1149
 20
-3.1055
 30
0.0
 10
-35.1149
 20
-3.1055
 30
0.0
 10
-35.1149
 20
-3.1055
 30
0.0
 10
-35.1149
 20
-3.1055
 30
0.0
 10
-72.9229
 20
-3.1441
 30
0.0
 10
-72.9229
 20
-3.1441
 30
0.0
 10
-72.9229
 20
-3.1441
 30
0.0
 10
-72.9229
 20
-3.1441
 30
0.0
 10
-72.9229
 20
-2.218
 30
0.0
 10
-72.9229
 20
-2.218
 30
0.0
  0
SPLINE
  5
72
330
1F
100
AcDbEntity
  8
Ilustrace
 62
   254
100
AcDbSpline
210
0.0
220
0.0
230
1.0
 70
    11
 71
     3
 72
    20
 73
    16
 74
     0
 42
0.0000000001
 43
0.0000000001
 40
0.0
 40
0.0
 40
0.0
 40
0.0
 40
0.2
 40
0.2
 40
0.2
 40
0.2
 40
0.4
 40
0.4
 40
0.4
 40
0.4
 40
0.6
 40
0.6
 40
0.6
 40
0.6
 40
1.0
 40
1.0
 40
1.0
 40
1.0
 10
-72.9173
 20
-4.9622
 30
0.0
 10
-72.9173
 20
-4.9622
 30
0.0
 10
-35.2306
 20
-4.9732
 30
0.0
 10
-35.2306
 20
-4.9732
 30
0.0
 10
-35.2306
 20
-4.9732
 30
0.0
 10
-35.2306
 20
-4.9732
 30
0.0
 10
-35.3078
 20
-5.9324
 30
0.0
 10
-35.3078
 20
-5.9324
 30
0.0
 10
-35.3078
 20
-5.9324
 30
0.0
 10
-35.3078
 20
-5.9324
 30
0.0
 10
-72.9173
 20
-5.8883
 30
0.0
 10
-72.9173
 20
-5.8883
 30
0.0
 10
-72.9173
 20
-5.8883
 30
0.0
 10
-72.9173
 20
-5.8883
 30
0.0
 10
-72.9173
 20
-4.9622
 30
0.0
 10
-72.9173
 20
-4.9622
 30
0.0
  0
SPLINE
  5
73
330
1F
100
AcDbEntity
  8
Ilustrace
 62
   254
100
AcDbSpline
210
0.0
220
0.0
230
1.0
 70
    11
 71
     3
 72
    20
 73
    16
 74
     0
 42
0.0000000001
 43
0.0000000001
 40
0.0
 40
0.0
 40
0.0
 40
0.0
 40
0.2
 40
0.2
 40
0.2
 40
0.2
 40
0.4
 40
0.4
 40
0.4
 40
0.4
 40
0.6
 40
0.6
 40
0.6
 40
0.6
 40
1.0
 40
1.0
 40
1.0
 40
1.0
 10
-72.9174
 20
-7.9561
 30
0.0
 10
-72.9174
 20
-7.9561
 30
0.0
 10
-35.3024
 20
-7.9395
 30
0.0
 10
-35.3024
 20
-7.9395
 30
0.0
 10
-35.3024
 20
-7.9395
 30
0.0
 10
-35.3024
 20
-7.9395
 30
0.0
 10
-35.4127
 20
-8.9263
 30
0.0
 10
-35.4127
 20
-8.9263
 30
0.0
 10
-35.4127
 20
-8.9263
 30
0.0
 10
-35.4127
 20
-8.9263
 30
0.0
 10
-72.9174
 20
-8.8822
 30
0.0
 10
-72.9174
 20
-8.8822
 30
0.0
 10
-72.9174
 20
-8.8822
 30
0.0
 10
-72.9174
 20
-8.8822
 30
0.0
 10
-72.9174
 20
-7.9561
 30
0.0
 10
-72.9174
 20
-7.9561
 30
0.0
  0
SPLINE
  5
74
330
1F
100
AcDbEntity
  8
Ilustrace
 62
   254
100
AcDbSpline
210
0.0
220
0.0
230
1.0
 70
    11
 71
     3
 72
    20
 73
    16
 74
     0
 42
0.0000000001
 43
0.0000000001
 40
0.0
 40
0.0
 40
0.0
 40
0.0
 40
0.2
 40
0.2
 40
0.2
 40
0.2
 40
0.4
 40
0.4
 40
0.4
 40
0.4
 40
0.6
 40
0.6
 40
0.6
 40
0.6
 40
1.0
 40
1.0
 40
1.0
 40
1.0
 10
-72.9229
 20
-10.8611
 30
0.0
 10
-72.9229
 20
-10.8611
 30
0.0
 10
-35.5118
 20
-10.9107
 30
0.0
 10
-35.5118
 20
-10.9107
 30
0.0
 10
-35.5118
 20
-10.9107
 30
0.0
 10
-35.5118
 20
-10.9107
 30
0.0
 10
-35.6828
 20
-11.8422
 30
0.0
 10
-35.6828
 20
-11.8422
 30
0.0
 10
-35.6828
 20
-11.8422
 30
0.0
 10
-35.6828
 20
-11.8422
 30
0.0
 10
-72.9284
 20
-11.7927
 30
0.0
 10
-72.9284
 20
-11.7927
 30
0.0
 10
-72.9284
 20
-11.7927
 30
0.0
 10
-72.9284
 20
-11.7927
 30
0.0
 10
-72.9229
 20
-10.8611
 30
0.0
 10
-72.9229
 20
-10.8611
 30
0.0
  0
SPLINE
  5
75
330
1F
100
AcDbEntity
  8
Ilustrace
 62
   254
100
AcDbSpline
210
0.0
220
0.0
230
1.0
 70
    11
 71
     3
 72
    20
 73
    16
 74
     0
 42
0.0000000001
 43
0.0000000001
 40
0.0
 40
0.0
 40
0.0
 40
0.0
 40
0.2
 40
0.2
 40
0.2
 40
0.2
 40
0.4
 40
0.4
 40
0.4
 40
0.4
 40
0.6
 40
0.6
 40
0.6
 40
0.6
 40
1.0
 40
1.0
 40
1.0
 40
1.0
 10
-72.989
 20
-13.7384
 30
0.0
 10
-72.989
 20
-13.7384
 30
0.0
 10
-35.9637
 20
-13.7549
 30
0.0
 10
-35.9637
 20
-13.7549
 30
0.0
 10
-35.9637
 20
-13.7549
 30
0.0
 10
-35.9637
 20
-13.7549
 30
0.0
 10
-36.3882
 20
-14.6976
 30
0.0
 10
-36.3882
 20
-14.6976
 30
0.0
 10
-36.3882
 20
-14.6976
 30
0.0
 10
-36.3882
 20
-14.6976
 30
0.0
 10
-72.989
 20
-14.6645
 30
0.0
 10
-72.989
 20
-14.6645
 30
0.0
 10
-72.989
 20
-14.6645
 30
0.0
 10
-72.989
 20
-14.6645
 30
0.0
 10
-72.989
 20
-13.7384
 30
0.0
 10
-72.989
 20
-13.7384
 30
0.0
  0
SPLINE
  5
76
330
1F
100
AcDbEntity
  8
Ilustrace
 62
   254
100
AcDbSpline
210
0.0
220
0.0
230
1.0
 70
    11
 71
     3
 72
    20
 73
    16
 74
     0
 42
0.0000000001
 43
0.0000000001
 40
0.0
 40
0.0
 40
0.0
 40
0.0
 40
0.2
 40
0.2
 40
0.2
 40
0.2
 40
0.4
 40
0.4
 40
0.4
 40
0.4
 40
0.6
 40
0.6
 40
0.6
 40
0.6
 40
1.0
 40
1.0
 40
1.0
 40
1.0
 10
-64.4178
 20
3.3887
 30
0.0
 10
-64.4178
 20
3.3887
 30
0.0
 10
-63.5027
 20
3.3887
 30
0.0
 10
-63.5027
 20
3.3887
 30
0.0
 10
-63.5027
 20
3.3887
 30
0.0
 10
-63.5027
 20
3.3887
 30
0.0
 10
-63.5027
 20
-14.5915
 30
0.0
 10
-63.5027
 20
-14.5915
 30
0.0
 10
-63.5027
 20
-14.5915
 30
0.0
 10
-63.5027
 20
-14.5915
 30
0.0
 10
-64.4178
 20
-14.5915
 30
0.0
 10
-64.4178
 20
-14.5915
 30
0.0
 10
-64.4178
 20
-14.5915
 30
0.0
 10
-64.4178
 20
-14.5915
 30
0.0
 10
-64.4178
 20
3.3887
 30
0.0
 10
-64.4178
 20
3.3887
 30
0.0
  0
SPLINE
  5
77
330
1F
100
AcDbEntity
  8
Ilustrace
 62
   254
100
AcDbSpline
210
0.0
220
0.0
230
1.0
 70
    11
 71
     3
 72
    20
 73
    16
 74
     0
 42
0.0000000001
 43
0.0000000001
 40
0.0
 40
0.0
 40
0.0
 40
0.0
 40
0.2
 40
0.2
 40
0.2
 40
0.2
 40
0.4
 40
0.4
 40
0.4
 40
0.4
 40
0.6
 40
0.6
 40
0.6
 40
0.6
 40
1.0
 40
1.0
 40
1.0
 40
1.0
 10
-6.8599
 20
3.3888
 30
0.0
 10
-6.8599
 20
3.3888
 30
0.0
 10
-5.9448
 20
3.3888
 30
0.0
 10
-5.9448
 20
3.3888
 30
0.0
 10
-5.9448
 20
3.3888
 30
0.0
 10
-5.9448
 20
3.3888
 30
0.0
 10
-5.9448
 20
-14.5914
 30
0.0
 10
-5.9448
 20
-14.5914
 30
0.0
 10
-5.9448
 20
-14.5914
 30
0.0
 10
-5.9448
 20
-14.5914
 30
0.0
 10
-6.8599
 20
-14.5914
 30
0.0
 10
-6.8599
 20
-14.5914
 30
0.0
 10
-6.8599
 20
-14.5914
 30
0.0
 10
-6.8599
 20
-14.5914
 30
0.0
 10
-6.8599
 20
3.3888
 30
0.0
 10
-6.8599
 20
3.3888
 30
0.0
  0
SPLINE
  5
78
330
1F
100
AcDbEntity
  8
Ilustrace
 62
   254
100
AcDbSpline
210
0.0
220
0.0
230
1.0
 70
    11
 71
     3
 72
    20
 73
    16
 74
     0
 42
0.0000000001
 43
0.0000000001
 40
0.0
 40
0.0
 40
0.0
 40
0.0
 40
0.2
 40
0.2
 40
0.2
 40
0.2
 40
0.4
 40
0.4
 40
0.4
 40
0.4
 40
0.6
 40
0.6
 40
0.6
 40
0.6
 40
1.0
 40
1.0
 40
1.0
 40
1.0
 10
46.2111
 20
3.3667
 30
0.0
 10
46.2111
 20
3.3667
 30
0.0
 10
47.1262
 20
3.3667
 30
0.0
 10
47.1262
 20
3.3667
 30
0.0
 10
47.1262
 20
3.3667
 30
0.0
 10
47.1262
 20
3.3667
 30
0.0
 10
47.1262
 20
-14.6135
 30
0.0
 10
47.1262
 20
-14.6135
 30
0.0
 10
47.1262
 20
-14.6135
 30
0.0
 10
47.1262
 20
-14.6135
 30
0.0
 10
46.2111
 20
-14.6135
 30
0.0
 10
46.2111
 20
-14.6135
 30
0.0
 10
46.2111
 20
-14.6135
 30
0.0
 10
46.2111
 20
-14.6135
 30
0.0
 10
46.2111
 20
3.3667
 30
0.0
 10
46.2111
 20
3.3667
 30
0.0
  0
SPLINE
  5
79
330
1F
100
AcDbEntity
  8
Ilustrace
 62
   250
370
    15
100
AcDbSpline
210
0.0
220
0.0
230
1.0
 70
     8
 71
     3
 72
    12
 73
     8
 74
     0
 42
0.0000000001
 43
0.0000000001
 40
0.0
 40
0.0
 40
0.0
 40
0.0
 40
0.3333333333333333
 40
0.3333333333333333
 40
0.3333333333333333
 40
0.3333333333333333
 40
1.0
 40
1.0
 40
1.0
 40
1.0
 10
-33.9428
 20
-10.8351
 30
0.0
 10
-33.9735
 20
-11.0512
 30
0.0
 10
-34.0147
 20
-11.2669
 30
0.0
 10
-34.1051
 20
-11.4711
 30
0.0
 10
-34.1051
 20
-11.4711
 30
0.0
 10
-34.1411
 20
-11.5527
 30
0.0
 10
-34.181
 20
-11.6795
 30
0.0
 10
-34.2237
 20
-11.8273
 30
0.0
  0
SPLINE
  5
7A
330
1F
100
AcDbEntity
  8
Ilustrace
 62
   250
370
    15
100
AcDbSpline
210
0.0
220
0.0
230
1.0
 70
     8
 71
     3
 72
     8
 73
     4
 74
     0
 42
0.0000000001
 43
0.0000000001
 40
0.0
 40
0.0
 40
0.0
 40
0.0
 40
1.0
 40
1.0
 40
1.0
 40
1.0
 10
-33.6735
 20
-4.9014
 30
0.0
 10
-33.7124
 20
-5.2382
 30
0.0
 10
-33.7162
 20
-5.5176
 30
0.0
 10
-33.7637
 20
-5.8736
 30
0.0
  0
SPLINE
  5
7B
330
1F
100
AcDbEntity
  8
Ilustrace
 62
   250
370
    15
100
AcDbSpline
210
0.0
220
0.0
230
1.0
 70
     8
 71
     3
 72
     8
 73
     4
 74
     0
 42
0.0000000001
 43
0.0000000001
 40
0.0
 40
0.0
 40
0.0
 40
0.0
 40
1.0
 40
1.0
 40
1.0
 40
1.0
 10
-33.7838
 20
-7.9504
 30
0.0
 10
-33.8227
 20
-8.2872
 30
0.0
 10
-33.8265
 20
-8.5666
 30
0.0
 10
-33.874
 20
-8.9226
 30
0.0
  0
SPLINE
  5
7C
330
1F
100
AcDbEntity
  8
Ilustrace
 62
   250
370
    15
100
AcDbSpline
210
0.0
220
0.0
230
1.0
 70
     8
 71
     3
 72
     8
 73
     4
 74
     0
 42
0.0000000001
 43
0.0000000001
 40
0.0
 40
0.0
 40
0.0
 40
0.0
 40
1.0
 40
1.0
 40
1.0
 40
1.0
 10
-33.5104
 20
-2.2089
 30
0.0
 10
-33.5344
 20
-2.5364
 30
0.0
 10
-33.5681
 20
-2.8528
 30
0.0
 10
-33.6146
 20
-3.1349
 30
0.0
  0
SPLINE
  5
7D
330
1F
100
AcDbEntity
  8
Ilustrace
 62
   250
370
    15
100
AcDbSpline
210
0.0
220
0.0
230
1.0
 70
     8
 71
     3
 72
     8
 73
     4
 74
     0
 42
0.0000000001
 43
0.0000000001
 40
0.0
 40
0.0
 40
0.0
 40
0.0
 40
1.0
 40
1.0
 40
1.0
 40
1.0
 10
-33.5044
 20
3.2674
 30
0.0
 10
-33.5097
 20
2.952
 30
0.0
 10
-33.5174
 20
2.6104
 30
0.0
 10
-33.5273
 20
2.2639
 30
0.0
  0
SPLINE
  5
7E
330
1F
100
AcDbEntity
  8
Ilustrace
 62
   250
370
    15
100
AcDbSpline
210
0.0
220
0.0
230
1.0
 70
     8
 71
     3
 72
     8
 73
     4
 74
     0
 42
0.0000000001
 43
0.0000000001
 40
0.0
 40
0.0
 40
0.0
 40
0.0
 40
1.0
 40
1.0
 40
1.0
 40
1.0
 10
-33.5154
 20
0.6626
 30
0.0
 10
-33.5207
 20
0.3472
 30
0.0
 10
-33.5284
 20
0.0056
 30
0.0
 10
-33.5383
 20
-0.3409
 30
0.0
  0
SPLINE
  5
7F
330
1F
100
AcDbEntity
  8
Ilustrace
 62
   250
370
    15
100
AcDbSpline
210
0.0
220
0.0
230
1.0
 70
     8
 71
     3
 72
    12
 73
     8
 74
     0
 42
0.0000000001
 43
0.0000000001
 40
0.0
 40
0.0
 40
0.0
 40
0.0
 40
0.3333333333333333
 40
0.3333333333333333
 40
0.3333333333333333
 40
0.3333333333333333
 40
1.0
 40
1.0
 40
1.0
 40
1.0
 10
-34.4171
 20
-13.7876
 30
0.0
 10
-34.4858
 20
-13.9731
 30
0.0
 10
-34.5582
 20
-14.1263
 30
0.0
 10
-34.6325
 20
-14.1924
 30
0.0
 10
-34.6325
 20
-14.1924
 30
0.0
 10
-34.6716
 20
-14.2273
 30
0.0
 10
-34.8684
 20
-14.63
 30
0.0
 10
-34.8684
 20
-14.7101
 30
0.0
  0
SPLINE
  5
80
330
1F
100
AcDbEntity
  8
Ilustrace
 62
   250
370
    30
100
AcDbSpline
210
0.0
220
0.0
230
1.0
 70
    24
 71
     3
 72
     8
 73
     4
 74
     0
 42
0.0000000001
 43
0.0000000001
 40
0.0
 40
0.0
 40
0.0
 40
0.0
 40
1.0
 40
1.0
 40
1.0
 40
1.0
 10
55.6585
 20
2.291
 30
0.0
 10
55.6585
 20
2.291
 30
0.0
 10
-33.5234
 20
2.291
 30
0.0
 10
-33.5234
 20
2.291
 30
0.0
  0
SPLINE
  5
81
330
1F
100
AcDbEntity
  8
Ilustrace
 62
   250
370
    30
100
AcDbSpline
210
0.0
220
0.0
230
1.0
 70
    24
 71
     3
 72
     8
 73
     4
 74
     0
 42
0.0000000001
 43
0.0000000001
 40
0.0
 40
0.0
 40
0.0
 40
0.0
 40
1.0
 40
1.0
 40
1.0
 40
1.0
 10
55.6596
 20
3.2142
 30
0.0
 10
55.6596
 20
3.2142
 30
0.0
 10
-33.5238
 20
3.2142
 30
0.0
 10
-33.5238
 20
3.2142
 30
0.0
  0
SPLINE
  5
82
330
1F
100
AcDbEntity
  8
Ilustrace
 62
   250
370
    30
100
AcDbSpline
210
0.0
220
0.0
230
1.0
 70
    24
 71
     3
 72
     8
 73
     4
 74
     0
 42
0.0000000001
 43
0.0000000001
 40
0.0
 40
0.0
 40
0.0
 40
0.0
 40
1.0
 40
1.0
 40
1.0
 40
1.0
 10
55.6596
 20
2.291
 30
0.0
 10
55.6596
 20
2.291
 30
0.0
 10
55.6596
 20
3.2142
 30
0.0
 10
55.6596
 20
3.2142
 30
0.0
  0
SPLINE
  5
83
330
1F
100
AcDbEntity
  8
Ilustrace
 62
   250
370
    30
100
AcDbSpline
210
0.0
220
0.0
230
1.0
 70
    24
 71
     3
 72
     8
 73
     4
 74
     0
 42
0.0000000001
 43
0.0000000001
 40
0.0
 40
0.0
 40
0.0
 40
0.0
 40
1.0
 40
1.0
 40
1.0
 40
1.0
 10
55.6019
 20
3.2142
 30
0.0
 10
55.6019
 20
3.2142
 30
0.0
 10
55.6019
 20
2.291
 30
0.0
 10
55.6019
 20
2.291
 30
0.0
  0
SPLINE
  5
84
330
1F
100
AcDbEntity
  8
Ilustrace
 62
   250
370
    30
100
AcDbSpline
210
0.0
220
0.0
230
1.0
 70
    24
 71
     3
 72
     8
 73
     4
 74
     0
 42
0.0000000001
 43
0.0000000001
 40
0.0
 40
0.0
 40
0.0
 40
0.0
 40
1.0
 40
1.0
 40
1.0
 40
1.0
 10
55.6585
 20
-0.3012
 30
0.0
 10
55.6585
 20
-0.3012
 30
0.0
 10
-33.5454
 20
-0.3012
 30
0.0
 10
-33.5454
 20
-0.3012
 30
0.0
  0
SPLINE
  5
85
330
1F
100
AcDbEntity
  8
Ilustrace
 62
   250
370
    30
100
AcDbSpline
210
0.0
220
0.0
230
1.0
 70
    24
 71
     3
 72
     8
 73
     4
 74
     0
 42
0.0000000001
 43
0.0000000001
 40
0.0
 40
0.0
 40
0.0
 40
0.0
 40
1.0
 40
1.0
 40
1.0
 40
1.0
 10
55.6596
 20
0.6219
 30
0.0
 10
55.6596
 20
0.6219
 30
0.0
 10
-33.4793
 20
0.6219
 30
0.0
 10
-33.4793
 20
0.6219
 30
0.0
  0
SPLINE
  5
86
330
1F
100
AcDbEntity
  8
Ilustrace
 62
   250
370
    30
100
AcDbSpline
210
0.0
220
0.0
230
1.0
 70
    24
 71
     3
 72
     8
 73
     4
 74
     0
 42
0.0000000001
 43
0.0000000001
 40
0.0
 40
0.0
 40
0.0
 40
0.0
 40
1.0
 40
1.0
 40
1.0
 40
1.0
 10
55.6596
 20
-0.3012
 30
0.0
 10
55.6596
 20
-0.3012
 30
0.0
 10
55.6596
 20
0.6219
 30
0.0
 10
55.6596
 20
0.6219
 30
0.0
  0
SPLINE
  5
87
330
1F
100
AcDbEntity
  8
Ilustrace
 62
   250
370
    30
100
AcDbSpline
210
0.0
220
0.0
230
1.0
 70
    24
 71
     3
 72
     8
 73
     4
 74
     0
 42
0.0000000001
 43
0.0000000001
 40
0.0
 40
0.0
 40
0.0
 40
0.0
 40
1.0
 40
1.0
 40
1.0
 40
1.0
 10
55.6019
 20
0.6219
 30
0.0
 10
55.6019
 20
0.6219
 30
0.0
 10
55.6019
 20
-0.3012
 30
0.0
 10
55.6019
 20
-0.3012
 30
0.0
  0
SPLINE
  5
88
330
1F
100
AcDbEntity
  8
Ilustrace
 62
   250
370
    30
100
AcDbSpline
210
0.0
220
0.0
230
1.0
 70
    24
 71
     3
 72
     8
 73
     4
 74
     0
 42
0.0000000001
 43
0.0000000001
 40
0.0
 40
0.0
 40
0.0
 40
0.0
 40
1.0
 40
1.0
 40
1.0
 40
1.0
 10
55.6695
 20
-3.0936
 30
0.0
 10
55.6695
 20
-3.0936
 30
0.0
 10
-33.5895
 20
-3.0936
 30
0.0
 10
-33.5895
 20
-3.0936
 30
0.0
  0
SPLINE
  5
89
330
1F
100
AcDbEntity
  8
Ilustrace
 62
   250
370
    30
100
AcDbSpline
210
0.0
220
0.0
230
1.0
 70
    24
 71
     3
 72
     8
 73
     4
 74
     0
 42
0.0000000001
 43
0.0000000001
 40
0.0
 40
0.0
 40
0.0
 40
0.0
 40
1.0
 40
1.0
 40
1.0
 40
1.0
 10
55.6596
 20
-2.1706
 30
0.0
 10
55.6596
 20
-2.1706
 30
0.0
 10
-33.5013
 20
-2.1706
 30
0.0
 10
-33.5013
 20
-2.1706
 30
0.0
  0
SPLINE
  5
8A
330
1F
100
AcDbEntity
  8
Ilustrace
 62
   250
370
    30
100
AcDbSpline
210
0.0
220
0.0
230
1.0
 70
    24
 71
     3
 72
     8
 73
     4
 74
     0
 42
0.0000000001
 43
0.0000000001
 40
0.0
 40
0.0
 40
0.0
 40
0.0
 40
1.0
 40
1.0
 40
1.0
 40
1.0
 10
55.6596
 20
-3.0936
 30
0.0
 10
55.6596
 20
-3.0936
 30
0.0
 10
55.6596
 20
-2.1706
 30
0.0
 10
55.6596
 20
-2.1706
 30
0.0
  0
SPLINE
  5
8B
330
1F
100
AcDbEntity
  8
Ilustrace
 62
   250
370
    30
100
AcDbSpline
210
0.0
220
0.0
230
1.0
 70
    24
 71
     3
 72
     8
 73
     4
 74
     0
 42
0.0000000001
 43
0.0000000001
 40
0.0
 40
0.0
 40
0.0
 40
0.0
 40
1.0
 40
1.0
 40
1.0
 40
1.0
 10
55.6019
 20
-2.1706
 30
0.0
 10
55.6019
 20
-2.1706
 30
0.0
 10
55.6019
 20
-3.0936
 30
0.0
 10
55.6019
 20
-3.0936
 30
0.0
  0
SPLINE
  5
8C
330
1F
100
AcDbEntity
  8
Ilustrace
 62
   250
370
    30
100
AcDbSpline
210
0.0
220
0.0
230
1.0
 70
    24
 71
     3
 72
     8
 73
     4
 74
     0
 42
0.0000000001
 43
0.0000000001
 40
0.0
 40
0.0
 40
0.0
 40
0.0
 40
1.0
 40
1.0
 40
1.0
 40
1.0
 10
55.6695
 20
-5.8858
 30
0.0
 10
55.6695
 20
-5.8858
 30
0.0
 10
-33.7327
 20
-5.8858
 30
0.0
 10
-33.7327
 20
-5.8858
 30
0.0
  0
SPLINE
  5
8D
330
1F
100
AcDbEntity
  8
Ilustrace
 62
   250
370
    30
100
AcDbSpline
210
0.0
220
0.0
230
1.0
 70
    24
 71
     3
 72
     8
 73
     4
 74
     0
 42
0.0000000001
 43
0.0000000001
 40
0.0
 40
0.0
 40
0.0
 40
0.0
 40
1.0
 40
1.0
 40
1.0
 40
1.0
 10
55.6596
 20
-4.9628
 30
0.0
 10
55.6596
 20
-4.9628
 30
0.0
 10
-33.6665
 20
-4.9628
 30
0.0
 10
-33.6665
 20
-4.9628
 30
0.0
  0
SPLINE
  5
8E
330
1F
100
AcDbEntity
  8
Ilustrace
 62
   250
370
    30
100
AcDbSpline
210
0.0
220
0.0
230
1.0
 70
    24
 71
     3
 72
     8
 73
     4
 74
     0
 42
0.0000000001
 43
0.0000000001
 40
0.0
 40
0.0
 40
0.0
 40
0.0
 40
1.0
 40
1.0
 40
1.0
 40
1.0
 10
55.6596
 20
-5.8858
 30
0.0
 10
55.6596
 20
-5.8858
 30
0.0
 10
55.6596
 20
-4.9628
 30
0.0
 10
55.6596
 20
-4.9628
 30
0.0
  0
SPLINE
  5
8F
330
1F
100
AcDbEntity
  8
Ilustrace
 62
   250
370
    30
100
AcDbSpline
210
0.0
220
0.0
230
1.0
 70
    24
 71
     3
 72
     8
 73
     4
 74
     0
 42
0.0000000001
 43
0.0000000001
 40
0.0
 40
0.0
 40
0.0
 40
0.0
 40
1.0
 40
1.0
 40
1.0
 40
1.0
 10
55.6019
 20
-4.9628
 30
0.0
 10
55.6019
 20
-4.9628
 30
0.0
 10
55.6019
 20
-5.8858
 30
0.0
 10
55.6019
 20
-5.8858
 30
0.0
  0
SPLINE
  5
90
330
1F
100
AcDbEntity
  8
Ilustrace
 62
   250
370
    30
100
AcDbSpline
210
0.0
220
0.0
230
1.0
 70
    24
 71
     3
 72
     8
 73
     4
 74
     0
 42
0.0000000001
 43
0.0000000001
 40
0.0
 40
0.0
 40
0.0
 40
0.0
 40
1.0
 40
1.0
 40
1.0
 40
1.0
 10
55.6585
 20
-8.8781
 30
0.0
 10
55.6585
 20
-8.8781
 30
0.0
 10
-33.865
 20
-8.8781
 30
0.0
 10
-33.865
 20
-8.8781
 30
0.0
  0
SPLINE
  5
91
330
1F
100
AcDbEntity
  8
Ilustrace
 62
   250
370
    30
100
AcDbSpline
210
0.0
220
0.0
230
1.0
 70
    24
 71
     3
 72
     8
 73
     4
 74
     0
 42
0.0000000001
 43
0.0000000001
 40
0.0
 40
0.0
 40
0.0
 40
0.0
 40
1.0
 40
1.0
 40
1.0
 40
1.0
 10
55.6596
 20
-7.9551
 30
0.0
 10
55.6596
 20
-7.9551
 30
0.0
 10
-33.8429
 20
-7.9551
 30
0.0
 10
-33.8429
 20
-7.9551
 30
0.0
  0
SPLINE
  5
92
330
1F
100
AcDbEntity
  8
Ilustrace
 62
   250
370
    30
100
AcDbSpline
210
0.0
220
0.0
230
1.0
 70
    24
 71
     3
 72
     8
 73
     4
 74
     0
 42
0.0000000001
 43
0.0000000001
 40
0.0
 40
0.0
 40
0.0
 40
0.0
 40
1.0
 40
1.0
 40
1.0
 40
1.0
 10
55.6596
 20
-8.8781
 30
0.0
 10
55.6596
 20
-8.8781
 30
0.0
 10
55.6596
 20
-7.9551
 30
0.0
 10
55.6596
 20
-7.9551
 30
0.0
  0
SPLINE
  5
93
330
1F
100
AcDbEntity
  8
Ilustrace
 62
   250
370
    30
100
AcDbSpline
210
0.0
220
0.0
230
1.0
 70
    24
 71
     3
 72
     8
 73
     4
 74
     0
 42
0.0000000001
 43
0.0000000001
 40
0.0
 40
0.0
 40
0.0
 40
0.0
 40
1.0
 40
1.0
 40
1.0
 40
1.0
 10
55.6019
 20
-7.9551
 30
0.0
 10
55.6019
 20
-7.9551
 30
0.0
 10
55.6019
 20
-8.8781
 30
0.0
 10
55.6019
 20
-8.8781
 30
0.0
  0
SPLINE
  5
94
330
1F
100
AcDbEntity
  8
Ilustrace
 62
   250
370
    30
100
AcDbSpline
210
0.0
220
0.0
230
1.0
 70
    24
 71
     3
 72
     8
 73
     4
 74
     0
 42
0.0000000001
 43
0.0000000001
 40
0.0
 40
0.0
 40
0.0
 40
0.0
 40
1.0
 40
1.0
 40
1.0
 40
1.0
 10
55.6585
 20
-11.7594
 30
0.0
 10
55.6585
 20
-11.7594
 30
0.0
 10
-34.2286
 20
-11.7594
 30
0.0
 10
-34.2286
 20
-11.7594
 30
0.0
  0
SPLINE
  5
95
330
1F
100
AcDbEntity
  8
Ilustrace
 62
   250
370
    30
100
AcDbSpline
210
0.0
220
0.0
230
1.0
 70
    24
 71
     3
 72
     8
 73
     4
 74
     0
 42
0.0000000001
 43
0.0000000001
 40
0.0
 40
0.0
 40
0.0
 40
0.0
 40
1.0
 40
1.0
 40
1.0
 40
1.0
 10
55.6596
 20
-10.8473
 30
0.0
 10
55.6596
 20
-10.8473
 30
0.0
 10
-33.9861
 20
-10.8473
 30
0.0
 10
-33.9861
 20
-10.8473
 30
0.0
  0
SPLINE
  5
96
330
1F
100
AcDbEntity
  8
Ilustrace
 62
   250
370
    30
100
AcDbSpline
210
0.0
220
0.0
230
1.0
 70
    24
 71
     3
 72
     8
 73
     4
 74
     0
 42
0.0000000001
 43
0.0000000001
 40
0.0
 40
0.0
 40
0.0
 40
0.0
 40
1.0
 40
1.0
 40
1.0
 40
1.0
 10
55.6596
 20
-11.7704
 30
0.0
 10
55.6596
 20
-11.7704
 30
0.0
 10
55.6596
 20
-10.8473
 30
0.0
 10
55.6596
 20
-10.8473
 30
0.0
  0
SPLINE
  5
97
330
1F
100
AcDbEntity
  8
Ilustrace
 62
   250
370
    30
100
AcDbSpline
210
0.0
220
0.0
230
1.0
 70
    24
 71
     3
 72
     8
 73
     4
 74
     0
 42
0.0000000001
 43
0.0000000001
 40
0.0
 40
0.0
 40
0.0
 40
0.0
 40
1.0
 40
1.0
 40
1.0
 40
1.0
 10
55.6019
 20
-10.8473
 30
0.0
 10
55.6019
 20
-10.8473
 30
0.0
 10
55.6019
 20
-11.7704
 30
0.0
 10
55.6019
 20
-11.7704
 30
0.0
  0
SPLINE
  5
98
330
1F
100
AcDbEntity
  8
Ilustrace
 62
   250
370
    30
100
AcDbSpline
210
0.0
220
0.0
230
1.0
 70
    24
 71
     3
 72
     8
 73
     4
 74
     0
 42
0.0000000001
 43
0.0000000001
 40
0.0
 40
0.0
 40
0.0
 40
0.0
 40
1.0
 40
1.0
 40
1.0
 40
1.0
 10
55.6695
 20
-14.6517
 30
0.0
 10
55.6695
 20
-14.6517
 30
0.0
 10
-34.8019
 20
-14.6517
 30
0.0
 10
-34.8019
 20
-14.6517
 30
0.0
  0
SPLINE
  5
99
330
1F
100
AcDbEntity
  8
Ilustrace
 62
   250
370
    30
100
AcDbSpline
210
0.0
220
0.0
230
1.0
 70
    24
 71
     3
 72
     8
 73
     4
 74
     0
 42
0.0000000001
 43
0.0000000001
 40
0.0
 40
0.0
 40
0.0
 40
0.0
 40
1.0
 40
1.0
 40
1.0
 40
1.0
 10
55.6596
 20
-13.7396
 30
0.0
 10
55.6596
 20
-13.7396
 30
0.0
 10
-34.427
 20
-13.7396
 30
0.0
 10
-34.427
 20
-13.7396
 30
0.0
  0
SPLINE
  5
9A
330
1F
100
AcDbEntity
  8
Ilustrace
 62
   250
370
    30
100
AcDbSpline
210
0.0
220
0.0
230
1.0
 70
    24
 71
     3
 72
     8
 73
     4
 74
     0
 42
0.0000000001
 43
0.0000000001
 40
0.0
 40
0.0
 40
0.0
 40
0.0
 40
1.0
 40
1.0
 40
1.0
 40
1.0
 10
55.6596
 20
-14.6627
 30
0.0
 10
55.6596
 20
-14.6627
 30
0.0
 10
55.6596
 20
-13.7396
 30
0.0
 10
55.6596
 20
-13.7396
 30
0.0
  0
SPLINE
  5
9B
330
1F
100
AcDbEntity
  8
Ilustrace
 62
   250
370
    30
100
AcDbSpline
210
0.0
220
0.0
230
1.0
 70
    24
 71
     3
 72
     8
 73
     4
 74
     0
 42
0.0000000001
 43
0.0000000001
 40
0.0
 40
0.0
 40
0.0
 40
0.0
 40
1.0
 40
1.0
 40
1.0
 40
1.0
 10
55.6019
 20
-13.7396
 30
0.0
 10
55.6019
 20
-13.7396
 30
0.0
 10
55.6019
 20
-14.6627
 30
0.0
 10
55.6019
 20
-14.6627
 30
0.0
  0
SPLINE
  5
9C
330
1F
100
AcDbEntity
  8
Ilustrace
 62
   250
370
    30
100
AcDbSpline
210
0.0
220
0.0
230
1.0
 70
    24
 71
     3
 72
     8
 73
     4
 74
     0
 42
0.0000000001
 43
0.0000000001
 40
0.0
 40
0.0
 40
0.0
 40
0.0
 40
1.0
 40
1.0
 40
1.0
 40
1.0
 10
-5.9555
 20
2.2004
 30
0.0
 10
-5.9555
 20
2.2004
 30
0.0
 10
-5.9555
 20
0.6219
 30
0.0
 10
-5.9555
 20
0.6219
 30
0.0
  0
SPLINE
  5
9D
330
1F
100
AcDbEntity
  8
Ilustrace
 62
   250
370
    30
100
AcDbSpline
210
0.0
220
0.0
230
1.0
 70
    24
 71
     3
 72
     8
 73
     4
 74
     0
 42
0.0000000001
 43
0.0000000001
 40
0.0
 40
0.0
 40
0.0
 40
0.0
 40
1.0
 40
1.0
 40
1.0
 40
1.0
 10
-5.9555
 20
0.668
 30
0.0
 10
-5.9555
 20
0.668
 30
0.0
 10
-6.8786
 20
0.668
 30
0.0
 10
-6.8786
 20
0.668
 30
0.0
  0
SPLINE
  5
9E
330
1F
100
AcDbEntity
  8
Ilustrace
 62
   250
370
    30
100
AcDbSpline
210
0.0
220
0.0
230
1.0
 70
    24
 71
     3
 72
     8
 73
     4
 74
     0
 42
0.0000000001
 43
0.0000000001
 40
0.0
 40
0.0
 40
0.0
 40
0.0
 40
1.0
 40
1.0
 40
1.0
 40
1.0
 10
-6.8786
 20
0.6219
 30
0.0
 10
-6.8786
 20
0.6219
 30
0.0
 10
-6.8786
 20
2.2004
 30
0.0
 10
-6.8786
 20
2.2004
 30
0.0
  0
SPLINE
  5
9F
330
1F
100
AcDbEntity
  8
Ilustrace
 62
   250
370
    30
100
AcDbSpline
210
0.0
220
0.0
230
1.0
 70
    24
 71
     3
 72
     8
 73
     4
 74
     0
 42
0.0000000001
 43
0.0000000001
 40
0.0
 40
0.0
 40
0.0
 40
0.0
 40
1.0
 40
1.0
 40
1.0
 40
1.0
 10
-6.8786
 20
2.2449
 30
0.0
 10
-6.8786
 20
2.2449
 30
0.0
 10
-5.9555
 20
2.2449
 30
0.0
 10
-5.9555
 20
2.2449
 30
0.0
  0
SPLINE
  5
A0
330
1F
100
AcDbEntity
  8
Ilustrace
 62
   250
370
    30
100
AcDbSpline
210
0.0
220
0.0
230
1.0
 70
    24
 71
     3
 72
     8
 73
     4
 74
     0
 42
0.0000000001
 43
0.0000000001
 40
0.0
 40
0.0
 40
0.0
 40
0.0
 40
1.0
 40
1.0
 40
1.0
 40
1.0
 10
-5.9555
 20
-0.3925
 30
0.0
 10
-5.9555
 20
-0.3925
 30
0.0
 10
-5.9555
 20
-2.1705
 30
0.0
 10
-5.9555
 20
-2.1705
 30
0.0
  0
SPLINE
  5
A1
330
1F
100
AcDbEntity
  8
Ilustrace
 62
   250
370
    30
100
AcDbSpline
210
0.0
220
0.0
230
1.0
 70
    24
 71
     3
 72
     8
 73
     4
 74
     0
 42
0.0000000001
 43
0.0000000001
 40
0.0
 40
0.0
 40
0.0
 40
0.0
 40
1.0
 40
1.0
 40
1.0
 40
1.0
 10
-5.9555
 20
-2.1243
 30
0.0
 10
-5.9555
 20
-2.1243
 30
0.0
 10
-6.8786
 20
-2.1243
 30
0.0
 10
-6.8786
 20
-2.1243
 30
0.0
  0
SPLINE
  5
A2
330
1F
100
AcDbEntity
  8
Ilustrace
 62
   250
370
    30
100
AcDbSpline
210
0.0
220
0.0
230
1.0
 70
    24
 71
     3
 72
     8
 73
     4
 74
     0
 42
0.0000000001
 43
0.0000000001
 40
0.0
 40
0.0
 40
0.0
 40
0.0
 40
1.0
 40
1.0
 40
1.0
 40
1.0
 10
-6.8786
 20
-2.1705
 30
0.0
 10
-6.8786
 20
-2.1705
 30
0.0
 10
-6.8786
 20
-0.3925
 30
0.0
 10
-6.8786
 20
-0.3925
 30
0.0
  0
SPLINE
  5
A3
330
1F
100
AcDbEntity
  8
Ilustrace
 62
   250
370
    30
100
AcDbSpline
210
0.0
220
0.0
230
1.0
 70
    24
 71
     3
 72
     8
 73
     4
 74
     0
 42
0.0000000001
 43
0.0000000001
 40
0.0
 40
0.0
 40
0.0
 40
0.0
 40
1.0
 40
1.0
 40
1.0
 40
1.0
 10
-6.8786
 20
-0.3475
 30
0.0
 10
-6.8786
 20
-0.3475
 30
0.0
 10
-5.9555
 20
-0.3475
 30
0.0
 10
-5.9555
 20
-0.3475
 30
0.0
  0
SPLINE
  5
A4
330
1F
100
AcDbEntity
  8
Ilustrace
 62
   250
370
    30
100
AcDbSpline
210
0.0
220
0.0
230
1.0
 70
    24
 71
     3
 72
     8
 73
     4
 74
     0
 42
0.0000000001
 43
0.0000000001
 40
0.0
 40
0.0
 40
0.0
 40
0.0
 40
1.0
 40
1.0
 40
1.0
 40
1.0
 10
-5.9555
 20
-3.1442
 30
0.0
 10
-5.9555
 20
-3.1442
 30
0.0
 10
-5.9555
 20
-4.9627
 30
0.0
 10
-5.9555
 20
-4.9627
 30
0.0
  0
SPLINE
  5
A5
330
1F
100
AcDbEntity
  8
Ilustrace
 62
   250
370
    30
100
AcDbSpline
210
0.0
220
0.0
230
1.0
 70
    24
 71
     3
 72
     8
 73
     4
 74
     0
 42
0.0000000001
 43
0.0000000001
 40
0.0
 40
0.0
 40
0.0
 40
0.0
 40
1.0
 40
1.0
 40
1.0
 40
1.0
 10
-5.9555
 20
-4.9166
 30
0.0
 10
-5.9555
 20
-4.9166
 30
0.0
 10
-6.8786
 20
-4.9166
 30
0.0
 10
-6.8786
 20
-4.9166
 30
0.0
  0
SPLINE
  5
A6
330
1F
100
AcDbEntity
  8
Ilustrace
 62
   250
370
    30
100
AcDbSpline
210
0.0
220
0.0
230
1.0
 70
    24
 71
     3
 72
     8
 73
     4
 74
     0
 42
0.0000000001
 43
0.0000000001
 40
0.0
 40
0.0
 40
0.0
 40
0.0
 40
1.0
 40
1.0
 40
1.0
 40
1.0
 10
-6.8786
 20
-4.9627
 30
0.0
 10
-6.8786
 20
-4.9627
 30
0.0
 10
-6.8786
 20
-3.1442
 30
0.0
 10
-6.8786
 20
-3.1442
 30
0.0
  0
SPLINE
  5
A7
330
1F
100
AcDbEntity
  8
Ilustrace
 62
   250
370
    30
100
AcDbSpline
210
0.0
220
0.0
230
1.0
 70
    24
 71
     3
 72
     8
 73
     4
 74
     0
 42
0.0000000001
 43
0.0000000001
 40
0.0
 40
0.0
 40
0.0
 40
0.0
 40
1.0
 40
1.0
 40
1.0
 40
1.0
 10
-6.8786
 20
-3.1397
 30
0.0
 10
-6.8786
 20
-3.1397
 30
0.0
 10
-5.9555
 20
-3.1397
 30
0.0
 10
-5.9555
 20
-3.1397
 30
0.0
  0
SPLINE
  5
A8
330
1F
100
AcDbEntity
  8
Ilustrace
 62
   250
370
    30
100
AcDbSpline
210
0.0
220
0.0
230
1.0
 70
    24
 71
     3
 72
     8
 73
     4
 74
     0
 42
0.0000000001
 43
0.0000000001
 40
0.0
 40
0.0
 40
0.0
 40
0.0
 40
1.0
 40
1.0
 40
1.0
 40
1.0
 10
-5.9555
 20
-5.9753
 30
0.0
 10
-5.9555
 20
-5.9753
 30
0.0
 10
-5.9555
 20
-7.955
 30
0.0
 10
-5.9555
 20
-7.955
 30
0.0
  0
SPLINE
  5
A9
330
1F
100
AcDbEntity
  8
Ilustrace
 62
   250
370
    30
100
AcDbSpline
210
0.0
220
0.0
230
1.0
 70
    24
 71
     3
 72
     8
 73
     4
 74
     0
 42
0.0000000001
 43
0.0000000001
 40
0.0
 40
0.0
 40
0.0
 40
0.0
 40
1.0
 40
1.0
 40
1.0
 40
1.0
 10
-5.9555
 20
-7.9089
 30
0.0
 10
-5.9555
 20
-7.9089
 30
0.0
 10
-6.8786
 20
-7.9089
 30
0.0
 10
-6.8786
 20
-7.9089
 30
0.0
  0
SPLINE
  5
AA
330
1F
100
AcDbEntity
  8
Ilustrace
 62
   250
370
    30
100
AcDbSpline
210
0.0
220
0.0
230
1.0
 70
    24
 71
     3
 72
     8
 73
     4
 74
     0
 42
0.0000000001
 43
0.0000000001
 40
0.0
 40
0.0
 40
0.0
 40
0.0
 40
1.0
 40
1.0
 40
1.0
 40
1.0
 10
-6.8786
 20
-7.955
 30
0.0
 10
-6.8786
 20
-7.955
 30
0.0
 10
-6.8786
 20
-5.9753
 30
0.0
 10
-6.8786
 20
-5.9753
 30
0.0
  0
SPLINE
  5
AB
330
1F
100
AcDbEntity
  8
Ilustrace
 62
   250
370
    30
100
AcDbSpline
210
0.0
220
0.0
230
1.0
 70
    24
 71
     3
 72
     8
 73
     4
 74
     0
 42
0.0000000001
 43
0.0000000001
 40
0.0
 40
0.0
 40
0.0
 40
0.0
 40
1.0
 40
1.0
 40
1.0
 40
1.0
 10
-6.8786
 20
-5.9319
 30
0.0
 10
-6.8786
 20
-5.9319
 30
0.0
 10
-5.9555
 20
-5.9319
 30
0.0
 10
-5.9555
 20
-5.9319
 30
0.0
  0
SPLINE
  5
AC
330
1F
100
AcDbEntity
  8
Ilustrace
 62
   250
370
    30
100
AcDbSpline
210
0.0
220
0.0
230
1.0
 70
    24
 71
     3
 72
     8
 73
     4
 74
     0
 42
0.0000000001
 43
0.0000000001
 40
0.0
 40
0.0
 40
0.0
 40
0.0
 40
1.0
 40
1.0
 40
1.0
 40
1.0
 10
-5.9555
 20
-9.0312
 30
0.0
 10
-5.9555
 20
-9.0312
 30
0.0
 10
-5.9555
 20
-10.6473
 30
0.0
 10
-5.9555
 20
-10.6473
 30
0.0
  0
SPLINE
  5
AD
330
1F
100
AcDbEntity
  8
Ilustrace
 62
   250
370
    30
100
AcDbSpline
210
0.0
220
0.0
230
1.0
 70
    24
 71
     3
 72
     8
 73
     4
 74
     0
 42
0.0000000001
 43
0.0000000001
 40
0.0
 40
0.0
 40
0.0
 40
0.0
 40
1.0
 40
1.0
 40
1.0
 40
1.0
 10
-5.9555
 20
-10.8011
 30
0.0
 10
-5.9555
 20
-10.8011
 30
0.0
 10
-6.8786
 20
-10.8011
 30
0.0
 10
-6.8786
 20
-10.8011
 30
0.0
  0
SPLINE
  5
AE
330
1F
100
AcDbEntity
  8
Ilustrace
 62
   250
370
    30
100
AcDbSpline
210
0.0
220
0.0
230
1.0
 70
    24
 71
     3
 72
     8
 73
     4
 74
     0
 42
0.0000000001
 43
0.0000000001
 40
0.0
 40
0.0
 40
0.0
 40
0.0
 40
1.0
 40
1.0
 40
1.0
 40
1.0
 10
-6.8786
 20
-10.6473
 30
0.0
 10
-6.8786
 20
-10.6473
 30
0.0
 10
-6.8786
 20
-9.0312
 30
0.0
 10
-6.8786
 20
-9.0312
 30
0.0
  0
SPLINE
  5
AF
330
1F
100
AcDbEntity
  8
Ilustrace
 62
   250
370
    30
100
AcDbSpline
210
0.0
220
0.0
230
1.0
 70
    24
 71
     3
 72
     8
 73
     4
 74
     0
 42
0.0000000001
 43
0.0000000001
 40
0.0
 40
0.0
 40
0.0
 40
0.0
 40
1.0
 40
1.0
 40
1.0
 40
1.0
 10
-6.8786
 20
-8.9242
 30
0.0
 10
-6.8786
 20
-8.9242
 30
0.0
 10
-5.9555
 20
-8.9242
 30
0.0
 10
-5.9555
 20
-8.9242
 30
0.0
  0
SPLINE
  5
B0
330
1F
100
AcDbEntity
  8
Ilustrace
 62
   250
370
    30
100
AcDbSpline
210
0.0
220
0.0
230
1.0
 70
    24
 71
     3
 72
     8
 73
     4
 74
     0
 42
0.0000000001
 43
0.0000000001
 40
0.0
 40
0.0
 40
0.0
 40
0.0
 40
1.0
 40
1.0
 40
1.0
 40
1.0
 10
-5.9555
 20
-11.8703
 30
0.0
 10
-5.9555
 20
-11.8703
 30
0.0
 10
-5.9555
 20
-13.6959
 30
0.0
 10
-5.9555
 20
-13.6959
 30
0.0
  0
SPLINE
  5
B1
330
1F
100
AcDbEntity
  8
Ilustrace
 62
   250
370
    30
100
AcDbSpline
210
0.0
220
0.0
230
1.0
 70
    24
 71
     3
 72
     8
 73
     4
 74
     0
 42
0.0000000001
 43
0.0000000001
 40
0.0
 40
0.0
 40
0.0
 40
0.0
 40
1.0
 40
1.0
 40
1.0
 40
1.0
 10
-5.9555
 20
-13.6935
 30
0.0
 10
-5.9555
 20
-13.6935
 30
0.0
 10
-6.8786
 20
-13.6935
 30
0.0
 10
-6.8786
 20
-13.6935
 30
0.0
  0
SPLINE
  5
B2
330
1F
100
AcDbEntity
  8
Ilustrace
 62
   250
370
    30
100
AcDbSpline
210
0.0
220
0.0
230
1.0
 70
    24
 71
     3
 72
     8
 73
     4
 74
     0
 42
0.0000000001
 43
0.0000000001
 40
0.0
 40
0.0
 40
0.0
 40
0.0
 40
1.0
 40
1.0
 40
1.0
 40
1.0
 10
-6.8786
 20
-13.6959
 30
0.0
 10
-6.8786
 20
-13.6959
 30
0.0
 10
-6.8786
 20
-11.8703
 30
0.0
 10
-6.8786
 20
-11.8703
 30
0.0
  0
SPLINE
  5
B3
330
1F
100
AcDbEntity
  8
Ilustrace
 62
   250
370
    30
100
AcDbSpline
210
0.0
220
0.0
230
1.0
 70
    24
 71
     3
 72
     8
 73
     4
 74
     0
 42
0.0000000001
 43
0.0000000001
 40
0.0
 40
0.0
 40
0.0
 40
0.0
 40
1.0
 40
1.0
 40
1.0
 40
1.0
 10
-6.8786
 20
-11.8164
 30
0.0
 10
-6.8786
 20
-11.8164
 30
0.0
 10
-5.9555
 20
-11.8164
 30
0.0
 10
-5.9555
 20
-11.8164
 30
0.0
  0
SPLINE
  5
B4
330
1F
100
AcDbEntity
  8
Ilustrace
 62
   250
370
    30
100
AcDbSpline
210
0.0
220
0.0
230
1.0
 70
    24
 71
     3
 72
     8
 73
     4
 74
     0
 42
0.0000000001
 43
0.0000000001
 40
0.0
 40
0.0
 40
0.0
 40
0.0
 40
1.0
 40
1.0
 40
1.0
 40
1.0
 10
47.1211
 20
2.3058
 30
0.0
 10
47.1211
 20
2.3058
 30
0.0
 10
47.1211
 20
0.6219
 30
0.0
 10
47.1211
 20
0.6219
 30
0.0
  0
SPLINE
  5
B5
330
1F
100
AcDbEntity
  8
Ilustrace
 62
   250
370
    30
100
AcDbSpline
210
0.0
220
0.0
230
1.0
 70
    24
 71
     3
 72
     8
 73
     4
 74
     0
 42
0.0000000001
 43
0.0000000001
 40
0.0
 40
0.0
 40
0.0
 40
0.0
 40
1.0
 40
1.0
 40
1.0
 40
1.0
 10
47.1211
 20
0.668
 30
0.0
 10
47.1211
 20
0.668
 30
0.0
 10
46.1982
 20
0.668
 30
0.0
 10
46.1982
 20
0.668
 30
0.0
  0
SPLINE
  5
B6
330
1F
100
AcDbEntity
  8
Ilustrace
 62
   250
370
    30
100
AcDbSpline
210
0.0
220
0.0
230
1.0
 70
    24
 71
     3
 72
     8
 73
     4
 74
     0
 42
0.0000000001
 43
0.0000000001
 40
0.0
 40
0.0
 40
0.0
 40
0.0
 40
1.0
 40
1.0
 40
1.0
 40
1.0
 10
46.1982
 20
0.6219
 30
0.0
 10
46.1982
 20
0.6219
 30
0.0
 10
46.1982
 20
2.3058
 30
0.0
 10
46.1982
 20
2.3058
 30
0.0
  0
SPLINE
  5
B7
330
1F
100
AcDbEntity
  8
Ilustrace
 62
   250
370
    30
100
AcDbSpline
210
0.0
220
0.0
230
1.0
 70
    24
 71
     3
 72
     8
 73
     4
 74
     0
 42
0.0000000001
 43
0.0000000001
 40
0.0
 40
0.0
 40
0.0
 40
0.0
 40
1.0
 40
1.0
 40
1.0
 40
1.0
 10
47.1211
 20
-0.2872
 30
0.0
 10
47.1211
 20
-0.2872
 30
0.0
 10
47.1211
 20
-2.1705
 30
0.0
 10
47.1211
 20
-2.1705
 30
0.0
  0
SPLINE
  5
B8
330
1F
100
AcDbEntity
  8
Ilustrace
 62
   250
370
    30
100
AcDbSpline
210
0.0
220
0.0
230
1.0
 70
    24
 71
     3
 72
     8
 73
     4
 74
     0
 42
0.0000000001
 43
0.0000000001
 40
0.0
 40
0.0
 40
0.0
 40
0.0
 40
1.0
 40
1.0
 40
1.0
 40
1.0
 10
47.1211
 20
-2.1243
 30
0.0
 10
47.1211
 20
-2.1243
 30
0.0
 10
46.1982
 20
-2.1243
 30
0.0
 10
46.1982
 20
-2.1243
 30
0.0
  0
SPLINE
  5
B9
330
1F
100
AcDbEntity
  8
Ilustrace
 62
   250
370
    30
100
AcDbSpline
210
0.0
220
0.0
230
1.0
 70
    24
 71
     3
 72
     8
 73
     4
 74
     0
 42
0.0000000001
 43
0.0000000001
 40
0.0
 40
0.0
 40
0.0
 40
0.0
 40
1.0
 40
1.0
 40
1.0
 40
1.0
 10
46.1982
 20
-2.1705
 30
0.0
 10
46.1982
 20
-2.1705
 30
0.0
 10
46.1982
 20
-0.2872
 30
0.0
 10
46.1982
 20
-0.2872
 30
0.0
  0
SPLINE
  5
BA
330
1F
100
AcDbEntity
  8
Ilustrace
 62
   250
370
    30
100
AcDbSpline
210
0.0
220
0.0
230
1.0
 70
    24
 71
     3
 72
     8
 73
     4
 74
     0
 42
0.0000000001
 43
0.0000000001
 40
0.0
 40
0.0
 40
0.0
 40
0.0
 40
1.0
 40
1.0
 40
1.0
 40
1.0
 10
47.1211
 20
-3.1051
 30
0.0
 10
47.1211
 20
-3.1051
 30
0.0
 10
47.1211
 20
-4.9627
 30
0.0
 10
47.1211
 20
-4.9627
 30
0.0
  0
SPLINE
  5
BB
330
1F
100
AcDbEntity
  8
Ilustrace
 62
   250
370
    30
100
AcDbSpline
210
0.0
220
0.0
230
1.0
 70
    24
 71
     3
 72
     8
 73
     4
 74
     0
 42
0.0000000001
 43
0.0000000001
 40
0.0
 40
0.0
 40
0.0
 40
0.0
 40
1.0
 40
1.0
 40
1.0
 40
1.0
 10
47.1211
 20
-4.9166
 30
0.0
 10
47.1211
 20
-4.9166
 30
0.0
 10
46.1982
 20
-4.9166
 30
0.0
 10
46.1982
 20
-4.9166
 30
0.0
  0
SPLINE
  5
BC
330
1F
100
AcDbEntity
  8
Ilustrace
 62
   250
370
    30
100
AcDbSpline
210
0.0
220
0.0
230
1.0
 70
    24
 71
     3
 72
     8
 73
     4
 74
     0
 42
0.0000000001
 43
0.0000000001
 40
0.0
 40
0.0
 40
0.0
 40
0.0
 40
1.0
 40
1.0
 40
1.0
 40
1.0
 10
46.1982
 20
-4.9627
 30
0.0
 10
46.1982
 20
-4.9627
 30
0.0
 10
46.1982
 20
-3.1051
 30
0.0
 10
46.1982
 20
-3.1051
 30
0.0
  0
SPLINE
  5
BD
330
1F
100
AcDbEntity
  8
Ilustrace
 62
   250
370
    30
100
AcDbSpline
210
0.0
220
0.0
230
1.0
 70
    24
 71
     3
 72
     8
 73
     4
 74
     0
 42
0.0000000001
 43
0.0000000001
 40
0.0
 40
0.0
 40
0.0
 40
0.0
 40
1.0
 40
1.0
 40
1.0
 40
1.0
 10
47.1211
 20
-5.8965
 30
0.0
 10
47.1211
 20
-5.8965
 30
0.0
 10
47.1211
 20
-7.955
 30
0.0
 10
47.1211
 20
-7.955
 30
0.0
  0
SPLINE
  5
BE
330
1F
100
AcDbEntity
  8
Ilustrace
 62
   250
370
    30
100
AcDbSpline
210
0.0
220
0.0
230
1.0
 70
    24
 71
     3
 72
     8
 73
     4
 74
     0
 42
0.0000000001
 43
0.0000000001
 40
0.0
 40
0.0
 40
0.0
 40
0.0
 40
1.0
 40
1.0
 40
1.0
 40
1.0
 10
47.1211
 20
-7.9089
 30
0.0
 10
47.1211
 20
-7.9089
 30
0.0
 10
46.1982
 20
-7.9089
 30
0.0
 10
46.1982
 20
-7.9089
 30
0.0
  0
SPLINE
  5
BF
330
1F
100
AcDbEntity
  8
Ilustrace
 62
   250
370
    30
100
AcDbSpline
210
0.0
220
0.0
230
1.0
 70
    24
 71
     3
 72
     8
 73
     4
 74
     0
 42
0.0000000001
 43
0.0000000001
 40
0.0
 40
0.0
 40
0.0
 40
0.0
 40
1.0
 40
1.0
 40
1.0
 40
1.0
 10
46.1982
 20
-7.955
 30
0.0
 10
46.1982
 20
-7.955
 30
0.0
 10
46.1982
 20
-5.8965
 30
0.0
 10
46.1982
 20
-5.8965
 30
0.0
  0
SPLINE
  5
C0
330
1F
100
AcDbEntity
  8
Ilustrace
 62
   250
370
    30
100
AcDbSpline
210
0.0
220
0.0
230
1.0
 70
    24
 71
     3
 72
     8
 73
     4
 74
     0
 42
0.0000000001
 43
0.0000000001
 40
0.0
 40
0.0
 40
0.0
 40
0.0
 40
1.0
 40
1.0
 40
1.0
 40
1.0
 10
47.1211
 20
-8.9391
 30
0.0
 10
47.1211
 20
-8.9391
 30
0.0
 10
47.1211
 20
-10.6473
 30
0.0
 10
47.1211
 20
-10.6473
 30
0.0
  0
SPLINE
  5
C1
330
1F
100
AcDbEntity
  8
Ilustrace
 62
   250
370
    30
100
AcDbSpline
210
0.0
220
0.0
230
1.0
 70
    24
 71
     3
 72
     8
 73
     4
 74
     0
 42
0.0000000001
 43
0.0000000001
 40
0.0
 40
0.0
 40
0.0
 40
0.0
 40
1.0
 40
1.0
 40
1.0
 40
1.0
 10
47.1211
 20
-10.8011
 30
0.0
 10
47.1211
 20
-10.8011
 30
0.0
 10
46.1982
 20
-10.8011
 30
0.0
 10
46.1982
 20
-10.8011
 30
0.0
  0
SPLINE
  5
C2
330
1F
100
AcDbEntity
  8
Ilustrace
 62
   250
370
    30
100
AcDbSpline
210
0.0
220
0.0
230
1.0
 70
    24
 71
     3
 72
     8
 73
     4
 74
     0
 42
0.0000000001
 43
0.0000000001
 40
0.0
 40
0.0
 40
0.0
 40
0.0
 40
1.0
 40
1.0
 40
1.0
 40
1.0
 10
46.1982
 20
-10.6473
 30
0.0
 10
46.1982
 20
-10.6473
 30
0.0
 10
46.1982
 20
-8.9391
 30
0.0
 10
46.1982
 20
-8.9391
 30
0.0
  0
SPLINE
  5
C3
330
1F
100
AcDbEntity
  8
Ilustrace
 62
   250
370
    30
100
AcDbSpline
210
0.0
220
0.0
230
1.0
 70
    24
 71
     3
 72
     8
 73
     4
 74
     0
 42
0.0000000001
 43
0.0000000001
 40
0.0
 40
0.0
 40
0.0
 40
0.0
 40
1.0
 40
1.0
 40
1.0
 40
1.0
 10
47.1211
 20
-11.7774
 30
0.0
 10
47.1211
 20
-11.7774
 30
0.0
 10
47.1211
 20
-13.7123
 30
0.0
 10
47.1211
 20
-13.7123
 30
0.0
  0
SPLINE
  5
C4
330
1F
100
AcDbEntity
  8
Ilustrace
 62
   250
370
    30
100
AcDbSpline
210
0.0
220
0.0
230
1.0
 70
    24
 71
     3
 72
     8
 73
     4
 74
     0
 42
0.0000000001
 43
0.0000000001
 40
0.0
 40
0.0
 40
0.0
 40
0.0
 40
1.0
 40
1.0
 40
1.0
 40
1.0
 10
47.1211
 20
-13.6935
 30
0.0
 10
47.1211
 20
-13.6935
 30
0.0
 10
46.1982
 20
-13.6935
 30
0.0
 10
46.1982
 20
-13.6935
 30
0.0
  0
SPLINE
  5
C5
330
1F
100
AcDbEntity
  8
Ilustrace
 62
   250
370
    30
100
AcDbSpline
210
0.0
220
0.0
230
1.0
 70
    24
 71
     3
 72
     8
 73
     4
 74
     0
 42
0.0000000001
 43
0.0000000001
 40
0.0
 40
0.0
 40
0.0
 40
0.0
 40
1.0
 40
1.0
 40
1.0
 40
1.0
 10
46.1983
 20
-13.6792
 30
0.0
 10
46.1983
 20
-13.6792
 30
0.0
 10
46.1983
 20
-11.827
 30
0.0
 10
46.1983
 20
-11.827
 30
0.0
  0
SPLINE
  5
C6
330
1F
100
AcDbEntity
  8
Ilustrace
 62
   250
370
    30
100
AcDbSpline
210
0.0
220
0.0
230
1.0
 70
    24
 71
     3
 72
     8
 73
     4
 74
     0
 42
0.0000000001
 43
0.0000000001
 40
0.0
 40
0.0
 40
0.0
 40
0.0
 40
1.0
 40
1.0
 40
1.0
 40
1.0
 10
46.1982
 20
-11.8164
 30
0.0
 10
46.1982
 20
-11.8164
 30
0.0
 10
47.1211
 20
-11.8164
 30
0.0
 10
47.1211
 20
-11.8164
 30
0.0
  0
SPLINE
  5
C7
330
1F
100
AcDbEntity
  8
Ilustrace
 62
   250
370
    15
100
AcDbSpline
210
0.0
220
0.0
230
1.0
 70
     8
 71
     3
 72
    12
 73
     8
 74
     0
 42
0.0000000001
 43
0.0000000001
 40
0.0
 40
0.0
 40
0.0
 40
0.0
 40
0.3333333333333333
 40
0.3333333333333333
 40
0.3333333333333333
 40
0.3333333333333333
 40
1.0
 40
1.0
 40
1.0
 40
1.0
 10
-35.9171
 20
-13.7876
 30
0.0
 10
-35.9858
 20
-13.9731
 30
0.0
 10
-36.0582
 20
-14.1263
 30
0.0
 10
-36.1325
 20
-14.1924
 30
0.0
 10
-36.1325
 20
-14.1924
 30
0.0
 10
-36.1716
 20
-14.2273
 30
0.0
 10
-36.3684
 20
-14.63
 30
0.0
 10
-36.3684
 20
-14.7101
 30
0.0
  0
SPLINE
  5
C8
330
1F
100
AcDbEntity
  8
Ilustrace
 62
   250
370
    15
100
AcDbSpline
210
0.0
220
0.0
230
1.0
 70
     8
 71
     3
 72
    12
 73
     8
 74
     0
 42
0.0000000001
 43
0.0000000001
 40
0.0
 40
0.0
 40
0.0
 40
0.0
 40
0.3333333333333333
 40
0.3333333333333333
 40
0.3333333333333333
 40
0.3333333333333333
 40
1.0
 40
1.0
 40
1.0
 40
1.0
 10
-35.4428
 20
-10.8351
 30
0.0
 10
-35.4735
 20
-11.0512
 30
0.0
 10
-35.5147
 20
-11.2669
 30
0.0
 10
-35.6051
 20
-11.4711
 30
0.0
 10
-35.6051
 20
-11.4711
 30
0.0
 10
-35.6411
 20
-11.5527
 30
0.0
 10
-35.681
 20
-11.6795
 30
0.0
 10
-35.7237
 20
-11.8273
 30
0.0
  0
SPLINE
  5
C9
330
1F
100
AcDbEntity
  8
Ilustrace
 62
   250
370
    15
100
AcDbSpline
210
0.0
220
0.0
230
1.0
 70
     8
 71
     3
 72
     8
 73
     4
 74
     0
 42
0.0000000001
 43
0.0000000001
 40
0.0
 40
0.0
 40
0.0
 40
0.0
 40
1.0
 40
1.0
 40
1.0
 40
1.0
 10
-35.1735
 20
-4.9014
 30
0.0
 10
-35.2124
 20
-5.2382
 30
0.0
 10
-35.2162
 20
-5.5176
 30
0.0
 10
-35.2637
 20
-5.8736
 30
0.0
  0
SPLINE
  5
CA
330
1F
100
AcDbEntity
  8
Ilustrace
 62
   250
370
    15
100
AcDbSpline
210
0.0
220
0.0
230
1.0
 70
     8
 71
     3
 72
     8
 73
     4
 74
     0
 42
0.0000000001
 43
0.0000000001
 40
0.0
 40
0.0
 40
0.0
 40
0.0
 40
1.0
 40
1.0
 40
1.0
 40
1.0
 10
-35.2838
 20
-7.9504
 30
0.0
 10
-35.3227
 20
-8.2872
 30
0.0
 10
-35.3265
 20
-8.5666
 30
0.0
 10
-35.374
 20
-8.9226
 30
0.0
  0
SPLINE
  5
CB
330
1F
100
AcDbEntity
  8
Ilustrace
 62
   250
370
    15
100
AcDbSpline
210
0.0
220
0.0
230
1.0
 70
     8
 71
     3
 72
     8
 73
     4
 74
     0
 42
0.0000000001
 43
0.0000000001
 40
0.0
 40
0.0
 40
0.0
 40
0.0
 40
1.0
 40
1.0
 40
1.0
 40
1.0
 10
-35.0104
 20
-2.2089
 30
0.0
 10
-35.0344
 20
-2.5364
 30
0.0
 10
-35.0681
 20
-2.8528
 30
0.0
 10
-35.1146
 20
-3.1349
 30
0.0
  0
SPLINE
  5
CC
330
1F
100
AcDbEntity
  8
Ilustrace
 62
   250
370
    15
100
AcDbSpline
210
0.0
220
0.0
230
1.0
 70
     8
 71
     3
 72
     8
 73
     4
 74
     0
 42
0.0000000001
 43
0.0000000001
 40
0.0
 40
0.0
 40
0.0
 40
0.0
 40
1.0
 40
1.0
 40
1.0
 40
1.0
 10
-35.0044
 20
3.2674
 30
0.0
 10
-35.0097
 20
2.952
 30
0.0
 10
-35.0174
 20
2.6104
 30
0.0
 10
-35.0273
 20
2.2639
 30
0.0
  0
SPLINE
  5
CD
330
1F
100
AcDbEntity
  8
Ilustrace
 62
   250
370
    15
100
AcDbSpline
210
0.0
220
0.0
230
1.0
 70
     8
 71
     3
 72
     8
 73
     4
 74
     0
 42
0.0000000001
 43
0.0000000001
 40
0.0
 40
0.0
 40
0.0
 40
0.0
 40
1.0
 40
1.0
 40
1.0
 40
1.0
 10
-35.0154
 20
0.6626
 30
0.0
 10
-35.0207
 20
0.3472
 30
0.0
 10
-35.0284
 20
0.0056
 30
0.0
 10
-35.0383
 20
-0.3409
 30
0.0
  0
SPLINE
  5
CE
330
1F
100
AcDbEntity
  8
Ilustrace
 62
   250
370
    30
100
AcDbSpline
210
0.0
220
0.0
230
1.0
 70
    24
 71
     3
 72
     8
 73
     4
 74
     0
 42
0.0000000001
 43
0.0000000001
 40
0.0
 40
0.0
 40
0.0
 40
0.0
 40
1.0
 40
1.0
 40
1.0
 40
1.0
 10
-35.0448
 20
2.291
 30
0.0
 10
-35.0448
 20
2.291
 30
0.0
 10
-72.9037
 20
2.291
 30
0.0
 10
-72.9037
 20
2.291
 30
0.0
  0
SPLINE
  5
CF
330
1F
100
AcDbEntity
  8
Ilustrace
 62
   250
370
    30
100
AcDbSpline
210
0.0
220
0.0
230
1.0
 70
    24
 71
     3
 72
     8
 73
     4
 74
     0
 42
0.0000000001
 43
0.0000000001
 40
0.0
 40
0.0
 40
0.0
 40
0.0
 40
1.0
 40
1.0
 40
1.0
 40
1.0
 10
-34.9901
 20
3.2142
 30
0.0
 10
-34.9901
 20
3.2142
 30
0.0
 10
-72.9037
 20
3.2142
 30
0.0
 10
-72.9037
 20
3.2142
 30
0.0
  0
SPLINE
  5
D0
330
1F
100
AcDbEntity
  8
Ilustrace
 62
   250
370
    30
100
AcDbSpline
210
0.0
220
0.0
230
1.0
 70
    24
 71
     3
 72
     8
 73
     4
 74
     0
 42
0.0000000001
 43
0.0000000001
 40
0.0
 40
0.0
 40
0.0
 40
0.0
 40
1.0
 40
1.0
 40
1.0
 40
1.0
 10
-72.9471
 20
2.291
 30
0.0
 10
-72.9471
 20
2.291
 30
0.0
 10
-72.9471
 20
3.2142
 30
0.0
 10
-72.9471
 20
3.2142
 30
0.0
  0
SPLINE
  5
D1
330
1F
100
AcDbEntity
  8
Ilustrace
 62
   250
370
    30
100
AcDbSpline
210
0.0
220
0.0
230
1.0
 70
    24
 71
     3
 72
     8
 73
     4
 74
     0
 42
0.0000000001
 43
0.0000000001
 40
0.0
 40
0.0
 40
0.0
 40
0.0
 40
1.0
 40
1.0
 40
1.0
 40
1.0
 10
-72.8895
 20
3.2142
 30
0.0
 10
-72.8895
 20
3.2142
 30
0.0
 10
-72.8895
 20
2.291
 30
0.0
 10
-72.8895
 20
2.291
 30
0.0
  0
SPLINE
  5
D2
330
1F
100
AcDbEntity
  8
Ilustrace
 62
   250
370
    30
100
AcDbSpline
210
0.0
220
0.0
230
1.0
 70
    24
 71
     3
 72
     8
 73
     4
 74
     0
 42
0.0000000001
 43
0.0000000001
 40
0.0
 40
0.0
 40
0.0
 40
0.0
 40
1.0
 40
1.0
 40
1.0
 40
1.0
 10
-35.0668
 20
-0.3012
 30
0.0
 10
-35.0668
 20
-0.3012
 30
0.0
 10
-72.9037
 20
-0.3012
 30
0.0
 10
-72.9037
 20
-0.3012
 30
0.0
  0
SPLINE
  5
D3
330
1F
100
AcDbEntity
  8
Ilustrace
 62
   250
370
    30
100
AcDbSpline
210
0.0
220
0.0
230
1.0
 70
    24
 71
     3
 72
     8
 73
     4
 74
     0
 42
0.0000000001
 43
0.0000000001
 40
0.0
 40
0.0
 40
0.0
 40
0.0
 40
1.0
 40
1.0
 40
1.0
 40
1.0
 10
-35.0337
 20
0.6219
 30
0.0
 10
-35.0337
 20
0.6219
 30
0.0
 10
-72.9037
 20
0.6219
 30
0.0
 10
-72.9037
 20
0.6219
 30
0.0
  0
SPLINE
  5
D4
330
1F
100
AcDbEntity
  8
Ilustrace
 62
   250
370
    30
100
AcDbSpline
210
0.0
220
0.0
230
1.0
 70
    24
 71
     3
 72
     8
 73
     4
 74
     0
 42
0.0000000001
 43
0.0000000001
 40
0.0
 40
0.0
 40
0.0
 40
0.0
 40
1.0
 40
1.0
 40
1.0
 40
1.0
 10
-72.9471
 20
-0.3012
 30
0.0
 10
-72.9471
 20
-0.3012
 30
0.0
 10
-72.9471
 20
0.6219
 30
0.0
 10
-72.9471
 20
0.6219
 30
0.0
  0
SPLINE
  5
D5
330
1F
100
AcDbEntity
  8
Ilustrace
 62
   250
370
    30
100
AcDbSpline
210
0.0
220
0.0
230
1.0
 70
    24
 71
     3
 72
     8
 73
     4
 74
     0
 42
0.0000000001
 43
0.0000000001
 40
0.0
 40
0.0
 40
0.0
 40
0.0
 40
1.0
 40
1.0
 40
1.0
 40
1.0
 10
-72.8895
 20
0.6219
 30
0.0
 10
-72.8895
 20
0.6219
 30
0.0
 10
-72.8895
 20
-0.3012
 30
0.0
 10
-72.8895
 20
-0.3012
 30
0.0
  0
SPLINE
  5
D6
330
1F
100
AcDbEntity
  8
Ilustrace
 62
   250
370
    30
100
AcDbSpline
210
0.0
220
0.0
230
1.0
 70
    24
 71
     3
 72
     8
 73
     4
 74
     0
 42
0.0000000001
 43
0.0000000001
 40
0.0
 40
0.0
 40
0.0
 40
0.0
 40
1.0
 40
1.0
 40
1.0
 40
1.0
 10
-35.1329
 20
-3.0936
 30
0.0
 10
-35.1329
 20
-3.0936
 30
0.0
 10
-72.9037
 20
-3.0936
 30
0.0
 10
-72.9037
 20
-3.0936
 30
0.0
  0
SPLINE
  5
D7
330
1F
100
AcDbEntity
  8
Ilustrace
 62
   250
370
    30
100
AcDbSpline
210
0.0
220
0.0
230
1.0
 70
    24
 71
     3
 72
     8
 73
     4
 74
     0
 42
0.0000000001
 43
0.0000000001
 40
0.0
 40
0.0
 40
0.0
 40
0.0
 40
1.0
 40
1.0
 40
1.0
 40
1.0
 10
-35.0227
 20
-2.1706
 30
0.0
 10
-35.0227
 20
-2.1706
 30
0.0
 10
-72.9037
 20
-2.1706
 30
0.0
 10
-72.9037
 20
-2.1706
 30
0.0
  0
SPLINE
  5
D8
330
1F
100
AcDbEntity
  8
Ilustrace
 62
   250
370
    30
100
AcDbSpline
210
0.0
220
0.0
230
1.0
 70
    24
 71
     3
 72
     8
 73
     4
 74
     0
 42
0.0000000001
 43
0.0000000001
 40
0.0
 40
0.0
 40
0.0
 40
0.0
 40
1.0
 40
1.0
 40
1.0
 40
1.0
 10
-72.9471
 20
-3.0936
 30
0.0
 10
-72.9471
 20
-3.0936
 30
0.0
 10
-72.9471
 20
-2.1706
 30
0.0
 10
-72.9471
 20
-2.1706
 30
0.0
  0
SPLINE
  5
D9
330
1F
100
AcDbEntity
  8
Ilustrace
 62
   250
370
    30
100
AcDbSpline
210
0.0
220
0.0
230
1.0
 70
    24
 71
     3
 72
     8
 73
     4
 74
     0
 42
0.0000000001
 43
0.0000000001
 40
0.0
 40
0.0
 40
0.0
 40
0.0
 40
1.0
 40
1.0
 40
1.0
 40
1.0
 10
-72.8895
 20
-2.1706
 30
0.0
 10
-72.8895
 20
-2.1706
 30
0.0
 10
-72.8895
 20
-3.0936
 30
0.0
 10
-72.8895
 20
-3.0936
 30
0.0
  0
SPLINE
  5
DA
330
1F
100
AcDbEntity
  8
Ilustrace
 62
   250
370
    30
100
AcDbSpline
210
0.0
220
0.0
230
1.0
 70
    24
 71
     3
 72
     8
 73
     4
 74
     0
 42
0.0000000001
 43
0.0000000001
 40
0.0
 40
0.0
 40
0.0
 40
0.0
 40
1.0
 40
1.0
 40
1.0
 40
1.0
 10
-35.2981
 20
-5.8858
 30
0.0
 10
-35.2981
 20
-5.8858
 30
0.0
 10
-72.9037
 20
-5.8858
 30
0.0
 10
-72.9037
 20
-5.8858
 30
0.0
  0
SPLINE
  5
DB
330
1F
100
AcDbEntity
  8
Ilustrace
 62
   250
370
    30
100
AcDbSpline
210
0.0
220
0.0
230
1.0
 70
    24
 71
     3
 72
     8
 73
     4
 74
     0
 42
0.0000000001
 43
0.0000000001
 40
0.0
 40
0.0
 40
0.0
 40
0.0
 40
1.0
 40
1.0
 40
1.0
 40
1.0
 10
-35.1548
 20
-4.9628
 30
0.0
 10
-35.1548
 20
-4.9628
 30
0.0
 10
-72.9037
 20
-4.9628
 30
0.0
 10
-72.9037
 20
-4.9628
 30
0.0
  0
SPLINE
  5
DC
330
1F
100
AcDbEntity
  8
Ilustrace
 62
   250
370
    30
100
AcDbSpline
210
0.0
220
0.0
230
1.0
 70
    24
 71
     3
 72
     8
 73
     4
 74
     0
 42
0.0000000001
 43
0.0000000001
 40
0.0
 40
0.0
 40
0.0
 40
0.0
 40
1.0
 40
1.0
 40
1.0
 40
1.0
 10
-72.9471
 20
-5.8858
 30
0.0
 10
-72.9471
 20
-5.8858
 30
0.0
 10
-72.9471
 20
-4.9628
 30
0.0
 10
-72.9471
 20
-4.9628
 30
0.0
  0
SPLINE
  5
DD
330
1F
100
AcDbEntity
  8
Ilustrace
 62
   250
370
    30
100
AcDbSpline
210
0.0
220
0.0
230
1.0
 70
    24
 71
     3
 72
     8
 73
     4
 74
     0
 42
0.0000000001
 43
0.0000000001
 40
0.0
 40
0.0
 40
0.0
 40
0.0
 40
1.0
 40
1.0
 40
1.0
 40
1.0
 10
-72.8895
 20
-4.9628
 30
0.0
 10
-72.8895
 20
-4.9628
 30
0.0
 10
-72.8895
 20
-5.8858
 30
0.0
 10
-72.8895
 20
-5.8858
 30
0.0
  0
SPLINE
  5
DE
330
1F
100
AcDbEntity
  8
Ilustrace
 62
   250
370
    30
100
AcDbSpline
210
0.0
220
0.0
230
1.0
 70
    24
 71
     3
 72
     8
 73
     4
 74
     0
 42
0.0000000001
 43
0.0000000001
 40
0.0
 40
0.0
 40
0.0
 40
0.0
 40
1.0
 40
1.0
 40
1.0
 40
1.0
 10
-35.4304
 20
-8.8781
 30
0.0
 10
-35.4304
 20
-8.8781
 30
0.0
 10
-72.9037
 20
-8.8781
 30
0.0
 10
-72.9037
 20
-8.8781
 30
0.0
  0
SPLINE
  5
DF
330
1F
100
AcDbEntity
  8
Ilustrace
 62
   250
370
    30
100
AcDbSpline
210
0.0
220
0.0
230
1.0
 70
    24
 71
     3
 72
     8
 73
     4
 74
     0
 42
0.0000000001
 43
0.0000000001
 40
0.0
 40
0.0
 40
0.0
 40
0.0
 40
1.0
 40
1.0
 40
1.0
 40
1.0
 10
-35.3312
 20
-7.9551
 30
0.0
 10
-35.3312
 20
-7.9551
 30
0.0
 10
-72.9037
 20
-7.9551
 30
0.0
 10
-72.9037
 20
-7.9551
 30
0.0
  0
SPLINE
  5
E0
330
1F
100
AcDbEntity
  8
Ilustrace
 62
   250
370
    30
100
AcDbSpline
210
0.0
220
0.0
230
1.0
 70
    24
 71
     3
 72
     8
 73
     4
 74
     0
 42
0.0000000001
 43
0.0000000001
 40
0.0
 40
0.0
 40
0.0
 40
0.0
 40
1.0
 40
1.0
 40
1.0
 40
1.0
 10
-72.9471
 20
-8.8781
 30
0.0
 10
-72.9471
 20
-8.8781
 30
0.0
 10
-72.9471
 20
-7.9551
 30
0.0
 10
-72.9471
 20
-7.9551
 30
0.0
  0
SPLINE
  5
E1
330
1F
100
AcDbEntity
  8
Ilustrace
 62
   250
370
    30
100
AcDbSpline
210
0.0
220
0.0
230
1.0
 70
    24
 71
     3
 72
     8
 73
     4
 74
     0
 42
0.0000000001
 43
0.0000000001
 40
0.0
 40
0.0
 40
0.0
 40
0.0
 40
1.0
 40
1.0
 40
1.0
 40
1.0
 10
-35.7059
 20
-11.7594
 30
0.0
 10
-35.7059
 20
-11.7594
 30
0.0
 10
-72.9037
 20
-11.7704
 30
0.0
 10
-72.9037
 20
-11.7704
 30
0.0
  0
SPLINE
  5
E2
330
1F
100
AcDbEntity
  8
Ilustrace
 62
   250
370
    30
100
AcDbSpline
210
0.0
220
0.0
230
1.0
 70
    24
 71
     3
 72
     8
 73
     4
 74
     0
 42
0.0000000001
 43
0.0000000001
 40
0.0
 40
0.0
 40
0.0
 40
0.0
 40
1.0
 40
1.0
 40
1.0
 40
1.0
 10
-35.4633
 20
-10.8473
 30
0.0
 10
-35.4633
 20
-10.8473
 30
0.0
 10
-72.9037
 20
-10.8473
 30
0.0
 10
-72.9037
 20
-10.8473
 30
0.0
  0
SPLINE
  5
E3
330
1F
100
AcDbEntity
  8
Ilustrace
 62
   250
370
    30
100
AcDbSpline
210
0.0
220
0.0
230
1.0
 70
    24
 71
     3
 72
     8
 73
     4
 74
     0
 42
0.0000000001
 43
0.0000000001
 40
0.0
 40
0.0
 40
0.0
 40
0.0
 40
1.0
 40
1.0
 40
1.0
 40
1.0
 10
-72.9471
 20
-11.7704
 30
0.0
 10
-72.9471
 20
-11.7704
 30
0.0
 10
-72.9471
 20
-10.8473
 30
0.0
 10
-72.9471
 20
-10.8473
 30
0.0
  0
SPLINE
  5
E4
330
1F
100
AcDbEntity
  8
Ilustrace
 62
   250
370
    30
100
AcDbSpline
210
0.0
220
0.0
230
1.0
 70
    24
 71
     3
 72
     8
 73
     4
 74
     0
 42
0.0000000001
 43
0.0000000001
 40
0.0
 40
0.0
 40
0.0
 40
0.0
 40
1.0
 40
1.0
 40
1.0
 40
1.0
 10
-72.8895
 20
-10.8473
 30
0.0
 10
-72.8895
 20
-10.8473
 30
0.0
 10
-72.8895
 20
-11.7704
 30
0.0
 10
-72.8895
 20
-11.7704
 30
0.0
  0
SPLINE
  5
E5
330
1F
100
AcDbEntity
  8
Ilustrace
 62
   250
370
    30
100
AcDbSpline
210
0.0
220
0.0
230
1.0
 70
    24
 71
     3
 72
     8
 73
     4
 74
     0
 42
0.0000000001
 43
0.0000000001
 40
0.0
 40
0.0
 40
0.0
 40
0.0
 40
1.0
 40
1.0
 40
1.0
 40
1.0
 10
-36.3674
 20
-14.6517
 30
0.0
 10
-36.3674
 20
-14.6517
 30
0.0
 10
-72.9037
 20
-14.6627
 30
0.0
 10
-72.9037
 20
-14.6627
 30
0.0
  0
SPLINE
  5
E6
330
1F
100
AcDbEntity
  8
Ilustrace
 62
   250
370
    30
100
AcDbSpline
210
0.0
220
0.0
230
1.0
 70
    24
 71
     3
 72
     8
 73
     4
 74
     0
 42
0.0000000001
 43
0.0000000001
 40
0.0
 40
0.0
 40
0.0
 40
0.0
 40
1.0
 40
1.0
 40
1.0
 40
1.0
 10
-35.9153
 20
-13.7396
 30
0.0
 10
-35.9153
 20
-13.7396
 30
0.0
 10
-72.9037
 20
-13.7396
 30
0.0
 10
-72.9037
 20
-13.7396
 30
0.0
  0
SPLINE
  5
E7
330
1F
100
AcDbEntity
  8
Ilustrace
 62
   250
370
    30
100
AcDbSpline
210
0.0
220
0.0
230
1.0
 70
    24
 71
     3
 72
     8
 73
     4
 74
     0
 42
0.0000000001
 43
0.0000000001
 40
0.0
 40
0.0
 40
0.0
 40
0.0
 40
1.0
 40
1.0
 40
1.0
 40
1.0
 10
-72.9471
 20
-14.6627
 30
0.0
 10
-72.9471
 20
-14.6627
 30
0.0
 10
-72.9471
 20
-13.7396
 30
0.0
 10
-72.9471
 20
-13.7396
 30
0.0
  0
SPLINE
  5
E8
330
1F
100
AcDbEntity
  8
Ilustrace
 62
   250
370
    30
100
AcDbSpline
210
0.0
220
0.0
230
1.0
 70
    24
 71
     3
 72
     8
 73
     4
 74
     0
 42
0.0000000001
 43
0.0000000001
 40
0.0
 40
0.0
 40
0.0
 40
0.0
 40
1.0
 40
1.0
 40
1.0
 40
1.0
 10
-63.4857
 20
2.187
 30
0.0
 10
-63.4857
 20
2.187
 30
0.0
 10
-63.4857
 20
0.6219
 30
0.0
 10
-63.4857
 20
0.6219
 30
0.0
  0
SPLINE
  5
E9
330
1F
100
AcDbEntity
  8
Ilustrace
 62
   250
370
    30
100
AcDbSpline
210
0.0
220
0.0
230
1.0
 70
    24
 71
     3
 72
     8
 73
     4
 74
     0
 42
0.0000000001
 43
0.0000000001
 40
0.0
 40
0.0
 40
0.0
 40
0.0
 40
1.0
 40
1.0
 40
1.0
 40
1.0
 10
-63.4857
 20
0.668
 30
0.0
 10
-63.4857
 20
0.668
 30
0.0
 10
-64.4088
 20
0.668
 30
0.0
 10
-64.4088
 20
0.668
 30
0.0
  0
SPLINE
  5
EA
330
1F
100
AcDbEntity
  8
Ilustrace
 62
   250
370
    30
100
AcDbSpline
210
0.0
220
0.0
230
1.0
 70
    24
 71
     3
 72
     8
 73
     4
 74
     0
 42
0.0000000001
 43
0.0000000001
 40
0.0
 40
0.0
 40
0.0
 40
0.0
 40
1.0
 40
1.0
 40
1.0
 40
1.0
 10
-64.4088
 20
0.6219
 30
0.0
 10
-64.4088
 20
0.6219
 30
0.0
 10
-64.4088
 20
2.187
 30
0.0
 10
-64.4088
 20
2.187
 30
0.0
  0
SPLINE
  5
EB
330
1F
100
AcDbEntity
  8
Ilustrace
 62
   250
370
    30
100
AcDbSpline
210
0.0
220
0.0
230
1.0
 70
    24
 71
     3
 72
     8
 73
     4
 74
     0
 42
0.0000000001
 43
0.0000000001
 40
0.0
 40
0.0
 40
0.0
 40
0.0
 40
1.0
 40
1.0
 40
1.0
 40
1.0
 10
-64.4088
 20
2.2449
 30
0.0
 10
-64.4088
 20
2.2449
 30
0.0
 10
-63.4857
 20
2.2449
 30
0.0
 10
-63.4857
 20
2.2449
 30
0.0
  0
SPLINE
  5
EC
330
1F
100
AcDbEntity
  8
Ilustrace
 62
   250
370
    30
100
AcDbSpline
210
0.0
220
0.0
230
1.0
 70
    24
 71
     3
 72
     8
 73
     4
 74
     0
 42
0.0000000001
 43
0.0000000001
 40
0.0
 40
0.0
 40
0.0
 40
0.0
 40
1.0
 40
1.0
 40
1.0
 40
1.0
 10
-63.4857
 20
-0.3663
 30
0.0
 10
-63.4857
 20
-0.3663
 30
0.0
 10
-63.4857
 20
-2.1705
 30
0.0
 10
-63.4857
 20
-2.1705
 30
0.0
  0
SPLINE
  5
ED
330
1F
100
AcDbEntity
  8
Ilustrace
 62
   250
370
    30
100
AcDbSpline
210
0.0
220
0.0
230
1.0
 70
    24
 71
     3
 72
     8
 73
     4
 74
     0
 42
0.0000000001
 43
0.0000000001
 40
0.0
 40
0.0
 40
0.0
 40
0.0
 40
1.0
 40
1.0
 40
1.0
 40
1.0
 10
-63.4857
 20
-2.1243
 30
0.0
 10
-63.4857
 20
-2.1243
 30
0.0
 10
-64.4088
 20
-2.1243
 30
0.0
 10
-64.4088
 20
-2.1243
 30
0.0
  0
SPLINE
  5
EE
330
1F
100
AcDbEntity
  8
Ilustrace
 62
   250
370
    30
100
AcDbSpline
210
0.0
220
0.0
230
1.0
 70
    24
 71
     3
 72
     8
 73
     4
 74
     0
 42
0.0000000001
 43
0.0000000001
 40
0.0
 40
0.0
 40
0.0
 40
0.0
 40
1.0
 40
1.0
 40
1.0
 40
1.0
 10
-64.4088
 20
-2.1705
 30
0.0
 10
-64.4088
 20
-2.1705
 30
0.0
 10
-64.4088
 20
-0.3663
 30
0.0
 10
-64.4088
 20
-0.3663
 30
0.0
  0
SPLINE
  5
EF
330
1F
100
AcDbEntity
  8
Ilustrace
 62
   250
370
    30
100
AcDbSpline
210
0.0
220
0.0
230
1.0
 70
    24
 71
     3
 72
     8
 73
     4
 74
     0
 42
0.0000000001
 43
0.0000000001
 40
0.0
 40
0.0
 40
0.0
 40
0.0
 40
1.0
 40
1.0
 40
1.0
 40
1.0
 10
-64.4088
 20
-0.3475
 30
0.0
 10
-64.4088
 20
-0.3475
 30
0.0
 10
-63.4857
 20
-0.3475
 30
0.0
 10
-63.4857
 20
-0.3475
 30
0.0
  0
SPLINE
  5
F0
330
1F
100
AcDbEntity
  8
Ilustrace
 62
   250
370
    30
100
AcDbSpline
210
0.0
220
0.0
230
1.0
 70
    24
 71
     3
 72
     8
 73
     4
 74
     0
 42
0.0000000001
 43
0.0000000001
 40
0.0
 40
0.0
 40
0.0
 40
0.0
 40
1.0
 40
1.0
 40
1.0
 40
1.0
 10
-63.4857
 20
-3.118
 30
0.0
 10
-63.4857
 20
-3.118
 30
0.0
 10
-63.4857
 20
-4.9627
 30
0.0
 10
-63.4857
 20
-4.9627
 30
0.0
  0
SPLINE
  5
F1
330
1F
100
AcDbEntity
  8
Ilustrace
 62
   250
370
    30
100
AcDbSpline
210
0.0
220
0.0
230
1.0
 70
    24
 71
     3
 72
     8
 73
     4
 74
     0
 42
0.0000000001
 43
0.0000000001
 40
0.0
 40
0.0
 40
0.0
 40
0.0
 40
1.0
 40
1.0
 40
1.0
 40
1.0
 10
-63.4857
 20
-4.9166
 30
0.0
 10
-63.4857
 20
-4.9166
 30
0.0
 10
-64.4088
 20
-4.9166
 30
0.0
 10
-64.4088
 20
-4.9166
 30
0.0
  0
SPLINE
  5
F2
330
1F
100
AcDbEntity
  8
Ilustrace
 62
   250
370
    30
100
AcDbSpline
210
0.0
220
0.0
230
1.0
 70
    24
 71
     3
 72
     8
 73
     4
 74
     0
 42
0.0000000001
 43
0.0000000001
 40
0.0
 40
0.0
 40
0.0
 40
0.0
 40
1.0
 40
1.0
 40
1.0
 40
1.0
 10
-64.4088
 20
-4.9627
 30
0.0
 10
-64.4088
 20
-4.9627
 30
0.0
 10
-64.4088
 20
-3.118
 30
0.0
 10
-64.4088
 20
-3.118
 30
0.0
  0
SPLINE
  5
F3
330
1F
100
AcDbEntity
  8
Ilustrace
 62
   250
370
    30
100
AcDbSpline
210
0.0
220
0.0
230
1.0
 70
    24
 71
     3
 72
     8
 73
     4
 74
     0
 42
0.0000000001
 43
0.0000000001
 40
0.0
 40
0.0
 40
0.0
 40
0.0
 40
1.0
 40
1.0
 40
1.0
 40
1.0
 10
-64.4088
 20
-3.1397
 30
0.0
 10
-64.4088
 20
-3.1397
 30
0.0
 10
-63.4857
 20
-3.1397
 30
0.0
 10
-63.4857
 20
-3.1397
 30
0.0
  0
SPLINE
  5
F4
330
1F
100
AcDbEntity
  8
Ilustrace
 62
   250
370
    30
100
AcDbSpline
210
0.0
220
0.0
230
1.0
 70
    24
 71
     3
 72
     8
 73
     4
 74
     0
 42
0.0000000001
 43
0.0000000001
 40
0.0
 40
0.0
 40
0.0
 40
0.0
 40
1.0
 40
1.0
 40
1.0
 40
1.0
 10
-63.4857
 20
-5.9885
 30
0.0
 10
-63.4857
 20
-5.9885
 30
0.0
 10
-63.4857
 20
-7.955
 30
0.0
 10
-63.4857
 20
-7.955
 30
0.0
  0
SPLINE
  5
F5
330
1F
100
AcDbEntity
  8
Ilustrace
 62
   250
370
    30
100
AcDbSpline
210
0.0
220
0.0
230
1.0
 70
    24
 71
     3
 72
     8
 73
     4
 74
     0
 42
0.0000000001
 43
0.0000000001
 40
0.0
 40
0.0
 40
0.0
 40
0.0
 40
1.0
 40
1.0
 40
1.0
 40
1.0
 10
-63.4857
 20
-7.9089
 30
0.0
 10
-63.4857
 20
-7.9089
 30
0.0
 10
-64.4088
 20
-7.9089
 30
0.0
 10
-64.4088
 20
-7.9089
 30
0.0
  0
SPLINE
  5
F6
330
1F
100
AcDbEntity
  8
Ilustrace
 62
   250
370
    30
100
AcDbSpline
210
0.0
220
0.0
230
1.0
 70
    24
 71
     3
 72
     8
 73
     4
 74
     0
 42
0.0000000001
 43
0.0000000001
 40
0.0
 40
0.0
 40
0.0
 40
0.0
 40
1.0
 40
1.0
 40
1.0
 40
1.0
 10
-64.4088
 20
-7.955
 30
0.0
 10
-64.4088
 20
-7.955
 30
0.0
 10
-64.4088
 20
-5.9885
 30
0.0
 10
-64.4088
 20
-5.9885
 30
0.0
  0
SPLINE
  5
F7
330
1F
100
AcDbEntity
  8
Ilustrace
 62
   250
370
    30
100
AcDbSpline
210
0.0
220
0.0
230
1.0
 70
    24
 71
     3
 72
     8
 73
     4
 74
     0
 42
0.0000000001
 43
0.0000000001
 40
0.0
 40
0.0
 40
0.0
 40
0.0
 40
1.0
 40
1.0
 40
1.0
 40
1.0
 10
-64.4088
 20
-5.9319
 30
0.0
 10
-64.4088
 20
-5.9319
 30
0.0
 10
-63.4857
 20
-5.9319
 30
0.0
 10
-63.4857
 20
-5.9319
 30
0.0
  0
SPLINE
  5
F8
330
1F
100
AcDbEntity
  8
Ilustrace
 62
   250
370
    30
100
AcDbSpline
210
0.0
220
0.0
230
1.0
 70
    24
 71
     3
 72
     8
 73
     4
 74
     0
 42
0.0000000001
 43
0.0000000001
 40
0.0
 40
0.0
 40
0.0
 40
0.0
 40
1.0
 40
1.0
 40
1.0
 40
1.0
 10
-63.4857
 20
-8.9518
 30
0.0
 10
-63.4857
 20
-8.9518
 30
0.0
 10
-63.4857
 20
-10.6473
 30
0.0
 10
-63.4857
 20
-10.6473
 30
0.0
  0
SPLINE
  5
F9
330
1F
100
AcDbEntity
  8
Ilustrace
 62
   250
370
    30
100
AcDbSpline
210
0.0
220
0.0
230
1.0
 70
    24
 71
     3
 72
     8
 73
     4
 74
     0
 42
0.0000000001
 43
0.0000000001
 40
0.0
 40
0.0
 40
0.0
 40
0.0
 40
1.0
 40
1.0
 40
1.0
 40
1.0
 10
-63.4857
 20
-10.8011
 30
0.0
 10
-63.4857
 20
-10.8011
 30
0.0
 10
-64.4088
 20
-10.8011
 30
0.0
 10
-64.4088
 20
-10.8011
 30
0.0
  0
SPLINE
  5
FA
330
1F
100
AcDbEntity
  8
Ilustrace
 62
   250
370
    30
100
AcDbSpline
210
0.0
220
0.0
230
1.0
 70
    24
 71
     3
 72
     8
 73
     4
 74
     0
 42
0.0000000001
 43
0.0000000001
 40
0.0
 40
0.0
 40
0.0
 40
0.0
 40
1.0
 40
1.0
 40
1.0
 40
1.0
 10
-64.4088
 20
-10.6473
 30
0.0
 10
-64.4088
 20
-10.6473
 30
0.0
 10
-64.4088
 20
-8.9518
 30
0.0
 10
-64.4088
 20
-8.9518
 30
0.0
  0
SPLINE
  5
FB
330
1F
100
AcDbEntity
  8
Ilustrace
 62
   250
370
    30
100
AcDbSpline
210
0.0
220
0.0
230
1.0
 70
    24
 71
     3
 72
     8
 73
     4
 74
     0
 42
0.0000000001
 43
0.0000000001
 40
0.0
 40
0.0
 40
0.0
 40
0.0
 40
1.0
 40
1.0
 40
1.0
 40
1.0
 10
-64.4088
 20
-8.9242
 30
0.0
 10
-64.4088
 20
-8.9242
 30
0.0
 10
-63.4857
 20
-8.9242
 30
0.0
 10
-63.4857
 20
-8.9242
 30
0.0
  0
SPLINE
  5
FC
330
1F
100
AcDbEntity
  8
Ilustrace
 62
   250
370
    30
100
AcDbSpline
210
0.0
220
0.0
230
1.0
 70
    24
 71
     3
 72
     8
 73
     4
 74
     0
 42
0.0000000001
 43
0.0000000001
 40
0.0
 40
0.0
 40
0.0
 40
0.0
 40
1.0
 40
1.0
 40
1.0
 40
1.0
 10
-63.4857
 20
-11.7703
 30
0.0
 10
-63.4857
 20
-11.7703
 30
0.0
 10
-63.4857
 20
-13.5799
 30
0.0
 10
-63.4857
 20
-13.5799
 30
0.0
  0
SPLINE
  5
FD
330
1F
100
AcDbEntity
  8
Ilustrace
 62
   250
370
    30
100
AcDbSpline
210
0.0
220
0.0
230
1.0
 70
    24
 71
     3
 72
     8
 73
     4
 74
     0
 42
0.0000000001
 43
0.0000000001
 40
0.0
 40
0.0
 40
0.0
 40
0.0
 40
1.0
 40
1.0
 40
1.0
 40
1.0
 10
-63.4857
 20
-13.6935
 30
0.0
 10
-63.4857
 20
-13.6935
 30
0.0
 10
-64.4088
 20
-13.6935
 30
0.0
 10
-64.4088
 20
-13.6935
 30
0.0
  0
SPLINE
  5
FE
330
1F
100
AcDbEntity
  8
Ilustrace
 62
   250
370
    30
100
AcDbSpline
210
0.0
220
0.0
230
1.0
 70
    24
 71
     3
 72
     8
 73
     4
 74
     0
 42
0.0000000001
 43
0.0000000001
 40
0.0
 40
0.0
 40
0.0
 40
0.0
 40
1.0
 40
1.0
 40
1.0
 40
1.0
 10
-64.4088
 20
-13.5799
 30
0.0
 10
-64.4088
 20
-13.5799
 30
0.0
 10
-64.4088
 20
-11.7703
 30
0.0
 10
-64.4088
 20
-11.7703
 30
0.0
  0
SPLINE
  5
FF
330
1F
100
AcDbEntity
  8
Ilustrace
 62
   250
370
    30
100
AcDbSpline
210
0.0
220
0.0
230
1.0
 70
    24
 71
     3
 72
     8
 73
     4
 74
     0
 42
0.0000000001
 43
0.0000000001
 40
0.0
 40
0.0
 40
0.0
 40
0.0
 40
1.0
 40
1.0
 40
1.0
 40
1.0
 10
67.2615
 20
2.6883
 30
0.0
 10
67.2615
 20
2.6883
 30
0.0
 10
63.8001
 20
2.6883
 30
0.0
 10
63.8001
 20
2.6883
 30
0.0
  0
SPLINE
  5
100
330
1F
100
AcDbEntity
  8
Ilustrace
 62
   250
370
    30
100
AcDbSpline
210
0.0
220
0.0
230
1.0
 70
    24
 71
     3
 72
     8
 73
     4
 74
     0
 42
0.0000000001
 43
0.0000000001
 40
0.0
 40
0.0
 40
0.0
 40
0.0
 40
1.0
 40
1.0
 40
1.0
 40
1.0
 10
63.8001
 20
3.3807
 30
0.0
 10
63.8001
 20
3.3807
 30
0.0
 10
67.2615
 20
3.3807
 30
0.0
 10
67.2615
 20
3.3807
 30
0.0
  0
SPLINE
  5
101
330
1F
100
AcDbEntity
  8
Ilustrace
 62
   250
370
    30
100
AcDbSpline
210
0.0
220
0.0
230
1.0
 70
    24
 71
     3
 72
     8
 73
     4
 74
     0
 42
0.0000000001
 43
0.0000000001
 40
0.0
 40
0.0
 40
0.0
 40
0.0
 40
1.0
 40
1.0
 40
1.0
 40
1.0
 10
67.2615
 20
2.6883
 30
0.0
 10
67.2615
 20
2.6883
 30
0.0
 10
67.2615
 20
3.3807
 30
0.0
 10
67.2615
 20
3.3807
 30
0.0
  0
SPLINE
  5
102
330
1F
100
AcDbEntity
  8
Ilustrace
 62
   250
370
    30
100
AcDbSpline
210
0.0
220
0.0
230
1.0
 70
    24
 71
     3
 72
     8
 73
     4
 74
     0
 42
0.0000000001
 43
0.0000000001
 40
0.0
 40
0.0
 40
0.0
 40
0.0
 40
1.0
 40
1.0
 40
1.0
 40
1.0
 10
63.8001
 20
3.3807
 30
0.0
 10
63.8001
 20
3.3807
 30
0.0
 10
63.8001
 20
2.6883
 30
0.0
 10
63.8001
 20
2.6883
 30
0.0
  0
SPLINE
  5
103
330
1F
100
AcDbEntity
  8
Ilustrace
 62
   250
370
    30
100
AcDbSpline
210
0.0
220
0.0
230
1.0
 70
    24
 71
     3
 72
     8
 73
     4
 74
     0
 42
0.0000000001
 43
0.0000000001
 40
0.0
 40
0.0
 40
0.0
 40
0.0
 40
1.0
 40
1.0
 40
1.0
 40
1.0
 10
67.1461
 20
3.3807
 30
0.0
 10
67.1461
 20
3.3807
 30
0.0
 10
67.1461
 20
2.6883
 30
0.0
 10
67.1461
 20
2.6883
 30
0.0
  0
SPLINE
  5
104
330
1F
100
AcDbEntity
  8
Ilustrace
 62
   250
370
    30
100
AcDbSpline
210
0.0
220
0.0
230
1.0
 70
    24
 71
     3
 72
     8
 73
     4
 74
     0
 42
0.0000000001
 43
0.0000000001
 40
0.0
 40
0.0
 40
0.0
 40
0.0
 40
1.0
 40
1.0
 40
1.0
 40
1.0
 10
63.9154
 20
3.3807
 30
0.0
 10
63.9154
 20
3.3807
 30
0.0
 10
63.9154
 20
2.6883
 30
0.0
 10
63.9154
 20
2.6883
 30
0.0
  0
SPLINE
  5
105
330
1F
100
AcDbEntity
  8
Ilustrace
 62
   250
370
    30
100
AcDbSpline
210
0.0
220
0.0
230
1.0
 70
    24
 71
     3
 72
     8
 73
     4
 74
     0
 42
0.0000000001
 43
0.0000000001
 40
0.0
 40
0.0
 40
0.0
 40
0.0
 40
1.0
 40
1.0
 40
1.0
 40
1.0
 10
67.2615
 20
-0.1963
 30
0.0
 10
67.2615
 20
-0.1963
 30
0.0
 10
63.8001
 20
-0.1963
 30
0.0
 10
63.8001
 20
-0.1963
 30
0.0
  0
SPLINE
  5
106
330
1F
100
AcDbEntity
  8
Ilustrace
 62
   250
370
    30
100
AcDbSpline
210
0.0
220
0.0
230
1.0
 70
    24
 71
     3
 72
     8
 73
     4
 74
     0
 42
0.0000000001
 43
0.0000000001
 40
0.0
 40
0.0
 40
0.0
 40
0.0
 40
1.0
 40
1.0
 40
1.0
 40
1.0
 10
63.8001
 20
0.4959
 30
0.0
 10
63.8001
 20
0.4959
 30
0.0
 10
67.2615
 20
0.4959
 30
0.0
 10
67.2615
 20
0.4959
 30
0.0
  0
SPLINE
  5
107
330
1F
100
AcDbEntity
  8
Ilustrace
 62
   250
370
    30
100
AcDbSpline
210
0.0
220
0.0
230
1.0
 70
    24
 71
     3
 72
     8
 73
     4
 74
     0
 42
0.0000000001
 43
0.0000000001
 40
0.0
 40
0.0
 40
0.0
 40
0.0
 40
1.0
 40
1.0
 40
1.0
 40
1.0
 10
67.2615
 20
-0.1963
 30
0.0
 10
67.2615
 20
-0.1963
 30
0.0
 10
67.2615
 20
0.4959
 30
0.0
 10
67.2615
 20
0.4959
 30
0.0
  0
SPLINE
  5
108
330
1F
100
AcDbEntity
  8
Ilustrace
 62
   250
370
    30
100
AcDbSpline
210
0.0
220
0.0
230
1.0
 70
    24
 71
     3
 72
     8
 73
     4
 74
     0
 42
0.0000000001
 43
0.0000000001
 40
0.0
 40
0.0
 40
0.0
 40
0.0
 40
1.0
 40
1.0
 40
1.0
 40
1.0
 10
63.8001
 20
-0.1963
 30
0.0
 10
63.8001
 20
-0.1963
 30
0.0
 10
63.8001
 20
0.4959
 30
0.0
 10
63.8001
 20
0.4959
 30
0.0
  0
SPLINE
  5
109
330
1F
100
AcDbEntity
  8
Ilustrace
 62
   250
370
    30
100
AcDbSpline
210
0.0
220
0.0
230
1.0
 70
    24
 71
     3
 72
     8
 73
     4
 74
     0
 42
0.0000000001
 43
0.0000000001
 40
0.0
 40
0.0
 40
0.0
 40
0.0
 40
1.0
 40
1.0
 40
1.0
 40
1.0
 10
67.1461
 20
0.4959
 30
0.0
 10
67.1461
 20
0.4959
 30
0.0
 10
67.1461
 20
-0.1963
 30
0.0
 10
67.1461
 20
-0.1963
 30
0.0
  0
SPLINE
  5
10A
330
1F
100
AcDbEntity
  8
Ilustrace
 62
   250
370
    30
100
AcDbSpline
210
0.0
220
0.0
230
1.0
 70
    24
 71
     3
 72
     8
 73
     4
 74
     0
 42
0.0000000001
 43
0.0000000001
 40
0.0
 40
0.0
 40
0.0
 40
0.0
 40
1.0
 40
1.0
 40
1.0
 40
1.0
 10
63.9154
 20
0.4959
 30
0.0
 10
63.9154
 20
0.4959
 30
0.0
 10
63.9154
 20
-0.1963
 30
0.0
 10
63.9154
 20
-0.1963
 30
0.0
  0
SPLINE
  5
10B
330
1F
100
AcDbEntity
  8
Ilustrace
 62
   250
370
    30
100
AcDbSpline
210
0.0
220
0.0
230
1.0
 70
    24
 71
     3
 72
     8
 73
     4
 74
     0
 42
0.0000000001
 43
0.0000000001
 40
0.0
 40
0.0
 40
0.0
 40
0.0
 40
1.0
 40
1.0
 40
1.0
 40
1.0
 10
67.2615
 20
-3.0809
 30
0.0
 10
67.2615
 20
-3.0809
 30
0.0
 10
63.8001
 20
-3.0809
 30
0.0
 10
63.8001
 20
-3.0809
 30
0.0
  0
SPLINE
  5
10C
330
1F
100
AcDbEntity
  8
Ilustrace
 62
   250
370
    30
100
AcDbSpline
210
0.0
220
0.0
230
1.0
 70
    24
 71
     3
 72
     8
 73
     4
 74
     0
 42
0.0000000001
 43
0.0000000001
 40
0.0
 40
0.0
 40
0.0
 40
0.0
 40
1.0
 40
1.0
 40
1.0
 40
1.0
 10
63.8001
 20
-2.3887
 30
0.0
 10
63.8001
 20
-2.3887
 30
0.0
 10
67.2615
 20
-2.3887
 30
0.0
 10
67.2615
 20
-2.3887
 30
0.0
  0
SPLINE
  5
10D
330
1F
100
AcDbEntity
  8
Ilustrace
 62
   250
370
    30
100
AcDbSpline
210
0.0
220
0.0
230
1.0
 70
    24
 71
     3
 72
     8
 73
     4
 74
     0
 42
0.0000000001
 43
0.0000000001
 40
0.0
 40
0.0
 40
0.0
 40
0.0
 40
1.0
 40
1.0
 40
1.0
 40
1.0
 10
67.2615
 20
-3.0809
 30
0.0
 10
67.2615
 20
-3.0809
 30
0.0
 10
67.2615
 20
-2.3887
 30
0.0
 10
67.2615
 20
-2.3887
 30
0.0
  0
SPLINE
  5
10E
330
1F
100
AcDbEntity
  8
Ilustrace
 62
   250
370
    30
100
AcDbSpline
210
0.0
220
0.0
230
1.0
 70
    24
 71
     3
 72
     8
 73
     4
 74
     0
 42
0.0000000001
 43
0.0000000001
 40
0.0
 40
0.0
 40
0.0
 40
0.0
 40
1.0
 40
1.0
 40
1.0
 40
1.0
 10
63.8001
 20
-3.0809
 30
0.0
 10
63.8001
 20
-3.0809
 30
0.0
 10
63.8001
 20
-2.3887
 30
0.0
 10
63.8001
 20
-2.3887
 30
0.0
  0
SPLINE
  5
10F
330
1F
100
AcDbEntity
  8
Ilustrace
 62
   250
370
    30
100
AcDbSpline
210
0.0
220
0.0
230
1.0
 70
    24
 71
     3
 72
     8
 73
     4
 74
     0
 42
0.0000000001
 43
0.0000000001
 40
0.0
 40
0.0
 40
0.0
 40
0.0
 40
1.0
 40
1.0
 40
1.0
 40
1.0
 10
67.1461
 20
-2.3887
 30
0.0
 10
67.1461
 20
-2.3887
 30
0.0
 10
67.1461
 20
-3.0809
 30
0.0
 10
67.1461
 20
-3.0809
 30
0.0
  0
SPLINE
  5
110
330
1F
100
AcDbEntity
  8
Ilustrace
 62
   250
370
    30
100
AcDbSpline
210
0.0
220
0.0
230
1.0
 70
    24
 71
     3
 72
     8
 73
     4
 74
     0
 42
0.0000000001
 43
0.0000000001
 40
0.0
 40
0.0
 40
0.0
 40
0.0
 40
1.0
 40
1.0
 40
1.0
 40
1.0
 10
63.9154
 20
-2.3887
 30
0.0
 10
63.9154
 20
-2.3887
 30
0.0
 10
63.9154
 20
-3.0809
 30
0.0
 10
63.9154
 20
-3.0809
 30
0.0
  0
SPLINE
  5
111
330
1F
100
AcDbEntity
  8
Ilustrace
 62
   250
370
    30
100
AcDbSpline
210
0.0
220
0.0
230
1.0
 70
    24
 71
     3
 72
     8
 73
     4
 74
     0
 42
0.0000000001
 43
0.0000000001
 40
0.0
 40
0.0
 40
0.0
 40
0.0
 40
1.0
 40
1.0
 40
1.0
 40
1.0
 10
67.2615
 20
-5.9655
 30
0.0
 10
67.2615
 20
-5.9655
 30
0.0
 10
63.8001
 20
-5.9655
 30
0.0
 10
63.8001
 20
-5.9655
 30
0.0
  0
SPLINE
  5
112
330
1F
100
AcDbEntity
  8
Ilustrace
 62
   250
370
    30
100
AcDbSpline
210
0.0
220
0.0
230
1.0
 70
    24
 71
     3
 72
     8
 73
     4
 74
     0
 42
0.0000000001
 43
0.0000000001
 40
0.0
 40
0.0
 40
0.0
 40
0.0
 40
1.0
 40
1.0
 40
1.0
 40
1.0
 10
63.8001
 20
-5.2732
 30
0.0
 10
63.8001
 20
-5.2732
 30
0.0
 10
67.2615
 20
-5.2732
 30
0.0
 10
67.2615
 20
-5.2732
 30
0.0
  0
SPLINE
  5
113
330
1F
100
AcDbEntity
  8
Ilustrace
 62
   250
370
    30
100
AcDbSpline
210
0.0
220
0.0
230
1.0
 70
    24
 71
     3
 72
     8
 73
     4
 74
     0
 42
0.0000000001
 43
0.0000000001
 40
0.0
 40
0.0
 40
0.0
 40
0.0
 40
1.0
 40
1.0
 40
1.0
 40
1.0
 10
67.2615
 20
-5.9655
 30
0.0
 10
67.2615
 20
-5.9655
 30
0.0
 10
67.2615
 20
-5.2732
 30
0.0
 10
67.2615
 20
-5.2732
 30
0.0
  0
SPLINE
  5
114
330
1F
100
AcDbEntity
  8
Ilustrace
 62
   250
370
    30
100
AcDbSpline
210
0.0
220
0.0
230
1.0
 70
    24
 71
     3
 72
     8
 73
     4
 74
     0
 42
0.0000000001
 43
0.0000000001
 40
0.0
 40
0.0
 40
0.0
 40
0.0
 40
1.0
 40
1.0
 40
1.0
 40
1.0
 10
63.8001
 20
-5.9655
 30
0.0
 10
63.8001
 20
-5.9655
 30
0.0
 10
63.8001
 20
-5.2732
 30
0.0
 10
63.8001
 20
-5.2732
 30
0.0
  0
SPLINE
  5
115
330
1F
100
AcDbEntity
  8
Ilustrace
 62
   250
370
    30
100
AcDbSpline
210
0.0
220
0.0
230
1.0
 70
    24
 71
     3
 72
     8
 73
     4
 74
     0
 42
0.0000000001
 43
0.0000000001
 40
0.0
 40
0.0
 40
0.0
 40
0.0
 40
1.0
 40
1.0
 40
1.0
 40
1.0
 10
67.1461
 20
-5.2732
 30
0.0
 10
67.1461
 20
-5.2732
 30
0.0
 10
67.1461
 20
-5.9655
 30
0.0
 10
67.1461
 20
-5.9655
 30
0.0
  0
SPLINE
  5
116
330
1F
100
AcDbEntity
  8
Ilustrace
 62
   250
370
    30
100
AcDbSpline
210
0.0
220
0.0
230
1.0
 70
    24
 71
     3
 72
     8
 73
     4
 74
     0
 42
0.0000000001
 43
0.0000000001
 40
0.0
 40
0.0
 40
0.0
 40
0.0
 40
1.0
 40
1.0
 40
1.0
 40
1.0
 10
63.9154
 20
-5.2732
 30
0.0
 10
63.9154
 20
-5.2732
 30
0.0
 10
63.9154
 20
-5.9655
 30
0.0
 10
63.9154
 20
-5.9655
 30
0.0
  0
SPLINE
  5
117
330
1F
100
AcDbEntity
  8
Ilustrace
 62
   250
370
    30
100
AcDbSpline
210
0.0
220
0.0
230
1.0
 70
    24
 71
     3
 72
     8
 73
     4
 74
     0
 42
0.0000000001
 43
0.0000000001
 40
0.0
 40
0.0
 40
0.0
 40
0.0
 40
1.0
 40
1.0
 40
1.0
 40
1.0
 10
67.2615
 20
-8.8501
 30
0.0
 10
67.2615
 20
-8.8501
 30
0.0
 10
63.8001
 20
-8.8501
 30
0.0
 10
63.8001
 20
-8.8501
 30
0.0
  0
SPLINE
  5
118
330
1F
100
AcDbEntity
  8
Ilustrace
 62
   250
370
    30
100
AcDbSpline
210
0.0
220
0.0
230
1.0
 70
    24
 71
     3
 72
     8
 73
     4
 74
     0
 42
0.0000000001
 43
0.0000000001
 40
0.0
 40
0.0
 40
0.0
 40
0.0
 40
1.0
 40
1.0
 40
1.0
 40
1.0
 10
63.8001
 20
-8.1577
 30
0.0
 10
63.8001
 20
-8.1577
 30
0.0
 10
67.2615
 20
-8.1577
 30
0.0
 10
67.2615
 20
-8.1577
 30
0.0
  0
SPLINE
  5
119
330
1F
100
AcDbEntity
  8
Ilustrace
 62
   250
370
    30
100
AcDbSpline
210
0.0
220
0.0
230
1.0
 70
    24
 71
     3
 72
     8
 73
     4
 74
     0
 42
0.0000000001
 43
0.0000000001
 40
0.0
 40
0.0
 40
0.0
 40
0.0
 40
1.0
 40
1.0
 40
1.0
 40
1.0
 10
67.2615
 20
-8.8501
 30
0.0
 10
67.2615
 20
-8.8501
 30
0.0
 10
67.2615
 20
-8.1577
 30
0.0
 10
67.2615
 20
-8.1577
 30
0.0
  0
SPLINE
  5
11A
330
1F
100
AcDbEntity
  8
Ilustrace
 62
   250
370
    30
100
AcDbSpline
210
0.0
220
0.0
230
1.0
 70
    24
 71
     3
 72
     8
 73
     4
 74
     0
 42
0.0000000001
 43
0.0000000001
 40
0.0
 40
0.0
 40
0.0
 40
0.0
 40
1.0
 40
1.0
 40
1.0
 40
1.0
 10
63.8001
 20
-8.8501
 30
0.0
 10
63.8001
 20
-8.8501
 30
0.0
 10
63.8001
 20
-8.1577
 30
0.0
 10
63.8001
 20
-8.1577
 30
0.0
  0
SPLINE
  5
11B
330
1F
100
AcDbEntity
  8
Ilustrace
 62
   250
370
    30
100
AcDbSpline
210
0.0
220
0.0
230
1.0
 70
    24
 71
     3
 72
     8
 73
     4
 74
     0
 42
0.0000000001
 43
0.0000000001
 40
0.0
 40
0.0
 40
0.0
 40
0.0
 40
1.0
 40
1.0
 40
1.0
 40
1.0
 10
67.1461
 20
-8.1577
 30
0.0
 10
67.1461
 20
-8.1577
 30
0.0
 10
67.1461
 20
-8.8501
 30
0.0
 10
67.1461
 20
-8.8501
 30
0.0
  0
SPLINE
  5
11C
330
1F
100
AcDbEntity
  8
Ilustrace
 62
   250
370
    30
100
AcDbSpline
210
0.0
220
0.0
230
1.0
 70
    24
 71
     3
 72
     8
 73
     4
 74
     0
 42
0.0000000001
 43
0.0000000001
 40
0.0
 40
0.0
 40
0.0
 40
0.0
 40
1.0
 40
1.0
 40
1.0
 40
1.0
 10
63.9154
 20
-8.1577
 30
0.0
 10
63.9154
 20
-8.1577
 30
0.0
 10
63.9154
 20
-8.8501
 30
0.0
 10
63.9154
 20
-8.8501
 30
0.0
  0
SPLINE
  5
11D
330
1F
100
AcDbEntity
  8
Ilustrace
 62
   250
370
    30
100
AcDbSpline
210
0.0
220
0.0
230
1.0
 70
    24
 71
     3
 72
     8
 73
     4
 74
     0
 42
0.0000000001
 43
0.0000000001
 40
0.0
 40
0.0
 40
0.0
 40
0.0
 40
1.0
 40
1.0
 40
1.0
 40
1.0
 10
67.2615
 20
-11.7346
 30
0.0
 10
67.2615
 20
-11.7346
 30
0.0
 10
63.8001
 20
-11.7346
 30
0.0
 10
63.8001
 20
-11.7346
 30
0.0
  0
SPLINE
  5
11E
330
1F
100
AcDbEntity
  8
Ilustrace
 62
   250
370
    30
100
AcDbSpline
210
0.0
220
0.0
230
1.0
 70
    24
 71
     3
 72
     8
 73
     4
 74
     0
 42
0.0000000001
 43
0.0000000001
 40
0.0
 40
0.0
 40
0.0
 40
0.0
 40
1.0
 40
1.0
 40
1.0
 40
1.0
 10
63.8001
 20
-11.0424
 30
0.0
 10
63.8001
 20
-11.0424
 30
0.0
 10
67.2615
 20
-11.0424
 30
0.0
 10
67.2615
 20
-11.0424
 30
0.0
  0
SPLINE
  5
11F
330
1F
100
AcDbEntity
  8
Ilustrace
 62
   250
370
    30
100
AcDbSpline
210
0.0
220
0.0
230
1.0
 70
    24
 71
     3
 72
     8
 73
     4
 74
     0
 42
0.0000000001
 43
0.0000000001
 40
0.0
 40
0.0
 40
0.0
 40
0.0
 40
1.0
 40
1.0
 40
1.0
 40
1.0
 10
67.2615
 20
-11.7346
 30
0.0
 10
67.2615
 20
-11.7346
 30
0.0
 10
67.2615
 20
-11.0424
 30
0.0
 10
67.2615
 20
-11.0424
 30
0.0
  0
SPLINE
  5
120
330
1F
100
AcDbEntity
  8
Ilustrace
 62
   250
370
    30
100
AcDbSpline
210
0.0
220
0.0
230
1.0
 70
    24
 71
     3
 72
     8
 73
     4
 74
     0
 42
0.0000000001
 43
0.0000000001
 40
0.0
 40
0.0
 40
0.0
 40
0.0
 40
1.0
 40
1.0
 40
1.0
 40
1.0
 10
63.8001
 20
-11.7346
 30
0.0
 10
63.8001
 20
-11.7346
 30
0.0
 10
63.8001
 20
-11.0424
 30
0.0
 10
63.8001
 20
-11.0424
 30
0.0
  0
SPLINE
  5
121
330
1F
100
AcDbEntity
  8
Ilustrace
 62
   250
370
    30
100
AcDbSpline
210
0.0
220
0.0
230
1.0
 70
    24
 71
     3
 72
     8
 73
     4
 74
     0
 42
0.0000000001
 43
0.0000000001
 40
0.0
 40
0.0
 40
0.0
 40
0.0
 40
1.0
 40
1.0
 40
1.0
 40
1.0
 10
67.1461
 20
-11.0424
 30
0.0
 10
67.1461
 20
-11.0424
 30
0.0
 10
67.1461
 20
-11.7346
 30
0.0
 10
67.1461
 20
-11.7346
 30
0.0
  0
SPLINE
  5
122
330
1F
100
AcDbEntity
  8
Ilustrace
 62
   250
370
    30
100
AcDbSpline
210
0.0
220
0.0
230
1.0
 70
    24
 71
     3
 72
     8
 73
     4
 74
     0
 42
0.0000000001
 43
0.0000000001
 40
0.0
 40
0.0
 40
0.0
 40
0.0
 40
1.0
 40
1.0
 40
1.0
 40
1.0
 10
63.9154
 20
-11.0424
 30
0.0
 10
63.9154
 20
-11.0424
 30
0.0
 10
63.9154
 20
-11.7346
 30
0.0
 10
63.9154
 20
-11.7346
 30
0.0
  0
SPLINE
  5
123
330
1F
100
AcDbEntity
  8
Ilustrace
 62
   250
370
    30
100
AcDbSpline
210
0.0
220
0.0
230
1.0
 70
    24
 71
     3
 72
     8
 73
     4
 74
     0
 42
0.0000000001
 43
0.0000000001
 40
0.0
 40
0.0
 40
0.0
 40
0.0
 40
1.0
 40
1.0
 40
1.0
 40
1.0
 10
67.2615
 20
-14.6193
 30
0.0
 10
67.2615
 20
-14.6193
 30
0.0
 10
63.8001
 20
-14.6193
 30
0.0
 10
63.8001
 20
-14.6193
 30
0.0
  0
SPLINE
  5
124
330
1F
100
AcDbEntity
  8
Ilustrace
 62
   250
370
    30
100
AcDbSpline
210
0.0
220
0.0
230
1.0
 70
    24
 71
     3
 72
     8
 73
     4
 74
     0
 42
0.0000000001
 43
0.0000000001
 40
0.0
 40
0.0
 40
0.0
 40
0.0
 40
1.0
 40
1.0
 40
1.0
 40
1.0
 10
63.8001
 20
-13.927
 30
0.0
 10
63.8001
 20
-13.927
 30
0.0
 10
67.2615
 20
-13.927
 30
0.0
 10
67.2615
 20
-13.927
 30
0.0
  0
SPLINE
  5
125
330
1F
100
AcDbEntity
  8
Ilustrace
 62
   250
370
    30
100
AcDbSpline
210
0.0
220
0.0
230
1.0
 70
    24
 71
     3
 72
     8
 73
     4
 74
     0
 42
0.0000000001
 43
0.0000000001
 40
0.0
 40
0.0
 40
0.0
 40
0.0
 40
1.0
 40
1.0
 40
1.0
 40
1.0
 10
67.2615
 20
-14.6193
 30
0.0
 10
67.2615
 20
-14.6193
 30
0.0
 10
67.2615
 20
-13.927
 30
0.0
 10
67.2615
 20
-13.927
 30
0.0
  0
SPLINE
  5
126
330
1F
100
AcDbEntity
  8
Ilustrace
 62
   250
370
    30
100
AcDbSpline
210
0.0
220
0.0
230
1.0
 70
    24
 71
     3
 72
     8
 73
     4
 74
     0
 42
0.0000000001
 43
0.0000000001
 40
0.0
 40
0.0
 40
0.0
 40
0.0
 40
1.0
 40
1.0
 40
1.0
 40
1.0
 10
63.8001
 20
-14.6193
 30
0.0
 10
63.8001
 20
-14.6193
 30
0.0
 10
63.8001
 20
-13.927
 30
0.0
 10
63.8001
 20
-13.927
 30
0.0
  0
SPLINE
  5
127
330
1F
100
AcDbEntity
  8
Ilustrace
 62
   250
370
    30
100
AcDbSpline
210
0.0
220
0.0
230
1.0
 70
    24
 71
     3
 72
     8
 73
     4
 74
     0
 42
0.0000000001
 43
0.0000000001
 40
0.0
 40
0.0
 40
0.0
 40
0.0
 40
1.0
 40
1.0
 40
1.0
 40
1.0
 10
67.1461
 20
-13.927
 30
0.0
 10
67.1461
 20
-13.927
 30
0.0
 10
67.1461
 20
-14.6193
 30
0.0
 10
67.1461
 20
-14.6193
 30
0.0
  0
SPLINE
  5
128
330
1F
100
AcDbEntity
  8
Ilustrace
 62
   250
370
    30
100
AcDbSpline
210
0.0
220
0.0
230
1.0
 70
    24
 71
     3
 72
     8
 73
     4
 74
     0
 42
0.0000000001
 43
0.0000000001
 40
0.0
 40
0.0
 40
0.0
 40
0.0
 40
1.0
 40
1.0
 40
1.0
 40
1.0
 10
63.9154
 20
-13.927
 30
0.0
 10
63.9154
 20
-13.927
 30
0.0
 10
63.9154
 20
-14.6193
 30
0.0
 10
63.9154
 20
-14.6193
 30
0.0
  0
SPLINE
  5
129
330
1F
100
AcDbEntity
  8
Ilustrace
 62
   250
370
    30
100
AcDbSpline
210
0.0
220
0.0
230
1.0
 70
    24
 71
     3
 72
     8
 73
     4
 74
     0
 42
0.0000000001
 43
0.0000000001
 40
0.0
 40
0.0
 40
0.0
 40
0.0
 40
1.0
 40
1.0
 40
1.0
 40
1.0
 10
66.1077
 20
-11.0077
 30
0.0
 10
66.1077
 20
-11.0077
 30
0.0
 10
63.7769
 20
-11.0077
 30
0.0
 10
63.7769
 20
-11.0077
 30
0.0
  0
SPLINE
  5
12A
330
1F
100
AcDbEntity
  8
Ilustrace
 62
   250
370
    30
100
AcDbSpline
210
0.0
220
0.0
230
1.0
 70
    24
 71
     3
 72
     8
 73
     4
 74
     0
 42
0.0000000001
 43
0.0000000001
 40
0.0
 40
0.0
 40
0.0
 40
0.0
 40
1.0
 40
1.0
 40
1.0
 40
1.0
 10
62.6461
 20
-14.6193
 30
0.0
 10
62.6461
 20
-14.6193
 30
0.0
 10
63.7769
 20
-14.6193
 30
0.0
 10
63.7769
 20
-14.6193
 30
0.0
  0
SPLINE
  5
12B
330
1F
100
AcDbEntity
  8
Ilustrace
 62
   250
370
    30
100
AcDbSpline
210
0.0
220
0.0
230
1.0
 70
    24
 71
     3
 72
     8
 73
     4
 74
     0
 42
0.0000000001
 43
0.0000000001
 40
0.0
 40
0.0
 40
0.0
 40
0.0
 40
1.0
 40
1.0
 40
1.0
 40
1.0
 10
63.7769
 20
-13.8923
 30
0.0
 10
63.7769
 20
-13.8923
 30
0.0
 10
63.7769
 20
-14.6193
 30
0.0
 10
63.7769
 20
-14.6193
 30
0.0
  0
SPLINE
  5
12C
330
1F
100
AcDbEntity
  8
Ilustrace
 62
   250
370
    30
100
AcDbSpline
210
0.0
220
0.0
230
1.0
 70
    24
 71
     3
 72
     8
 73
     4
 74
     0
 42
0.0000000001
 43
0.0000000001
 40
0.0
 40
0.0
 40
0.0
 40
0.0
 40
1.0
 40
1.0
 40
1.0
 40
1.0
 10
62.6461
 20
-14.6193
 30
0.0
 10
62.6461
 20
-14.6193
 30
0.0
 10
62.6461
 20
3.3807
 30
0.0
 10
62.6461
 20
3.3807
 30
0.0
  0
SPLINE
  5
12D
330
1F
100
AcDbEntity
  8
Ilustrace
 62
   250
370
    30
100
AcDbSpline
210
0.0
220
0.0
230
1.0
 70
    24
 71
     3
 72
     8
 73
     4
 74
     0
 42
0.0000000001
 43
0.0000000001
 40
0.0
 40
0.0
 40
0.0
 40
0.0
 40
1.0
 40
1.0
 40
1.0
 40
1.0
 10
63.7769
 20
2.6537
 30
0.0
 10
63.7769
 20
2.6537
 30
0.0
 10
63.7769
 20
3.3807
 30
0.0
 10
63.7769
 20
3.3807
 30
0.0
  0
SPLINE
  5
12E
330
1F
100
AcDbEntity
  8
Ilustrace
 62
   250
370
    30
100
AcDbSpline
210
0.0
220
0.0
230
1.0
 70
    24
 71
     3
 72
     8
 73
     4
 74
     0
 42
0.0000000001
 43
0.0000000001
 40
0.0
 40
0.0
 40
0.0
 40
0.0
 40
1.0
 40
1.0
 40
1.0
 40
1.0
 10
62.6461
 20
3.3807
 30
0.0
 10
62.6461
 20
3.3807
 30
0.0
 10
63.7769
 20
3.3807
 30
0.0
 10
63.7769
 20
3.3807
 30
0.0
  0
SPLINE
  5
12F
330
1F
100
AcDbEntity
  8
Ilustrace
 62
   250
370
    30
100
AcDbSpline
210
0.0
220
0.0
230
1.0
 70
    24
 71
     3
 72
     8
 73
     4
 74
     0
 42
0.0000000001
 43
0.0000000001
 40
0.0
 40
0.0
 40
0.0
 40
0.0
 40
1.0
 40
1.0
 40
1.0
 40
1.0
 10
63.7769
 20
2.6537
 30
0.0
 10
63.7769
 20
2.6537
 30
0.0
 10
66.1077
 20
2.6537
 30
0.0
 10
66.1077
 20
2.6537
 30
0.0
  0
SPLINE
  5
130
330
1F
100
AcDbEntity
  8
Ilustrace
 62
   250
370
    30
100
AcDbSpline
210
0.0
220
0.0
230
1.0
 70
    24
 71
     3
 72
     8
 73
     4
 74
     0
 42
0.0000000001
 43
0.0000000001
 40
0.0
 40
0.0
 40
0.0
 40
0.0
 40
1.0
 40
1.0
 40
1.0
 40
1.0
 10
66.1077
 20
0.5307
 30
0.0
 10
66.1077
 20
0.5307
 30
0.0
 10
66.1077
 20
2.6537
 30
0.0
 10
66.1077
 20
2.6537
 30
0.0
  0
SPLINE
  5
131
330
1F
100
AcDbEntity
  8
Ilustrace
 62
   250
370
    30
100
AcDbSpline
210
0.0
220
0.0
230
1.0
 70
    24
 71
     3
 72
     8
 73
     4
 74
     0
 42
0.0000000001
 43
0.0000000001
 40
0.0
 40
0.0
 40
0.0
 40
0.0
 40
1.0
 40
1.0
 40
1.0
 40
1.0
 10
63.7769
 20
0.5307
 30
0.0
 10
63.7769
 20
0.5307
 30
0.0
 10
66.1077
 20
0.5307
 30
0.0
 10
66.1077
 20
0.5307
 30
0.0
  0
SPLINE
  5
132
330
1F
100
AcDbEntity
  8
Ilustrace
 62
   250
370
    30
100
AcDbSpline
210
0.0
220
0.0
230
1.0
 70
    24
 71
     3
 72
     8
 73
     4
 74
     0
 42
0.0000000001
 43
0.0000000001
 40
0.0
 40
0.0
 40
0.0
 40
0.0
 40
1.0
 40
1.0
 40
1.0
 40
1.0
 10
66.1077
 20
-0.2309
 30
0.0
 10
66.1077
 20
-0.2309
 30
0.0
 10
66.1077
 20
-2.354
 30
0.0
 10
66.1077
 20
-2.354
 30
0.0
  0
SPLINE
  5
133
330
1F
100
AcDbEntity
  8
Ilustrace
 62
   250
370
    30
100
AcDbSpline
210
0.0
220
0.0
230
1.0
 70
    24
 71
     3
 72
     8
 73
     4
 74
     0
 42
0.0000000001
 43
0.0000000001
 40
0.0
 40
0.0
 40
0.0
 40
0.0
 40
1.0
 40
1.0
 40
1.0
 40
1.0
 10
63.7769
 20
-2.354
 30
0.0
 10
63.7769
 20
-2.354
 30
0.0
 10
66.1077
 20
-2.354
 30
0.0
 10
66.1077
 20
-2.354
 30
0.0
  0
SPLINE
  5
134
330
1F
100
AcDbEntity
  8
Ilustrace
 62
   250
370
    30
100
AcDbSpline
210
0.0
220
0.0
230
1.0
 70
    24
 71
     3
 72
     8
 73
     4
 74
     0
 42
0.0000000001
 43
0.0000000001
 40
0.0
 40
0.0
 40
0.0
 40
0.0
 40
1.0
 40
1.0
 40
1.0
 40
1.0
 10
66.1077
 20
-3.1155
 30
0.0
 10
66.1077
 20
-3.1155
 30
0.0
 10
66.1077
 20
-5.2385
 30
0.0
 10
66.1077
 20
-5.2385
 30
0.0
  0
SPLINE
  5
135
330
1F
100
AcDbEntity
  8
Ilustrace
 62
   250
370
    30
100
AcDbSpline
210
0.0
220
0.0
230
1.0
 70
    24
 71
     3
 72
     8
 73
     4
 74
     0
 42
0.0000000001
 43
0.0000000001
 40
0.0
 40
0.0
 40
0.0
 40
0.0
 40
1.0
 40
1.0
 40
1.0
 40
1.0
 10
63.7769
 20
-5.2385
 30
0.0
 10
63.7769
 20
-5.2385
 30
0.0
 10
66.1077
 20
-5.2385
 30
0.0
 10
66.1077
 20
-5.2385
 30
0.0
  0
SPLINE
  5
136
330
1F
100
AcDbEntity
  8
Ilustrace
 62
   250
370
    30
100
AcDbSpline
210
0.0
220
0.0
230
1.0
 70
    24
 71
     3
 72
     8
 73
     4
 74
     0
 42
0.0000000001
 43
0.0000000001
 40
0.0
 40
0.0
 40
0.0
 40
0.0
 40
1.0
 40
1.0
 40
1.0
 40
1.0
 10
66.1077
 20
-6.0
 30
0.0
 10
66.1077
 20
-6.0
 30
0.0
 10
66.1077
 20
-8.1231
 30
0.0
 10
66.1077
 20
-8.1231
 30
0.0
  0
SPLINE
  5
137
330
1F
100
AcDbEntity
  8
Ilustrace
 62
   250
370
    30
100
AcDbSpline
210
0.0
220
0.0
230
1.0
 70
    24
 71
     3
 72
     8
 73
     4
 74
     0
 42
0.0000000001
 43
0.0000000001
 40
0.0
 40
0.0
 40
0.0
 40
0.0
 40
1.0
 40
1.0
 40
1.0
 40
1.0
 10
63.7769
 20
-8.1231
 30
0.0
 10
63.7769
 20
-8.1231
 30
0.0
 10
66.1077
 20
-8.1231
 30
0.0
 10
66.1077
 20
-8.1231
 30
0.0
  0
SPLINE
  5
138
330
1F
100
AcDbEntity
  8
Ilustrace
 62
   250
370
    30
100
AcDbSpline
210
0.0
220
0.0
230
1.0
 70
    24
 71
     3
 72
     8
 73
     4
 74
     0
 42
0.0000000001
 43
0.0000000001
 40
0.0
 40
0.0
 40
0.0
 40
0.0
 40
1.0
 40
1.0
 40
1.0
 40
1.0
 10
66.1077
 20
-8.8847
 30
0.0
 10
66.1077
 20
-8.8847
 30
0.0
 10
66.1077
 20
-11.0077
 30
0.0
 10
66.1077
 20
-11.0077
 30
0.0
  0
SPLINE
  5
139
330
1F
100
AcDbEntity
  8
Ilustrace
 62
   250
370
    30
100
AcDbSpline
210
0.0
220
0.0
230
1.0
 70
    24
 71
     3
 72
     8
 73
     4
 74
     0
 42
0.0000000001
 43
0.0000000001
 40
0.0
 40
0.0
 40
0.0
 40
0.0
 40
1.0
 40
1.0
 40
1.0
 40
1.0
 10
63.7769
 20
-11.0077
 30
0.0
 10
63.7769
 20
-11.0077
 30
0.0
 10
66.1077
 20
-11.0077
 30
0.0
 10
66.1077
 20
-11.0077
 30
0.0
  0
SPLINE
  5
13A
330
1F
100
AcDbEntity
  8
Ilustrace
 62
   250
370
    30
100
AcDbSpline
210
0.0
220
0.0
230
1.0
 70
    24
 71
     3
 72
     8
 73
     4
 74
     0
 42
0.0000000001
 43
0.0000000001
 40
0.0
 40
0.0
 40
0.0
 40
0.0
 40
1.0
 40
1.0
 40
1.0
 40
1.0
 10
66.1077
 20
-11.7693
 30
0.0
 10
66.1077
 20
-11.7693
 30
0.0
 10
66.1077
 20
-13.8923
 30
0.0
 10
66.1077
 20
-13.8923
 30
0.0
  0
SPLINE
  5
13B
330
1F
100
AcDbEntity
  8
Ilustrace
 62
   250
370
    30
100
AcDbSpline
210
0.0
220
0.0
230
1.0
 70
    24
 71
     3
 72
     8
 73
     4
 74
     0
 42
0.0000000001
 43
0.0000000001
 40
0.0
 40
0.0
 40
0.0
 40
0.0
 40
1.0
 40
1.0
 40
1.0
 40
1.0
 10
63.7769
 20
-13.8923
 30
0.0
 10
63.7769
 20
-13.8923
 30
0.0
 10
66.1077
 20
-13.8923
 30
0.0
 10
66.1077
 20
-13.8923
 30
0.0
  0
SPLINE
  5
13C
330
1F
100
AcDbEntity
  8
Ilustrace
 62
   250
370
    30
100
AcDbSpline
210
0.0
220
0.0
230
1.0
 70
    24
 71
     3
 72
     8
 73
     4
 74
     0
 42
0.0000000001
 43
0.0000000001
 40
0.0
 40
0.0
 40
0.0
 40
0.0
 40
1.0
 40
1.0
 40
1.0
 40
1.0
 10
63.7769
 20
-11.7693
 30
0.0
 10
63.7769
 20
-11.7693
 30
0.0
 10
66.1077
 20
-11.7693
 30
0.0
 10
66.1077
 20
-11.7693
 30
0.0
  0
SPLINE
  5
13D
330
1F
100
AcDbEntity
  8
Ilustrace
 62
   250
370
    30
100
AcDbSpline
210
0.0
220
0.0
230
1.0
 70
    24
 71
     3
 72
     8
 73
     4
 74
     0
 42
0.0000000001
 43
0.0000000001
 40
0.0
 40
0.0
 40
0.0
 40
0.0
 40
1.0
 40
1.0
 40
1.0
 40
1.0
 10
63.7769
 20
-11.0077
 30
0.0
 10
63.7769
 20
-11.0077
 30
0.0
 10
63.7769
 20
-11.7693
 30
0.0
 10
63.7769
 20
-11.7693
 30
0.0
  0
SPLINE
  5
13E
330
1F
100
AcDbEntity
  8
Ilustrace
 62
   250
370
    30
100
AcDbSpline
210
0.0
220
0.0
230
1.0
 70
    24
 71
     3
 72
     8
 73
     4
 74
     0
 42
0.0000000001
 43
0.0000000001
 40
0.0
 40
0.0
 40
0.0
 40
0.0
 40
1.0
 40
1.0
 40
1.0
 40
1.0
 10
63.7769
 20
-8.8847
 30
0.0
 10
63.7769
 20
-8.8847
 30
0.0
 10
66.1077
 20
-8.8847
 30
0.0
 10
66.1077
 20
-8.8847
 30
0.0
  0
SPLINE
  5
13F
330
1F
100
AcDbEntity
  8
Ilustrace
 62
   250
370
    30
100
AcDbSpline
210
0.0
220
0.0
230
1.0
 70
    24
 71
     3
 72
     8
 73
     4
 74
     0
 42
0.0000000001
 43
0.0000000001
 40
0.0
 40
0.0
 40
0.0
 40
0.0
 40
1.0
 40
1.0
 40
1.0
 40
1.0
 10
63.7769
 20
-8.1231
 30
0.0
 10
63.7769
 20
-8.1231
 30
0.0
 10
63.7769
 20
-8.8847
 30
0.0
 10
63.7769
 20
-8.8847
 30
0.0
  0
SPLINE
  5
140
330
1F
100
AcDbEntity
  8
Ilustrace
 62
   250
370
    30
100
AcDbSpline
210
0.0
220
0.0
230
1.0
 70
    24
 71
     3
 72
     8
 73
     4
 74
     0
 42
0.0000000001
 43
0.0000000001
 40
0.0
 40
0.0
 40
0.0
 40
0.0
 40
1.0
 40
1.0
 40
1.0
 40
1.0
 10
63.7769
 20
-6.0
 30
0.0
 10
63.7769
 20
-6.0
 30
0.0
 10
66.1077
 20
-6.0
 30
0.0
 10
66.1077
 20
-6.0
 30
0.0
  0
SPLINE
  5
141
330
1F
100
AcDbEntity
  8
Ilustrace
 62
   250
370
    30
100
AcDbSpline
210
0.0
220
0.0
230
1.0
 70
    24
 71
     3
 72
     8
 73
     4
 74
     0
 42
0.0000000001
 43
0.0000000001
 40
0.0
 40
0.0
 40
0.0
 40
0.0
 40
1.0
 40
1.0
 40
1.0
 40
1.0
 10
63.7769
 20
-5.2385
 30
0.0
 10
63.7769
 20
-5.2385
 30
0.0
 10
63.7769
 20
-6.0
 30
0.0
 10
63.7769
 20
-6.0
 30
0.0
  0
SPLINE
  5
142
330
1F
100
AcDbEntity
  8
Ilustrace
 62
   250
370
    30
100
AcDbSpline
210
0.0
220
0.0
230
1.0
 70
    24
 71
     3
 72
     8
 73
     4
 74
     0
 42
0.0000000001
 43
0.0000000001
 40
0.0
 40
0.0
 40
0.0
 40
0.0
 40
1.0
 40
1.0
 40
1.0
 40
1.0
 10
63.7769
 20
-3.1155
 30
0.0
 10
63.7769
 20
-3.1155
 30
0.0
 10
66.1077
 20
-3.1155
 30
0.0
 10
66.1077
 20
-3.1155
 30
0.0
  0
SPLINE
  5
143
330
1F
100
AcDbEntity
  8
Ilustrace
 62
   250
370
    30
100
AcDbSpline
210
0.0
220
0.0
230
1.0
 70
    24
 71
     3
 72
     8
 73
     4
 74
     0
 42
0.0000000001
 43
0.0000000001
 40
0.0
 40
0.0
 40
0.0
 40
0.0
 40
1.0
 40
1.0
 40
1.0
 40
1.0
 10
63.7769
 20
-2.354
 30
0.0
 10
63.7769
 20
-2.354
 30
0.0
 10
63.7769
 20
-3.1155
 30
0.0
 10
63.7769
 20
-3.1155
 30
0.0
  0
SPLINE
  5
144
330
1F
100
AcDbEntity
  8
Ilustrace
 62
   250
370
    30
100
AcDbSpline
210
0.0
220
0.0
230
1.0
 70
    24
 71
     3
 72
     8
 73
     4
 74
     0
 42
0.0000000001
 43
0.0000000001
 40
0.0
 40
0.0
 40
0.0
 40
0.0
 40
1.0
 40
1.0
 40
1.0
 40
1.0
 10
63.7769
 20
-0.2309
 30
0.0
 10
63.7769
 20
-0.2309
 30
0.0
 10
66.1077
 20
-0.2309
 30
0.0
 10
66.1077
 20
-0.2309
 30
0.0
  0
SPLINE
  5
145
330
1F
100
AcDbEntity
  8
Ilustrace
 62
   250
370
    30
100
AcDbSpline
210
0.0
220
0.0
230
1.0
 70
    24
 71
     3
 72
     8
 73
     4
 74
     0
 42
0.0000000001
 43
0.0000000001
 40
0.0
 40
0.0
 40
0.0
 40
0.0
 40
1.0
 40
1.0
 40
1.0
 40
1.0
 10
63.7769
 20
0.5307
 30
0.0
 10
63.7769
 20
0.5307
 30
0.0
 10
63.7769
 20
-0.2309
 30
0.0
 10
63.7769
 20
-0.2309
 30
0.0
  0
ENDSEC
  0
SECTION
  2
OBJECTS
  0
DICTIONARY
  5
C
330
0
100
AcDbDictionary
281
     1
  3
ACAD_GROUP
350
D
  3
ACAD_LAYOUT
350
1A
  3
ACAD_MATERIAL
350
3B
  3
ACAD_MLEADERSTYLE
350
148
  3
ACAD_MLINESTYLE
350
17
  3
ACAD_PLOTSETTINGS
350
19
  3
ACAD_PLOTSTYLENAME
350
E
  3
ACAD_VISUALSTYLE
350
2A
  3
AcDbVariableDictionary
350
146
  0
DICTIONARY
  5
D
102
{ACAD_REACTORS
330
C
102
}
330
C
100
AcDbDictionary
281
     1
  0
DICTIONARY
  5
1A
102
{ACAD_REACTORS
330
C
102
}
330
C
100
AcDbDictionary
281
     1
  3
Layout1
350
1E
  3
Layout2
350
26
  3
Model
350
22
  0
DICTIONARY
  5
3B
102
{ACAD_REACTORS
330
C
102
}
330
C
100
AcDbDictionary
281
     1
  3
ByBlock
350
3D
  3
ByLayer
350
3C
  3
Global
350
3E
  0
DICTIONARY
  5
148
102
{ACAD_REACTORS
330
C
102
}
330
C
100
AcDbDictionary
281
     1
  0
DICTIONARY
  5
17
102
{ACAD_REACTORS
330
C
102
}
330
C
100
AcDbDictionary
281
     1
  3
Standard
350
18
  0
DICTIONARY
  5
19
102
{ACAD_REACTORS
330
C
102
}
330
C
100
AcDbDictionary
281
     1
  0
ACDBDICTIONARYWDFLT
  5
E
102
{ACAD_REACTORS
330
C
102
}
330
C
100
AcDbDictionary
281
     1
  3
Normal
350
F
100
AcDbDictionaryWithDefault
340
F
  0
DICTIONARY
  5
2A
102
{ACAD_REACTORS
330
C
102
}
330
C
100
AcDbDictionary
281
     1
  3
2dWireframe
350
2F
  3
3D Hidden
350
31
  3
3dWireframe
350
30
  3
Basic
350
32
  3
Brighten
350
36
  3
ColorChange
350
3A
  3
Conceptual
350
34
  3
Dim
350
35
  3
Facepattern
350
39
  3
Flat
350
2B
  3
FlatWithEdges
350
2C
  3
Gouraud
350
2D
  3
GouraudWithEdges
350
2E
  3
Linepattern
350
38
  3
Realistic
350
33
  3
Thicken
350
37
  0
DICTIONARY
  5
146
102
{ACAD_REACTORS
330
C
102
}
330
C
100
AcDbDictionary
281
     1
  3
DIMASSOC
350
149
  3
HIDETEXT
350
14A
  0
LAYOUT
  5
1E
102
{ACAD_REACTORS
330
1A
102
}
330
1A
100
AcDbPlotSettings
  1

  2
none_device
  4

  6

 40
0.0
 41
0.0
 42
0.0
 43
0.0
 44
0.0
 45
0.0
 46
0.0
 47
0.0
 48
0.0
 49
0.0
140
0.0
141
0.0
142
1.0
143
1.0
 70
   688
 72
     0
 73
     0
 74
     5
  7

 75
    16
147
1.0
148
0.0
149
0.0
100
AcDbLayout
  1
Layout1
 70
     1
 71
     1
 10
0.0
 20
0.0
 11
12.0
 21
9.0
 12
0.0
 22
0.0
 32
0.0
 14
1.000000000000000E+20
 24
1.000000000000000E+20
 34
1.000000000000000E+20
 15
-1.000000000000000E+20
 25
-1.000000000000000E+20
 35
-1.000000000000000E+20
146
0.0
 13
0.0
 23
0.0
 33
0.0
 16
1.0
 26
0.0
 36
0.0
 17
0.0
 27
1.0
 37
0.0
 76
     0
330
1B
  0
LAYOUT
  5
26
102
{ACAD_REACTORS
330
1A
102
}
330
1A
100
AcDbPlotSettings
  1

  2
none_device
  4

  6

 40
0.0
 41
0.0
 42
0.0
 43
0.0
 44
0.0
 45
0.0
 46
0.0
 47
0.0
 48
0.0
 49
0.0
140
0.0
141
0.0
142
1.0
143
1.0
 70
   688
 72
     0
 73
     0
 74
     5
  7

 75
    16
147
1.0
148
0.0
149
0.0
100
AcDbLayout
  1
Layout2
 70
     1
 71
     2
 10
0.0
 20
0.0
 11
0.0
 21
0.0
 12
0.0
 22
0.0
 32
0.0
 14
0.0
 24
0.0
 34
0.0
 15
0.0
 25
0.0
 35
0.0
146
0.0
 13
0.0
 23
0.0
 33
0.0
 16
1.0
 26
0.0
 36
0.0
 17
0.0
 27
1.0
 37
0.0
 76
     0
330
23
  0
LAYOUT
  5
22
102
{ACAD_REACTORS
330
1A
102
}
330
1A
100
AcDbPlotSettings
  1

  2
none_device
  4

  6

 40
0.0
 41
0.0
 42
0.0
 43
0.0
 44
0.0
 45
0.0
 46
0.0
 47
0.0
 48
0.0
 49
0.0
140
0.0
141
0.0
142
1.0
143
1.0
 70
  1712
 72
     0
 73
     0
 74
     0
  7

 75
     0
147
1.0
148
0.0
149
0.0
100
AcDbLayout
  1
Model
 70
     1
 71
     0
 10
0.0
 20
0.0
 11
12.0
 21
9.0
 12
0.0
 22
0.0
 32
0.0
 14
-73.0882
 24
-14.8038
 34
0.0
 15
73.0646
 25
14.7282
 35
0.0
146
0.0
 13
0.0
 23
0.0
 33
0.0
 16
1.0
 26
0.0
 36
0.0
 17
0.0
 27
1.0
 37
0.0
 76
     0
330
1F
331
29
  0
MATERIAL
  5
3D
102
{ACAD_REACTORS
330
3B
102
}
102
{ACAD_XDICTIONARY
360
16D
102
}
330
3B
100
AcDbMaterial
  1
ByBlock
  0
MATERIAL
  5
3C
102
{ACAD_REACTORS
330
3B
102
}
102
{ACAD_XDICTIONARY
360
16B
102
}
330
3B
100
AcDbMaterial
  1
ByLayer
  0
MATERIAL
  5
3E
102
{ACAD_REACTORS
330
3B
102
}
102
{ACAD_XDICTIONARY
360
16F
102
}
330
3B
100
AcDbMaterial
  1
Global
  0
MLINESTYLE
  5
18
102
{ACAD_REACTORS
330
17
102
}
330
17
100
AcDbMlineStyle
  2
Standard
 70
     0
  3

 62
   256
 51
90.0
 52
90.0
 71
     2
 49
0.5
 62
   256
  6
BYLAYER
 49
-0.5
 62
   256
  6
BYLAYER
  0
ACDBPLACEHOLDER
  5
F
102
{ACAD_REACTORS
330
E
102
}
330
E
  0
VISUALSTYLE
  5
2F
102
{ACAD_REACTORS
330
2A
102
}
102
{ACAD_XDICTIONARY
360
153
102
}
330
2A
100
AcDbVisualStyle
  2
2dWireframe
 70
     4
 71
     0
 72
     2
 73
     0
 90
        0
 40
-0.6
 41
-30.0
 62
     5
 63
     7
 74
     1
 91
        4
 64
     7
 65
   257
 75
     1
175
     1
 42
1.0
 92
        0
 66
   257
 43
1.0
 76
     1
 77
     6
 78
     2
 67
     7
 79
     5
170
     0
171
     0
290
     0
174
     0
 93
        1
 44
0.0
173
     0
291
     0
 45
0.0
1001
ACAD
1000
AcDbSavedByObjectVersion
1070
     0
  0
VISUALSTYLE
  5
31
102
{ACAD_REACTORS
330
2A
102
}
102
{ACAD_XDICTIONARY
360
157
102
}
330
2A
100
AcDbVisualStyle
  2
3D Hidden
 70
     6
 71
     1
 72
     2
 73
     2
 90
        0
 40
-0.6
 41
-30.0
 62
     5
 63
     7
 74
     2
 91
        2
 64
     7
 65
   257
 75
     2
175
     1
 42
40.0
 92
        0
 66
   257
 43
1.0
 76
     1
 77
     6
 78
     2
 67
     7
 79
     3
170
     0
171
     0
290
     0
174
     0
 93
        1
 44
0.0
173
     0
291
     0
 45
0.0
1001
ACAD
1000
AcDbSavedByObjectVersion
1070
     0
  0
VISUALSTYLE
  5
30
102
{ACAD_REACTORS
330
2A
102
}
102
{ACAD_XDICTIONARY
360
155
102
}
330
2A
100
AcDbVisualStyle
  2
3dWireframe
 70
     5
 71
     0
 72
     2
 73
     0
 90
        0
 40
-0.6
 41
-30.0
 62
     5
 63
     7
 74
     1
 91
        4
 64
     7
 65
   257
 75
     1
175
     1
 42
1.0
 92
        0
 66
   257
 43
1.0
 76
     1
 77
     6
 78
     2
 67
     7
 79
     5
170
     0
171
     0
290
     0
174
     0
 93
        1
 44
0.0
173
     0
291
     0
 45
0.0
1001
ACAD
1000
AcDbSavedByObjectVersion
1070
     0
  0
VISUALSTYLE
  5
32
102
{ACAD_REACTORS
330
2A
102
}
102
{ACAD_XDICTIONARY
360
159
102
}
330
2A
100
AcDbVisualStyle
  2
Basic
 70
     7
 71
     1
 72
     0
 73
     1
 90
        0
 40
-0.6
 41
-30.0
 62
     5
 63
     7
 74
     0
 91
        4
 64
     7
 65
   257
 75
     1
175
     1
 42
1.0
 92
        8
 66
     7
 43
1.0
 76
     1
 77
     6
 78
     2
 67
     7
 79
     5
170
     0
171
     0
290
     0
174
     0
 93
        1
 44
0.0
173
     0
291
     1
 45
0.0
1001
ACAD
1000
AcDbSavedByObjectVersion
1070
     0
  0
VISUALSTYLE
  5
36
102
{ACAD_REACTORS
330
2A
102
}
102
{ACAD_XDICTIONARY
360
161
102
}
330
2A
100
AcDbVisualStyle
  2
Brighten
 70
    12
 71
     2
 72
     2
 73
     0
 90
        0
 40
-0.6
 41
-30.0
 62
     5
 63
     7
 74
     1
 91
        4
 64
     7
 65
   257
 75
     1
175
     1
 42
1.0
 92
        8
 66
     7
 43
1.0
 76
     1
 77
     6
 78
     2
 67
     7
 79
     5
170
     0
171
     0
290
     0
174
     0
 93
        1
 44
50.0
173
     0
291
     1
 45
0.0
1001
ACAD
1000
AcDbSavedByObjectVersion
1070
     0
  0
VISUALSTYLE
  5
3A
102
{ACAD_REACTORS
330
2A
102
}
102
{ACAD_XDICTIONARY
360
169
102
}
330
2A
100
AcDbVisualStyle
  2
ColorChange
 70
    16
 71
     2
 72
     2
 73
     3
 90
        0
 40
-0.6
 41
-30.0
 62
     5
 63
     8
 74
     1
 91
        4
 64
     7
 65
   257
 75
     1
175
     1
 42
1.0
 92
        8
 66
     8
 43
1.0
 76
     1
 77
     6
 78
     2
 67
     7
 79
     5
170
     0
171
     0
290
     0
174
     0
 93
        1
 44
0.0
173
     0
291
     1
 45
0.0
1001
ACAD
1000
AcDbSavedByObjectVersion
1070
     0
  0
VISUALSTYLE
  5
34
102
{ACAD_REACTORS
330
2A
102
}
102
{ACAD_XDICTIONARY
360
15D
102
}
330
2A
100
AcDbVisualStyle
  2
Conceptual
 70
     9
 71
     3
 72
     2
 73
     0
 90
        0
 40
-0.6
 41
-30.0
 62
     5
 63
     7
 74
     2
 91
        2
 64
     7
 65
   257
 75
     1
175
     1
 42
40.0
 92
        8
 66
     7
 43
1.0
 76
     1
 77
     6
 78
     2
 67
     7
 79
     3
170
     0
171
     0
290
     0
174
     0
 93
        1
 44
0.0
173
     0
291
     0
 45
0.0
1001
ACAD
1000
AcDbSavedByObjectVersion
1070
     0
  0
VISUALSTYLE
  5
35
102
{ACAD_REACTORS
330
2A
102
}
102
{ACAD_XDICTIONARY
360
15F
102
}
330
2A
100
AcDbVisualStyle
  2
Dim
 70
    11
 71
     2
 72
     2
 73
     0
 90
        0
 40
-0.6
 41
-30.0
 62
     5
 63
     7
 74
     1
 91
        4
 64
     7
 65
   257
 75
     1
175
     1
 42
1.0
 92
        8
 66
     7
 43
1.0
 76
     1
 77
     6
 78
     2
 67
     7
 79
     5
170
     0
171
     0
290
     0
174
     0
 93
        1
 44
-50.0
173
     0
291
     1
 45
0.0
1001
ACAD
1000
AcDbSavedByObjectVersion
1070
     0
  0
VISUALSTYLE
  5
39
102
{ACAD_REACTORS
330
2A
102
}
102
{ACAD_XDICTIONARY
360
167
102
}
330
2A
100
AcDbVisualStyle
  2
Facepattern
 70
    15
 71
     2
 72
     2
 73
     0
 90
        0
 40
-0.6
 41
-30.0
 62
     5
 63
     7
 74
     1
 91
        4
 64
     7
 65
   257
 75
     1
175
     1
 42
1.0
 92
        8
 66
     7
 43
1.0
 76
     1
 77
     6
 78
     2
 67
     7
 79
     5
170
     0
171
     0
290
     0
174
     0
 93
        1
 44
0.0
173
     0
291
     1
 45
0.0
1001
ACAD
1000
AcDbSavedByObjectVersion
1070
     0
  0
VISUALSTYLE
  5
2B
102
{ACAD_REACTORS
330
2A
102
}
102
{ACAD_XDICTIONARY
360
14B
102
}
330
2A
100
AcDbVisualStyle
  2
Flat
 70
     0
 71
     2
 72
     1
 73
     1
 90
        2
 40
-0.6
 41
30.0
 62
     5
 63
     7
 74
     0
 91
        4
 64
     7
 65
   257
 75
     1
175
     1
 42
1.0
 92
        8
 66
     7
 43
1.0
 76
     1
 77
     6
 78
     2
 67
     7
 79
     5
170
     0
171
     0
290
     0
174
     0
 93
       13
 44
0.0
173
     0
291
     1
 45
0.0
1001
ACAD
1000
AcDbSavedByObjectVersion
1070
     0
  0
VISUALSTYLE
  5
2C
102
{ACAD_REACTORS
330
2A
102
}
102
{ACAD_XDICTIONARY
360
14D
102
}
330
2A
100
AcDbVisualStyle
  2
FlatWithEdges
 70
     1
 71
     2
 72
     1
 73
     1
 90
        2
 40
-0.6
 41
30.0
 62
     5
 63
     7
 74
     1
 91
        4
 64
     7
 65
   257
 75
     1
175
     1
 42
1.0
 92
        0
 66
   257
 43
1.0
 76
     1
 77
     6
 78
     2
 67
     7
 79
     5
170
     0
171
     0
290
     0
174
     0
 93
       13
 44
0.0
173
     0
291
     1
 45
0.0
1001
ACAD
1000
AcDbSavedByObjectVersion
1070
     0
  0
VISUALSTYLE
  5
2D
102
{ACAD_REACTORS
330
2A
102
}
102
{ACAD_XDICTIONARY
360
14F
102
}
330
2A
100
AcDbVisualStyle
  2
Gouraud
 70
     2
 71
     2
 72
     2
 73
     1
 90
        2
 40
-0.6
 41
30.0
 62
     5
 63
     7
 74
     0
 91
        4
 64
     7
 65
   257
 75
     1
175
     1
 42
1.0
 92
        0
 66
     7
 43
1.0
 76
     1
 77
     6
 78
     2
 67
     7
 79
     5
170
     0
171
     0
290
     0
174
     0
 93
       13
 44
0.0
173
     0
291
     1
 45
0.0
1001
ACAD
1000
AcDbSavedByObjectVersion
1070
     0
  0
VISUALSTYLE
  5
2E
102
{ACAD_REACTORS
330
2A
102
}
102
{ACAD_XDICTIONARY
360
151
102
}
330
2A
100
AcDbVisualStyle
  2
GouraudWithEdges
 70
     3
 71
     2
 72
     2
 73
     1
 90
        2
 40
-0.6
 41
30.0
 62
     5
 63
     7
 74
     1
 91
        4
 64
     7
 65
   257
 75
     1
175
     1
 42
1.0
 92
        0
 66
   257
 43
1.0
 76
     1
 77
     6
 78
     2
 67
     7
 79
     5
170
     0
171
     0
290
     0
174
     0
 93
       13
 44
0.0
173
     0
291
     1
 45
0.0
1001
ACAD
1000
AcDbSavedByObjectVersion
1070
     0
  0
VISUALSTYLE
  5
38
102
{ACAD_REACTORS
330
2A
102
}
102
{ACAD_XDICTIONARY
360
165
102
}
330
2A
100
AcDbVisualStyle
  2
Linepattern
 70
    14
 71
     2
 72
     2
 73
     0
 90
        0
 40
-0.6
 41
-30.0
 62
     5
 63
     7
 74
     1
 91
        4
 64
     7
 65
   257
 75
     7
175
     7
 42
1.0
 92
        8
 66
     7
 43
1.0
 76
     1
 77
     6
 78
     2
 67
     7
 79
     5
170
     0
171
     0
290
     0
174
     0
 93
        1
 44
0.0
173
     0
291
     1
 45
0.0
1001
ACAD
1000
AcDbSavedByObjectVersion
1070
     0
  0
VISUALSTYLE
  5
33
102
{ACAD_REACTORS
330
2A
102
}
102
{ACAD_XDICTIONARY
360
15B
102
}
330
2A
100
AcDbVisualStyle
  2
Realistic
 70
     8
 71
     2
 72
     2
 73
     0
 90
        0
 40
-0.6
 41
-30.0
 62
     5
 63
     7
 74
     1
 91
        0
 64
     7
 65
   257
 75
     1
175
     1
 42
1.0
 92
        8
 66
     8
 43
1.0
 76
     1
 77
     6
 78
     2
 67
     7
 79
     5
170
     0
171
     0
290
     0
174
     0
 93
       13
 44
0.0
173
     0
291
     0
 45
0.0
1001
ACAD
1000
AcDbSavedByObjectVersion
1070
     0
  0
VISUALSTYLE
  5
37
102
{ACAD_REACTORS
330
2A
102
}
102
{ACAD_XDICTIONARY
360
163
102
}
330
2A
100
AcDbVisualStyle
  2
Thicken
 70
    13
 71
     2
 72
     2
 73
     0
 90
        0
 40
-0.6
 41
-30.0
 62
     5
 63
     7
 74
     1
 91
        4
 64
     7
 65
   257
 75
     1
175
     1
 42
1.0
 92
       12
 66
     7
 43
1.0
 76
     1
 77
     6
 78
     2
 67
     7
 79
     5
170
     0
171
     0
290
     0
174
     0
 93
        1
 44
0.0
173
     0
291
     1
 45
0.0
1001
ACAD
1000
AcDbSavedByObjectVersion
1070
     0
  0
DICTIONARYVAR
  5
149
102
{ACAD_REACTORS
330
146
102
}
330
146
100
DictionaryVariables
280
     0
  1
2
  0
DICTIONARYVAR
  5
14A
102
{ACAD_REACTORS
330
146
102
}
330
146
100
DictionaryVariables
280
     0
  1
1
  0
DICTIONARY
  5
16D
330
3D
100
AcDbDictionary
280
     1
281
     1
  3
ACAD_XREC_ROUNDTRIP
360
16E
  0
DICTIONARY
  5
16B
330
3C
100
AcDbDictionary
280
     1
281
     1
  3
ACAD_XREC_ROUNDTRIP
360
16C
  0
DICTIONARY
  5
16F
330
3E
100
AcDbDictionary
280
     1
281
     1
  3
ACAD_XREC_ROUNDTRIP
360
170
  0
DICTIONARY
  5
153
330
2F
100
AcDbDictionary
280
     1
281
     1
  3
ACAD_XREC_ROUNDTRIP
360
154
  0
DICTIONARY
  5
157
330
31
100
AcDbDictionary
280
     1
281
     1
  3
ACAD_XREC_ROUNDTRIP
360
158
  0
DICTIONARY
  5
155
330
30
100
AcDbDictionary
280
     1
281
     1
  3
ACAD_XREC_ROUNDTRIP
360
156
  0
DICTIONARY
  5
159
330
32
100
AcDbDictionary
280
     1
281
     1
  3
ACAD_XREC_ROUNDTRIP
360
15A
  0
DICTIONARY
  5
161
330
36
100
AcDbDictionary
280
     1
281
     1
  3
ACAD_XREC_ROUNDTRIP
360
162
  0
DICTIONARY
  5
169
330
3A
100
AcDbDictionary
280
     1
281
     1
  3
ACAD_XREC_ROUNDTRIP
360
16A
  0
DICTIONARY
  5
15D
330
34
100
AcDbDictionary
280
     1
281
     1
  3
ACAD_XREC_ROUNDTRIP
360
15E
  0
DICTIONARY
  5
15F
330
35
100
AcDbDictionary
280
     1
281
     1
  3
ACAD_XREC_ROUNDTRIP
360
160
  0
DICTIONARY
  5
167
330
39
100
AcDbDictionary
280
     1
281
     1
  3
ACAD_XREC_ROUNDTRIP
360
168
  0
DICTIONARY
  5
14B
330
2B
100
AcDbDictionary
280
     1
281
     1
  3
ACAD_XREC_ROUNDTRIP
360
14C
  0
DICTIONARY
  5
14D
330
2C
100
AcDbDictionary
280
     1
281
     1
  3
ACAD_XREC_ROUNDTRIP
360
14E
  0
DICTIONARY
  5
14F
330
2D
100
AcDbDictionary
280
     1
281
     1
  3
ACAD_XREC_ROUNDTRIP
360
150
  0
DICTIONARY
  5
151
330
2E
100
AcDbDictionary
280
     1
281
     1
  3
ACAD_XREC_ROUNDTRIP
360
152
  0
DICTIONARY
  5
165
330
38
100
AcDbDictionary
280
     1
281
     1
  3
ACAD_XREC_ROUNDTRIP
360
166
  0
DICTIONARY
  5
15B
330
33
100
AcDbDictionary
280
     1
281
     1
  3
ACAD_XREC_ROUNDTRIP
360
15C
  0
DICTIONARY
  5
163
330
37
100
AcDbDictionary
280
     1
281
     1
  3
ACAD_XREC_ROUNDTRIP
360
164
  0
XRECORD
  5
16E
102
{ACAD_REACTORS
330
16D
102
}
330
16D
100
AcDbXrecord
280
     1
102
MATERIAL
148
0.0
149
0.0
149
0.0
 93
        0
 94
      127
282
     0
 72
     1
 77
     1
171
     1
175
     1
179
     1
273
     0
  0
XRECORD
  5
16C
102
{ACAD_REACTORS
330
16B
102
}
330
16B
100
AcDbXrecord
280
     1
102
MATERIAL
148
0.0
149
0.0
149
0.0
 93
        0
 94
      127
282
     0
 72
     1
 77
     1
171
     1
175
     1
179
     1
273
     0
  0
XRECORD
  5
170
102
{ACAD_REACTORS
330
16F
102
}
330
16F
100
AcDbXrecord
280
     1
102
MATERIAL
148
0.0
149
0.0
149
0.0
 93
        0
 94
      127
282
     0
 72
     1
 77
     1
171
     1
175
     1
179
     1
273
     0
  0
XRECORD
  5
154
102
{ACAD_REACTORS
330
153
102
}
330
153
100
AcDbXrecord
280
     1
102
RTVSPropertyOp0
 70
     1
102
RTVSPropertyOp1
 70
     1
102
RTVSPropertyOp2
 70
     1
102
RTVSPropertyOp3
 70
     1
102
RTVSPropertyOp4
 70
     1
102
RTVSPropertyOp5
 70
     1
102
RTVSPropertyOp6
 70
     1
102
RTVSPropertyOp7
 70
     1
102
RTVSPropertyOp8
 70
     1
102
RTVSPropertyOp9
 70
     1
102
RTVSPropertyOp10
 70
     1
102
RTVSPropertyOp11
 70
     1
102
RTVSPropertyOp12
 70
     1
102
RTVSPropertyOp13
 70
     1
102
RTVSPropertyOp14
 70
     1
102
RTVSPropertyOp15
 70
     1
102
RTVSPropertyOp16
 70
     1
102
RTVSPropertyOp17
 70
     1
102
RTVSPropertyOp18
 70
     1
102
RTVSPropertyOp19
 70
     1
102
RTVSPropertyOp20
 70
     1
102
RTVSPropertyOp21
 70
     1
102
RTVSPropertyOp22
 70
     1
102
RTVSPropertyOp23
 70
     1
102
RTVSPropertyOp24
 70
     1
102
RTVSPropertyOp25
 70
     1
102
RTVSPropertyOp26
 70
     1
102
RTVSPropertyOp27
 70
     1
  0
XRECORD
  5
158
102
{ACAD_REACTORS
330
157
102
}
330
157
100
AcDbXrecord
280
     1
102
RTVSPropertyOp0
 70
     1
102
RTVSPropertyOp1
 70
     1
102
RTVSPropertyOp2
 70
     1
102
RTVSPropertyOp3
 70
     1
102
RTVSPropertyOp4
 70
     1
102
RTVSPropertyOp5
 70
     1
102
RTVSPropertyOp6
 70
     1
102
RTVSPropertyOp7
 70
     1
102
RTVSPropertyOp8
 70
     1
102
RTVSPropertyOp9
 70
     1
102
RTVSPropertyOp10
 70
     1
102
RTVSPropertyOp11
 70
     1
102
RTVSPropertyOp12
 70
     1
102
RTVSPropertyOp13
 70
     1
102
RTVSPropertyOp14
 70
     1
102
RTVSPropertyOp15
 70
     1
102
RTVSPropertyOp16
 70
     1
102
RTVSPropertyOp17
 70
     1
102
RTVSPropertyOp18
 70
     1
102
RTVSPropertyOp19
 70
     1
102
RTVSPropertyOp20
 70
     1
102
RTVSPropertyOp21
 70
     1
102
RTVSPropertyOp22
 70
     1
102
RTVSPropertyOp23
 70
     1
102
RTVSPropertyOp24
 70
     1
102
RTVSPropertyOp25
 70
     1
102
RTVSPropertyOp26
 70
     1
102
RTVSPropertyOp27
 70
     1
  0
XRECORD
  5
156
102
{ACAD_REACTORS
330
155
102
}
330
155
100
AcDbXrecord
280
     1
102
RTVSPropertyOp0
 70
     1
102
RTVSPropertyOp1
 70
     1
102
RTVSPropertyOp2
 70
     1
102
RTVSPropertyOp3
 70
     1
102
RTVSPropertyOp4
 70
     1
102
RTVSPropertyOp5
 70
     1
102
RTVSPropertyOp6
 70
     1
102
RTVSPropertyOp7
 70
     1
102
RTVSPropertyOp8
 70
     1
102
RTVSPropertyOp9
 70
     1
102
RTVSPropertyOp10
 70
     1
102
RTVSPropertyOp11
 70
     1
102
RTVSPropertyOp12
 70
     1
102
RTVSPropertyOp13
 70
     1
102
RTVSPropertyOp14
 70
     1
102
RTVSPropertyOp15
 70
     1
102
RTVSPropertyOp16
 70
     1
102
RTVSPropertyOp17
 70
     1
102
RTVSPropertyOp18
 70
     1
102
RTVSPropertyOp19
 70
     1
102
RTVSPropertyOp20
 70
     1
102
RTVSPropertyOp21
 70
     1
102
RTVSPropertyOp22
 70
     1
102
RTVSPropertyOp23
 70
     1
102
RTVSPropertyOp24
 70
     1
102
RTVSPropertyOp25
 70
     1
102
RTVSPropertyOp26
 70
     1
102
RTVSPropertyOp27
 70
     1
  0
XRECORD
  5
15A
102
{ACAD_REACTORS
330
159
102
}
330
159
100
AcDbXrecord
280
     1
102
RTVSPropertyOp0
 70
     1
102
RTVSPropertyOp1
 70
     1
102
RTVSPropertyOp2
 70
     1
102
RTVSPropertyOp3
 70
     1
102
RTVSPropertyOp4
 70
     1
102
RTVSPropertyOp5
 70
     1
102
RTVSPropertyOp6
 70
     1
102
RTVSPropertyOp7
 70
     1
102
RTVSPropertyOp8
 70
     1
102
RTVSPropertyOp9
 70
     1
102
RTVSPropertyOp10
 70
     1
102
RTVSPropertyOp11
 70
     1
102
RTVSPropertyOp12
 70
     1
102
RTVSPropertyOp13
 70
     1
102
RTVSPropertyOp14
 70
     1
102
RTVSPropertyOp15
 70
     1
102
RTVSPropertyOp16
 70
     1
102
RTVSPropertyOp17
 70
     1
102
RTVSPropertyOp18
 70
     1
102
RTVSPropertyOp19
 70
     1
102
RTVSPropertyOp20
 70
     1
102
RTVSPropertyOp21
 70
     1
102
RTVSPropertyOp22
 70
     1
102
RTVSPropertyOp23
 70
     1
102
RTVSPropertyOp24
 70
     1
102
RTVSPropertyOp25
 70
     1
102
RTVSPropertyOp26
 70
     1
102
RTVSPropertyOp27
 70
     1
  0
XRECORD
  5
162
102
{ACAD_REACTORS
330
161
102
}
330
161
100
AcDbXrecord
280
     1
102
RTVSPropertyOp0
 70
     1
102
RTVSPropertyOp1
 70
     1
102
RTVSPropertyOp2
 70
     1
102
RTVSPropertyOp3
 70
     1
102
RTVSPropertyOp4
 70
     1
102
RTVSPropertyOp5
 70
     1
102
RTVSPropertyOp6
 70
     1
102
RTVSPropertyOp7
 70
     1
102
RTVSPropertyOp8
 70
     1
102
RTVSPropertyOp9
 70
     1
102
RTVSPropertyOp10
 70
     1
102
RTVSPropertyOp11
 70
     1
102
RTVSPropertyOp12
 70
     1
102
RTVSPropertyOp13
 70
     1
102
RTVSPropertyOp14
 70
     1
102
RTVSPropertyOp15
 70
     1
102
RTVSPropertyOp16
 70
     1
102
RTVSPropertyOp17
 70
     1
102
RTVSPropertyOp18
 70
     1
102
RTVSPropertyOp19
 70
     1
102
RTVSPropertyOp20
 70
     1
102
RTVSPropertyOp21
 70
     1
102
RTVSPropertyOp22
 70
     1
102
RTVSPropertyOp23
 70
     1
102
RTVSPropertyOp24
 70
     1
102
RTVSPropertyOp25
 70
     1
102
RTVSPropertyOp26
 70
     1
102
RTVSPropertyOp27
 70
     1
  0
XRECORD
  5
16A
102
{ACAD_REACTORS
330
169
102
}
330
169
100
AcDbXrecord
280
     1
102
RTVSPropertyOp0
 70
     1
102
RTVSPropertyOp1
 70
     1
102
RTVSPropertyOp2
 70
     1
102
RTVSPropertyOp3
 70
     1
102
RTVSPropertyOp4
 70
     1
102
RTVSPropertyOp5
 70
     1
102
RTVSPropertyOp6
 70
     1
102
RTVSPropertyOp7
 70
     1
102
RTVSPropertyOp8
 70
     1
102
RTVSPropertyOp9
 70
     1
102
RTVSPropertyOp10
 70
     1
102
RTVSPropertyOp11
 70
     1
102
RTVSPropertyOp12
 70
     1
102
RTVSPropertyOp13
 70
     1
102
RTVSPropertyOp14
 70
     1
102
RTVSPropertyOp15
 70
     1
102
RTVSPropertyOp16
 70
     1
102
RTVSPropertyOp17
 70
     1
102
RTVSPropertyOp18
 70
     1
102
RTVSPropertyOp19
 70
     1
102
RTVSPropertyOp20
 70
     1
102
RTVSPropertyOp21
 70
     1
102
RTVSPropertyOp22
 70
     1
102
RTVSPropertyOp23
 70
     1
102
RTVSPropertyOp24
 70
     1
102
RTVSPropertyOp25
 70
     1
102
RTVSPropertyOp26
 70
     1
102
RTVSPropertyOp27
 70
     1
  0
XRECORD
  5
15E
102
{ACAD_REACTORS
330
15D
102
}
330
15D
100
AcDbXrecord
280
     1
102
RTVSPropertyOp0
 70
     1
102
RTVSPropertyOp1
 70
     1
102
RTVSPropertyOp2
 70
     1
102
RTVSPropertyOp3
 70
     1
102
RTVSPropertyOp4
 70
     1
102
RTVSPropertyOp5
 70
     1
102
RTVSPropertyOp6
 70
     1
102
RTVSPropertyOp7
 70
     1
102
RTVSPropertyOp8
 70
     1
102
RTVSPropertyOp9
 70
     1
102
RTVSPropertyOp10
 70
     1
102
RTVSPropertyOp11
 70
     1
102
RTVSPropertyOp12
 70
     1
102
RTVSPropertyOp13
 70
     1
102
RTVSPropertyOp14
 70
     1
102
RTVSPropertyOp15
 70
     1
102
RTVSPropertyOp16
 70
     1
102
RTVSPropertyOp17
 70
     1
102
RTVSPropertyOp18
 70
     1
102
RTVSPropertyOp19
 70
     1
102
RTVSPropertyOp20
 70
     1
102
RTVSPropertyOp21
 70
     1
102
RTVSPropertyOp22
 70
     1
102
RTVSPropertyOp23
 70
     1
102
RTVSPropertyOp24
 70
     1
102
RTVSPropertyOp25
 70
     1
102
RTVSPropertyOp26
 70
     1
102
RTVSPropertyOp27
 70
     1
  0
XRECORD
  5
160
102
{ACAD_REACTORS
330
15F
102
}
330
15F
100
AcDbXrecord
280
     1
102
RTVSPropertyOp0
 70
     1
102
RTVSPropertyOp1
 70
     1
102
RTVSPropertyOp2
 70
     1
102
RTVSPropertyOp3
 70
     1
102
RTVSPropertyOp4
 70
     1
102
RTVSPropertyOp5
 70
     1
102
RTVSPropertyOp6
 70
     1
102
RTVSPropertyOp7
 70
     1
102
RTVSPropertyOp8
 70
     1
102
RTVSPropertyOp9
 70
     1
102
RTVSPropertyOp10
 70
     1
102
RTVSPropertyOp11
 70
     1
102
RTVSPropertyOp12
 70
     1
102
RTVSPropertyOp13
 70
     1
102
RTVSPropertyOp14
 70
     1
102
RTVSPropertyOp15
 70
     1
102
RTVSPropertyOp16
 70
     1
102
RTVSPropertyOp17
 70
     1
102
RTVSPropertyOp18
 70
     1
102
RTVSPropertyOp19
 70
     1
102
RTVSPropertyOp20
 70
     1
102
RTVSPropertyOp21
 70
     1
102
RTVSPropertyOp22
 70
     1
102
RTVSPropertyOp23
 70
     1
102
RTVSPropertyOp24
 70
     1
102
RTVSPropertyOp25
 70
     1
102
RTVSPropertyOp26
 70
     1
102
RTVSPropertyOp27
 70
     1
  0
XRECORD
  5
168
102
{ACAD_REACTORS
330
167
102
}
330
167
100
AcDbXrecord
280
     1
102
RTVSPropertyOp0
 70
     1
102
RTVSPropertyOp1
 70
     1
102
RTVSPropertyOp2
 70
     1
102
RTVSPropertyOp3
 70
     1
102
RTVSPropertyOp4
 70
     1
102
RTVSPropertyOp5
 70
     1
102
RTVSPropertyOp6
 70
     1
102
RTVSPropertyOp7
 70
     1
102
RTVSPropertyOp8
 70
     1
102
RTVSPropertyOp9
 70
     1
102
RTVSPropertyOp10
 70
     1
102
RTVSPropertyOp11
 70
     1
102
RTVSPropertyOp12
 70
     1
102
RTVSPropertyOp13
 70
     1
102
RTVSPropertyOp14
 70
     1
102
RTVSPropertyOp15
 70
     1
102
RTVSPropertyOp16
 70
     1
102
RTVSPropertyOp17
 70
     1
102
RTVSPropertyOp18
 70
     1
102
RTVSPropertyOp19
 70
     1
102
RTVSPropertyOp20
 70
     1
102
RTVSPropertyOp21
 70
     1
102
RTVSPropertyOp22
 70
     1
102
RTVSPropertyOp23
 70
     1
102
RTVSPropertyOp24
 70
     1
102
RTVSPropertyOp25
 70
     1
102
RTVSPropertyOp26
 70
     1
102
RTVSPropertyOp27
 70
     1
  0
XRECORD
  5
14C
102
{ACAD_REACTORS
330
14B
102
}
330
14B
100
AcDbXrecord
280
     1
102
RTVSPropertyOp0
 70
     1
102
RTVSPropertyOp1
 70
     1
102
RTVSPropertyOp2
 70
     1
102
RTVSPropertyOp3
 70
     1
102
RTVSPropertyOp4
 70
     1
102
RTVSPropertyOp5
 70
     1
102
RTVSPropertyOp6
 70
     1
102
RTVSPropertyOp7
 70
     1
102
RTVSPropertyOp8
 70
     1
102
RTVSPropertyOp9
 70
     1
102
RTVSPropertyOp10
 70
     1
102
RTVSPropertyOp11
 70
     1
102
RTVSPropertyOp12
 70
     1
102
RTVSPropertyOp13
 70
     1
102
RTVSPropertyOp14
 70
     1
102
RTVSPropertyOp15
 70
     1
102
RTVSPropertyOp16
 70
     1
102
RTVSPropertyOp17
 70
     1
102
RTVSPropertyOp18
 70
     1
102
RTVSPropertyOp19
 70
     1
102
RTVSPropertyOp20
 70
     1
102
RTVSPropertyOp21
 70
     1
102
RTVSPropertyOp22
 70
     1
102
RTVSPropertyOp23
 70
     1
102
RTVSPropertyOp24
 70
     1
102
RTVSPropertyOp25
 70
     1
102
RTVSPropertyOp26
 70
     1
102
RTVSPropertyOp27
 70
     1
  0
XRECORD
  5
14E
102
{ACAD_REACTORS
330
14D
102
}
330
14D
100
AcDbXrecord
280
     1
102
RTVSPropertyOp0
 70
     1
102
RTVSPropertyOp1
 70
     1
102
RTVSPropertyOp2
 70
     1
102
RTVSPropertyOp3
 70
     1
102
RTVSPropertyOp4
 70
     1
102
RTVSPropertyOp5
 70
     1
102
RTVSPropertyOp6
 70
     1
102
RTVSPropertyOp7
 70
     1
102
RTVSPropertyOp8
 70
     1
102
RTVSPropertyOp9
 70
     1
102
RTVSPropertyOp10
 70
     1
102
RTVSPropertyOp11
 70
     1
102
RTVSPropertyOp12
 70
     1
102
RTVSPropertyOp13
 70
     1
102
RTVSPropertyOp14
 70
     1
102
RTVSPropertyOp15
 70
     1
102
RTVSPropertyOp16
 70
     1
102
RTVSPropertyOp17
 70
     1
102
RTVSPropertyOp18
 70
     1
102
RTVSPropertyOp19
 70
     1
102
RTVSPropertyOp20
 70
     1
102
RTVSPropertyOp21
 70
     1
102
RTVSPropertyOp22
 70
     1
102
RTVSPropertyOp23
 70
     1
102
RTVSPropertyOp24
 70
     1
102
RTVSPropertyOp25
 70
     1
102
RTVSPropertyOp26
 70
     1
102
RTVSPropertyOp27
 70
     1
  0
XRECORD
  5
150
102
{ACAD_REACTORS
330
14F
102
}
330
14F
100
AcDbXrecord
280
     1
102
RTVSPropertyOp0
 70
     1
102
RTVSPropertyOp1
 70
     1
102
RTVSPropertyOp2
 70
     1
102
RTVSPropertyOp3
 70
     1
102
RTVSPropertyOp4
 70
     1
102
RTVSPropertyOp5
 70
     1
102
RTVSPropertyOp6
 70
     1
102
RTVSPropertyOp7
 70
     1
102
RTVSPropertyOp8
 70
     1
102
RTVSPropertyOp9
 70
     1
102
RTVSPropertyOp10
 70
     1
102
RTVSPropertyOp11
 70
     1
102
RTVSPropertyOp12
 70
     1
102
RTVSPropertyOp13
 70
     1
102
RTVSPropertyOp14
 70
     1
102
RTVSPropertyOp15
 70
     1
102
RTVSPropertyOp16
 70
     1
102
RTVSPropertyOp17
 70
     1
102
RTVSPropertyOp18
 70
     1
102
RTVSPropertyOp19
 70
     1
102
RTVSPropertyOp20
 70
     1
102
RTVSPropertyOp21
 70
     1
102
RTVSPropertyOp22
 70
     1
102
RTVSPropertyOp23
 70
     1
102
RTVSPropertyOp24
 70
     1
102
RTVSPropertyOp25
 70
     1
102
RTVSPropertyOp26
 70
     1
102
RTVSPropertyOp27
 70
     1
  0
XRECORD
  5
152
102
{ACAD_REACTORS
330
151
102
}
330
151
100
AcDbXrecord
280
     1
102
RTVSPropertyOp0
 70
     1
102
RTVSPropertyOp1
 70
     1
102
RTVSPropertyOp2
 70
     1
102
RTVSPropertyOp3
 70
     1
102
RTVSPropertyOp4
 70
     1
102
RTVSPropertyOp5
 70
     1
102
RTVSPropertyOp6
 70
     1
102
RTVSPropertyOp7
 70
     1
102
RTVSPropertyOp8
 70
     1
102
RTVSPropertyOp9
 70
     1
102
RTVSPropertyOp10
 70
     1
102
RTVSPropertyOp11
 70
     1
102
RTVSPropertyOp12
 70
     1
102
RTVSPropertyOp13
 70
     1
102
RTVSPropertyOp14
 70
     1
102
RTVSPropertyOp15
 70
     1
102
RTVSPropertyOp16
 70
     1
102
RTVSPropertyOp17
 70
     1
102
RTVSPropertyOp18
 70
     1
102
RTVSPropertyOp19
 70
     1
102
RTVSPropertyOp20
 70
     1
102
RTVSPropertyOp21
 70
     1
102
RTVSPropertyOp22
 70
     1
102
RTVSPropertyOp23
 70
     1
102
RTVSPropertyOp24
 70
     1
102
RTVSPropertyOp25
 70
     1
102
RTVSPropertyOp26
 70
     1
102
RTVSPropertyOp27
 70
     1
  0
XRECORD
  5
166
102
{ACAD_REACTORS
330
165
102
}
330
165
100
AcDbXrecord
280
     1
102
RTVSPropertyOp0
 70
     1
102
RTVSPropertyOp1
 70
     1
102
RTVSPropertyOp2
 70
     1
102
RTVSPropertyOp3
 70
     1
102
RTVSPropertyOp4
 70
     1
102
RTVSPropertyOp5
 70
     1
102
RTVSPropertyOp6
 70
     1
102
RTVSPropertyOp7
 70
     1
102
RTVSPropertyOp8
 70
     1
102
RTVSPropertyOp9
 70
     1
102
RTVSPropertyOp10
 70
     1
102
RTVSPropertyOp11
 70
     1
102
RTVSPropertyOp12
 70
     1
102
RTVSPropertyOp13
 70
     1
102
RTVSPropertyOp14
 70
     1
102
RTVSPropertyOp15
 70
     1
102
RTVSPropertyOp16
 70
     1
102
RTVSPropertyOp17
 70
     1
102
RTVSPropertyOp18
 70
     1
102
RTVSPropertyOp19
 70
     1
102
RTVSPropertyOp20
 70
     1
102
RTVSPropertyOp21
 70
     1
102
RTVSPropertyOp22
 70
     1
102
RTVSPropertyOp23
 70
     1
102
RTVSPropertyOp24
 70
     1
102
RTVSPropertyOp25
 70
     1
102
RTVSPropertyOp26
 70
     1
102
RTVSPropertyOp27
 70
     1
  0
XRECORD
  5
15C
102
{ACAD_REACTORS
330
15B
102
}
330
15B
100
AcDbXrecord
280
     1
102
RTVSPropertyOp0
 70
     1
102
RTVSPropertyOp1
 70
     1
102
RTVSPropertyOp2
 70
     1
102
RTVSPropertyOp3
 70
     1
102
RTVSPropertyOp4
 70
     1
102
RTVSPropertyOp5
 70
     1
102
RTVSPropertyOp6
 70
     1
102
RTVSPropertyOp7
 70
     1
102
RTVSPropertyOp8
 70
     1
102
RTVSPropertyOp9
 70
     1
102
RTVSPropertyOp10
 70
     1
102
RTVSPropertyOp11
 70
     1
102
RTVSPropertyOp12
 70
     1
102
RTVSPropertyOp13
 70
     1
102
RTVSPropertyOp14
 70
     1
102
RTVSPropertyOp15
 70
     1
102
RTVSPropertyOp16
 70
     1
102
RTVSPropertyOp17
 70
     1
102
RTVSPropertyOp18
 70
     1
102
RTVSPropertyOp19
 70
     1
102
RTVSPropertyOp20
 70
     1
102
RTVSPropertyOp21
 70
     1
102
RTVSPropertyOp22
 70
     1
102
RTVSPropertyOp23
 70
     1
102
RTVSPropertyOp24
 70
     1
102
RTVSPropertyOp25
 70
     1
102
RTVSPropertyOp26
 70
     1
102
RTVSPropertyOp27
 70
     1
  0
XRECORD
  5
164
102
{ACAD_REACTORS
330
163
102
}
330
163
100
AcDbXrecord
280
     1
102
RTVSPropertyOp0
 70
     1
102
RTVSPropertyOp1
 70
     1
102
RTVSPropertyOp2
 70
     1
102
RTVSPropertyOp3
 70
     1
102
RTVSPropertyOp4
 70
     1
102
RTVSPropertyOp5
 70
     1
102
RTVSPropertyOp6
 70
     1
102
RTVSPropertyOp7
 70
     1
102
RTVSPropertyOp8
 70
     1
102
RTVSPropertyOp9
 70
     1
102
RTVSPropertyOp10
 70
     1
102
RTVSPropertyOp11
 70
     1
102
RTVSPropertyOp12
 70
     1
102
RTVSPropertyOp13
 70
     1
102
RTVSPropertyOp14
 70
     1
102
RTVSPropertyOp15
 70
     1
102
RTVSPropertyOp16
 70
     1
102
RTVSPropertyOp17
 70
     1
102
RTVSPropertyOp18
 70
     1
102
RTVSPropertyOp19
 70
     1
102
RTVSPropertyOp20
 70
     1
102
RTVSPropertyOp21
 70
     1
102
RTVSPropertyOp22
 70
     1
102
RTVSPropertyOp23
 70
     1
102
RTVSPropertyOp24
 70
     1
102
RTVSPropertyOp25
 70
     1
102
RTVSPropertyOp26
 70
     1
102
RTVSPropertyOp27
 70
     1
  0
ENDSEC
  0
EOF
