  0
SECTION
  2
HEADER
  9
$ACADVER
  1
AC1014
  9
$ACADMAINTVER
 70
     9
  9
$DWGCODEPAGE
  3
ANSI_1250
  9
$INSBASE
 10
0.0
 20
0.0
 30
0.0
  9
$EXTMIN
 10
-26.2361
 20
-22.9613
 30
0.0
  9
$EXTMAX
 10
26.2362
 20
22.8204
 30
0.0
  9
$LIMMIN
 10
0.0
 20
0.0
  9
$LIMMAX
 10
12.0
 20
9.0
  9
$ORTHOMODE
 70
     0
  9
$REGENMODE
 70
     1
  9
$FILLMODE
 70
     1
  9
$QTEXTMODE
 70
     0
  9
$MIRRTEXT
 70
     1
  9
$DRAGMODE
 70
     2
  9
$LTSCALE
 40
1.0
  9
$OSMODE
 70
    37
  9
$ATTMODE
 70
     1
  9
$TEXTSIZE
 40
0.2
  9
$TRACEWID
 40
0.05
  9
$TEXTSTYLE
  7
STANDARD
  9
$CLAYER
  8
0
  9
$CELTYPE
  6
BYLAYER
  9
$CECOLOR
 62
   256
  9
$CELTSCALE
 40
1.0
  9
$DELOBJ
 70
     1
  9
$DISPSILH
 70
     0
  9
$DIMSCALE
 40
1.0
  9
$DIMASZ
 40
0.18
  9
$DIMEXO
 40
0.0625
  9
$DIMDLI
 40
0.38
  9
$DIMRND
 40
0.0
  9
$DIMDLE
 40
0.0
  9
$DIMEXE
 40
0.18
  9
$DIMTP
 40
0.0
  9
$DIMTM
 40
0.0
  9
$DIMTXT
 40
0.18
  9
$DIMCEN
 40
0.09
  9
$DIMTSZ
 40
0.0
  9
$DIMTOL
 70
     0
  9
$DIMLIM
 70
     0
  9
$DIMTIH
 70
     1
  9
$DIMTOH
 70
     1
  9
$DIMSE1
 70
     0
  9
$DIMSE2
 70
     0
  9
$DIMTAD
 70
     0
  9
$DIMZIN
 70
     0
  9
$DIMBLK
  1

  9
$DIMASO
 70
     1
  9
$DIMSHO
 70
     1
  9
$DIMPOST
  1

  9
$DIMAPOST
  1

  9
$DIMALT
 70
     0
  9
$DIMALTD
 70
     2
  9
$DIMALTF
 40
25.4
  9
$DIMLFAC
 40
1.0
  9
$DIMTOFL
 70
     0
  9
$DIMTVP
 40
0.0
  9
$DIMTIX
 70
     0
  9
$DIMSOXD
 70
     0
  9
$DIMSAH
 70
     0
  9
$DIMBLK1
  1

  9
$DIMBLK2
  1

  9
$DIMSTYLE
  2
STANDARD
  9
$DIMCLRD
 70
     0
  9
$DIMCLRE
 70
     0
  9
$DIMCLRT
 70
     0
  9
$DIMTFAC
 40
1.0
  9
$DIMGAP
 40
0.09
  9
$DIMJUST
 70
     0
  9
$DIMSD1
 70
     0
  9
$DIMSD2
 70
     0
  9
$DIMTOLJ
 70
     1
  9
$DIMTZIN
 70
     0
  9
$DIMALTZ
 70
     0
  9
$DIMALTTZ
 70
     0
  9
$DIMFIT
 70
     3
  9
$DIMUPT
 70
     0
  9
$DIMUNIT
 70
     2
  9
$DIMDEC
 70
     4
  9
$DIMTDEC
 70
     4
  9
$DIMALTU
 70
     2
  9
$DIMALTTD
 70
     2
  9
$DIMTXSTY
  7
STANDARD
  9
$DIMAUNIT
 70
     0
  9
$LUNITS
 70
     2
  9
$LUPREC
 70
     4
  9
$SKETCHINC
 40
0.1
  9
$FILLETRAD
 40
0.5
  9
$AUNITS
 70
     0
  9
$AUPREC
 70
     0
  9
$MENU
  1
.
  9
$ELEVATION
 40
0.0
  9
$PELEVATION
 40
0.0
  9
$THICKNESS
 40
0.0
  9
$LIMCHECK
 70
     0
  9
$CHAMFERA
 40
0.5
  9
$CHAMFERB
 40
0.5
  9
$CHAMFERC
 40
1.0
  9
$CHAMFERD
 40
0.0
  9
$SKPOLY
 70
     0
  9
$TDCREATE
 40
2456223.352327674
  9
$TDUPDATE
 40
2456223.352327685
  9
$TDINDWG
 40
0.0000000116
  9
$TDUSRTIMER
 40
0.0000000116
  9
$USRTIMER
 70
     1
  9
$ANGBASE
 50
0.0
  9
$ANGDIR
 70
     0
  9
$PDMODE
 70
     0
  9
$PDSIZE
 40
0.0
  9
$PLINEWID
 40
0.0
  9
$COORDS
 70
     1
  9
$SPLFRAME
 70
     0
  9
$SPLINETYPE
 70
     6
  9
$SPLINESEGS
 70
     8
  9
$ATTDIA
 70
     0
  9
$ATTREQ
 70
     1
  9
$HANDLING
 70
     1
  9
$HANDSEED
  5
EC
  9
$SURFTAB1
 70
     6
  9
$SURFTAB2
 70
     6
  9
$SURFTYPE
 70
     6
  9
$SURFU
 70
     6
  9
$SURFV
 70
     6
  9
$UCSNAME
  2

  9
$UCSORG
 10
0.0
 20
0.0
 30
0.0
  9
$UCSXDIR
 10
1.0
 20
0.0
 30
0.0
  9
$UCSYDIR
 10
0.0
 20
1.0
 30
0.0
  9
$PUCSNAME
  2

  9
$PUCSORG
 10
0.0
 20
0.0
 30
0.0
  9
$PUCSXDIR
 10
1.0
 20
0.0
 30
0.0
  9
$PUCSYDIR
 10
0.0
 20
1.0
 30
0.0
  9
$USERI1
 70
     0
  9
$USERI2
 70
     0
  9
$USERI3
 70
     0
  9
$USERI4
 70
     0
  9
$USERI5
 70
     0
  9
$USERR1
 40
0.0
  9
$USERR2
 40
0.0
  9
$USERR3
 40
0.0
  9
$USERR4
 40
0.0
  9
$USERR5
 40
0.0
  9
$WORLDVIEW
 70
     1
  9
$SHADEDGE
 70
     3
  9
$SHADEDIF
 70
    70
  9
$TILEMODE
 70
     1
  9
$MAXACTVP
 70
    64
  9
$PINSBASE
 10
0.0
 20
0.0
 30
0.0
  9
$PLIMCHECK
 70
     0
  9
$PEXTMIN
 10
1.000000000000000E+20
 20
1.000000000000000E+20
 30
1.000000000000000E+20
  9
$PEXTMAX
 10
-1.000000000000000E+20
 20
-1.000000000000000E+20
 30
-1.000000000000000E+20
  9
$PLIMMIN
 10
0.0
 20
0.0
  9
$PLIMMAX
 10
12.0
 20
9.0
  9
$UNITMODE
 70
     0
  9
$VISRETAIN
 70
     1
  9
$PLINEGEN
 70
     0
  9
$PSLTSCALE
 70
     1
  9
$TREEDEPTH
 70
  3020
  9
$PICKSTYLE
 70
     1
  9
$CMLSTYLE
  2
STANDARD
  9
$CMLJUST
 70
     0
  9
$CMLSCALE
 40
1.0
  9
$PROXYGRAPHICS
 70
     1
  9
$MEASUREMENT
 70
     0
  0
ENDSEC
  0
SECTION
  2
CLASSES
  0
CLASS
  1
ACDBDICTIONARYWDFLT
  2
AcDbDictionaryWithDefault
  3
ObjectDBX Classes
 90
        0
280
     0
281
     0
  0
CLASS
  1
VISUALSTYLE
  2
AcDbVisualStyle
  3
ObjectDBX Classes
 90
     4095
280
     0
281
     0
  0
CLASS
  1
MATERIAL
  2
AcDbMaterial
  3
ObjectDBX Classes
 90
     1153
280
     0
281
     0
  0
CLASS
  1
DICTIONARYVAR
  2
AcDbDictionaryVar
  3
ObjectDBX Classes
 90
        0
280
     0
281
     0
  0
CLASS
  1
XRECORD
  2
AcDbXrecord
  3
AutoCAD 2000
 90
        0
280
     0
281
     0
  0
CLASS
  1
LWPOLYLINE
  2
AcDbPolyline
  3
AutoCAD 2000
 90
        0
280
     0
281
     1
  0
CLASS
  1
HATCH
  2
AcDbHatch
  3
AutoCAD 2000
 90
        0
280
     0
281
     1
  0
CLASS
  1
ACDBPLACEHOLDER
  2
AcDbPlaceHolder
  3
ObjectDBX Classes
 90
        0
280
     0
281
     0
  0
CLASS
  1
LAYOUT
  2
AcDbLayout
  3
ObjectDBX Classes
 90
        0
280
     0
281
     0
  0
ENDSEC
  0
SECTION
  2
TABLES
  0
TABLE
  2
VPORT
  5
8
330
0
100
AcDbSymbolTable
 70
     1
  0
VPORT
  5
29
330
8
100
AcDbSymbolTableRecord
100
AcDbViewportTableRecord
  2
*ACTIVE
 70
     0
 10
0.0
 20
0.0
 11
1.0
 21
1.0
 12
10.42990654205607
 22
4.5
 13
0.0
 23
0.0
 14
0.5
 24
0.5
 15
0.5
 25
0.5
 16
0.0
 26
0.0
 36
1.0
 17
0.0
 27
0.0
 37
0.0
 40
9.0
 41
1.972972972850329
 42
50.0
 43
0.0
 44
0.0
 50
0.0
 51
0.0
 71
     0
 72
   100
 73
     1
 74
     3
 75
     0
 76
     0
 77
     0
 78
     0
  0
ENDTAB
  0
TABLE
  2
LTYPE
  5
5
330
0
100
AcDbSymbolTable
 70
    13
  0
LTYPE
  5
14
330
5
100
AcDbSymbolTableRecord
100
AcDbLinetypeTableRecord
  2
BYBLOCK
 70
     0
  3

 72
    65
 73
     0
 40
0.0
  0
LTYPE
  5
15
330
5
100
AcDbSymbolTableRecord
100
AcDbLinetypeTableRecord
  2
BYLAYER
 70
     0
  3

 72
    65
 73
     0
 40
0.0
  0
LTYPE
  5
16
330
5
100
AcDbSymbolTableRecord
100
AcDbLinetypeTableRecord
  2
CONTINUOUS
 70
     0
  3
Solid line
 72
    65
 73
     0
 40
0.0
  0
LTYPE
  5
6C
330
5
100
AcDbSymbolTableRecord
100
AcDbLinetypeTableRecord
  2
NEW_LINE1
 70
     0
  3

 72
    65
 73
     4
 40
1.2
 49
0.5
 74
     4
 75
     0
340
0
 46
1.0
 50
0.0
 44
0.0
 45
0.0
 49
-0.3
 74
     4
 75
     0
340
0
 46
1.0
 50
0.0
 44
0.0
 45
0.0
 49
0.1
 74
     4
 75
     0
340
0
 46
1.0
 50
0.0
 44
0.0
 45
0.0
 49
-0.3
 74
     4
 75
     0
340
0
 46
1.0
 50
0.0
 44
0.0
 45
0.0
  0
LTYPE
  5
7D
330
5
100
AcDbSymbolTableRecord
100
AcDbLinetypeTableRecord
  2
NEW_LINE2
 70
     0
  3

 72
    65
 73
     4
 40
1.2
 49
0.5
 74
     4
 75
     0
340
0
 46
1.0
 50
0.0
 44
0.0
 45
0.0
 49
-0.3
 74
     4
 75
     0
340
0
 46
1.0
 50
0.0
 44
0.0
 45
0.0
 49
0.1
 74
     4
 75
     0
340
0
 46
1.0
 50
0.0
 44
0.0
 45
0.0
 49
-0.3
 74
     4
 75
     0
340
0
 46
1.0
 50
0.0
 44
0.0
 45
0.0
  0
LTYPE
  5
7F
330
5
100
AcDbSymbolTableRecord
100
AcDbLinetypeTableRecord
  2
NEW_LINE3
 70
     0
  3

 72
    65
 73
     4
 40
1.2
 49
0.5
 74
     4
 75
     0
340
0
 46
1.0
 50
0.0
 44
0.0
 45
0.0
 49
-0.3
 74
     4
 75
     0
340
0
 46
1.0
 50
0.0
 44
0.0
 45
0.0
 49
0.1
 74
     4
 75
     0
340
0
 46
1.0
 50
0.0
 44
0.0
 45
0.0
 49
-0.3
 74
     4
 75
     0
340
0
 46
1.0
 50
0.0
 44
0.0
 45
0.0
  0
LTYPE
  5
81
330
5
100
AcDbSymbolTableRecord
100
AcDbLinetypeTableRecord
  2
NEW_LINE4
 70
     0
  3

 72
    65
 73
     4
 40
1.2
 49
0.5
 74
     4
 75
     0
340
0
 46
1.0
 50
0.0
 44
0.0
 45
0.0
 49
-0.3
 74
     4
 75
     0
340
0
 46
1.0
 50
0.0
 44
0.0
 45
0.0
 49
0.1
 74
     4
 75
     0
340
0
 46
1.0
 50
0.0
 44
0.0
 45
0.0
 49
-0.3
 74
     4
 75
     0
340
0
 46
1.0
 50
0.0
 44
0.0
 45
0.0
  0
LTYPE
  5
B2
330
5
100
AcDbSymbolTableRecord
100
AcDbLinetypeTableRecord
  2
NEW_LINE5
 70
     0
  3

 72
    65
 73
     2
 40
0.8
 49
0.5
 74
     4
 75
     0
340
0
 46
1.0
 50
0.0
 44
0.0
 45
0.0
 49
-0.3
 74
     4
 75
     0
340
0
 46
1.0
 50
0.0
 44
0.0
 45
0.0
  0
LTYPE
  5
B4
330
5
100
AcDbSymbolTableRecord
100
AcDbLinetypeTableRecord
  2
NEW_LINE6
 70
     0
  3

 72
    65
 73
     2
 40
0.8
 49
0.5
 74
     4
 75
     0
340
0
 46
1.0
 50
0.0
 44
0.0
 45
0.0
 49
-0.3
 74
     4
 75
     0
340
0
 46
1.0
 50
0.0
 44
0.0
 45
0.0
  0
LTYPE
  5
B6
330
5
100
AcDbSymbolTableRecord
100
AcDbLinetypeTableRecord
  2
NEW_LINE7
 70
     0
  3

 72
    65
 73
     2
 40
0.8
 49
0.5
 74
     4
 75
     0
340
0
 46
1.0
 50
0.0
 44
0.0
 45
0.0
 49
-0.3
 74
     4
 75
     0
340
0
 46
1.0
 50
0.0
 44
0.0
 45
0.0
  0
LTYPE
  5
B8
330
5
100
AcDbSymbolTableRecord
100
AcDbLinetypeTableRecord
  2
NEW_LINE8
 70
     0
  3

 72
    65
 73
     2
 40
0.8
 49
0.5
 74
     4
 75
     0
340
0
 46
1.0
 50
0.0
 44
0.0
 45
0.0
 49
-0.3
 74
     4
 75
     0
340
0
 46
1.0
 50
0.0
 44
0.0
 45
0.0
  0
LTYPE
  5
BA
330
5
100
AcDbSymbolTableRecord
100
AcDbLinetypeTableRecord
  2
NEW_LINE9
 70
     0
  3

 72
    65
 73
     2
 40
0.8
 49
0.5
 74
     4
 75
     0
340
0
 46
1.0
 50
0.0
 44
0.0
 45
0.0
 49
-0.3
 74
     4
 75
     0
340
0
 46
1.0
 50
0.0
 44
0.0
 45
0.0
  0
LTYPE
  5
BC
330
5
100
AcDbSymbolTableRecord
100
AcDbLinetypeTableRecord
  2
NEW_LINE10
 70
     0
  3

 72
    65
 73
     2
 40
0.8
 49
0.5
 74
     4
 75
     0
340
0
 46
1.0
 50
0.0
 44
0.0
 45
0.0
 49
-0.3
 74
     4
 75
     0
340
0
 46
1.0
 50
0.0
 44
0.0
 45
0.0
  0
LTYPE
  5
BE
330
5
100
AcDbSymbolTableRecord
100
AcDbLinetypeTableRecord
  2
NEW_LINE11
 70
     0
  3

 72
    65
 73
     4
 40
1.2
 49
0.5
 74
     4
 75
     0
340
0
 46
1.0
 50
0.0
 44
0.0
 45
0.0
 49
-0.3
 74
     4
 75
     0
340
0
 46
1.0
 50
0.0
 44
0.0
 45
0.0
 49
0.1
 74
     4
 75
     0
340
0
 46
1.0
 50
0.0
 44
0.0
 45
0.0
 49
-0.3
 74
     4
 75
     0
340
0
 46
1.0
 50
0.0
 44
0.0
 45
0.0
  0
LTYPE
  5
C0
330
5
100
AcDbSymbolTableRecord
100
AcDbLinetypeTableRecord
  2
NEW_LINE12
 70
     0
  3

 72
    65
 73
     4
 40
1.2
 49
0.5
 74
     4
 75
     0
340
0
 46
1.0
 50
0.0
 44
0.0
 45
0.0
 49
-0.3
 74
     4
 75
     0
340
0
 46
1.0
 50
0.0
 44
0.0
 45
0.0
 49
0.1
 74
     4
 75
     0
340
0
 46
1.0
 50
0.0
 44
0.0
 45
0.0
 49
-0.3
 74
     4
 75
     0
340
0
 46
1.0
 50
0.0
 44
0.0
 45
0.0
  0
ENDTAB
  0
TABLE
  2
LAYER
  5
2
330
0
100
AcDbSymbolTable
 70
     2
  0
LAYER
  5
10
330
2
100
AcDbSymbolTableRecord
100
AcDbLayerTableRecord
  2
0
 70
     0
 62
     7
  6
CONTINUOUS
  0
LAYER
  5
40
330
2
100
AcDbSymbolTableRecord
100
AcDbLayerTableRecord
  2
ROUND
 70
     0
 62
     7
  6
CONTINUOUS
  0
ENDTAB
  0
TABLE
  2
STYLE
  5
3
330
0
100
AcDbSymbolTable
 70
     1
  0
STYLE
  5
11
330
3
100
AcDbSymbolTableRecord
100
AcDbTextStyleTableRecord
  2
STANDARD
 70
     0
 40
0.0
 41
1.0
 50
0.0
 71
     0
 42
0.2
  3
txt
  4

  0
ENDTAB
  0
TABLE
  2
VIEW
  5
6
330
0
100
AcDbSymbolTable
 70
     0
  0
ENDTAB
  0
TABLE
  2
UCS
  5
7
330
0
100
AcDbSymbolTable
 70
     0
  0
ENDTAB
  0
TABLE
  2
APPID
  5
9
330
0
100
AcDbSymbolTable
 70
     2
  0
APPID
  5
12
330
9
100
AcDbSymbolTableRecord
100
AcDbRegAppTableRecord
  2
ACAD
 70
     0
  0
APPID
  5
3F
330
9
100
AcDbSymbolTableRecord
100
AcDbRegAppTableRecord
  2
ODA
 70
     0
  0
ENDTAB
  0
TABLE
  2
DIMSTYLE
  5
A
330
0
100
AcDbSymbolTable
 70
     1
  0
DIMSTYLE
105
27
330
A
100
AcDbSymbolTableRecord
100
AcDbDimStyleTableRecord
  2
STANDARD
 70
     0
  3

  4

  5

  6

  7

 40
1.0
 41
0.18
 42
0.0625
 43
0.38
 44
0.18
 45
0.0
 46
0.0
 47
0.0
 48
0.0
140
0.18
141
0.09
142
0.0
143
25.4
144
1.0
145
0.0
146
1.0
147
0.09
 71
     0
 72
     0
 73
     1
 74
     1
 75
     0
 76
     0
 77
     0
 78
     0
170
     0
171
     2
172
     0
173
     0
174
     0
175
     0
176
     0
177
     0
178
     0
270
     2
271
     4
272
     4
273
     2
274
     2
340
11
275
     0
280
     0
281
     0
282
     0
283
     1
284
     0
285
     0
286
     0
287
     3
288
     0
  0
ENDTAB
  0
TABLE
  2
BLOCK_RECORD
  5
1
330
0
100
AcDbSymbolTable
 70
     1
  0
BLOCK_RECORD
  5
1F
330
1
100
AcDbSymbolTableRecord
100
AcDbBlockTableRecord
  2
*MODEL_SPACE
  0
BLOCK_RECORD
  5
1B
330
1
100
AcDbSymbolTableRecord
100
AcDbBlockTableRecord
  2
*PAPER_SPACE
  0
ENDTAB
  0
ENDSEC
  0
SECTION
  2
BLOCKS
  0
BLOCK
  5
20
330
1F
100
AcDbEntity
  8
0
100
AcDbBlockBegin
  2
*MODEL_SPACE
 70
     0
 10
0.0
 20
0.0
 30
0.0
  3
*MODEL_SPACE
  1

  0
ENDBLK
  5
21
330
1F
100
AcDbEntity
  8
0
100
AcDbBlockEnd
  0
BLOCK
  5
1C
330
1B
100
AcDbEntity
 67
     1
  8
0
100
AcDbBlockBegin
  2
*PAPER_SPACE
 70
     0
 10
0.0
 20
0.0
 30
0.0
  3
*PAPER_SPACE
  1

  0
ENDBLK
  5
1D
330
1B
100
AcDbEntity
 67
     1
  8
0
100
AcDbBlockEnd
  0
ENDSEC
  0
SECTION
  2
ENTITIES
  0
SPLINE
  5
41
330
1F
100
AcDbEntity
  8
ROUND
 62
   250
100
AcDbSpline
210
0.0
220
0.0
230
1.0
 70
    24
 71
     3
 72
     8
 73
     4
 74
     0
 42
0.0000000001
 43
0.0000000001
 40
0.0
 40
0.0
 40
0.0
 40
0.0
 40
1.0
 40
1.0
 40
1.0
 40
1.0
 10
8.4772
 20
-22.8202
 30
0.0
 10
8.4772
 20
-22.8202
 30
0.0
 10
20.9719
 20
-22.8202
 30
0.0
 10
20.9719
 20
-22.8202
 30
0.0
  0
SPLINE
  5
42
330
1F
100
AcDbEntity
  8
ROUND
 62
   250
100
AcDbSpline
210
0.0
220
0.0
230
1.0
 70
    24
 71
     3
 72
     8
 73
     4
 74
     0
 42
0.0000000001
 43
0.0000000001
 40
0.0
 40
0.0
 40
0.0
 40
0.0
 40
1.0
 40
1.0
 40
1.0
 40
1.0
 10
8.4772
 20
-19.8043
 30
0.0
 10
8.4772
 20
-19.8043
 30
0.0
 10
20.9719
 20
-19.8043
 30
0.0
 10
20.9719
 20
-19.8043
 30
0.0
  0
SPLINE
  5
43
330
1F
100
AcDbEntity
  8
ROUND
 62
   250
100
AcDbSpline
210
0.0
220
0.0
230
1.0
 70
    24
 71
     3
 72
     8
 73
     4
 74
     0
 42
0.0000000001
 43
0.0000000001
 40
0.0
 40
0.0
 40
0.0
 40
0.0
 40
1.0
 40
1.0
 40
1.0
 40
1.0
 10
20.9719
 20
-22.8202
 30
0.0
 10
20.9719
 20
-22.8202
 30
0.0
 10
20.9719
 20
-19.8043
 30
0.0
 10
20.9719
 20
-19.8043
 30
0.0
  0
SPLINE
  5
44
330
1F
100
AcDbEntity
  8
ROUND
 62
   250
100
AcDbSpline
210
0.0
220
0.0
230
1.0
 70
    24
 71
     3
 72
     8
 73
     4
 74
     0
 42
0.0000000001
 43
0.0000000001
 40
0.0
 40
0.0
 40
0.0
 40
0.0
 40
1.0
 40
1.0
 40
1.0
 40
1.0
 10
4.3842
 20
-12.6953
 30
0.0
 10
4.3842
 20
-12.6953
 30
0.0
 10
4.3842
 20
-15.7112
 30
0.0
 10
4.3842
 20
-15.7112
 30
0.0
  0
SPLINE
  5
45
330
1F
100
AcDbEntity
  8
ROUND
 62
   250
100
AcDbSpline
210
0.0
220
0.0
230
1.0
 70
    24
 71
     3
 72
     8
 73
     4
 74
     0
 42
0.0000000001
 43
0.0000000001
 40
0.0
 40
0.0
 40
0.0
 40
0.0
 40
1.0
 40
1.0
 40
1.0
 40
1.0
 10
1.3682
 20
-12.6953
 30
0.0
 10
1.3682
 20
-12.6953
 30
0.0
 10
1.3682
 20
-15.7112
 30
0.0
 10
1.3682
 20
-15.7112
 30
0.0
  0
SPLINE
  5
46
330
1F
100
AcDbEntity
  8
ROUND
 62
   250
100
AcDbSpline
210
0.0
220
0.0
230
1.0
 70
     8
 71
     3
 72
     8
 73
     4
 74
     0
 42
0.0000000001
 43
0.0000000001
 40
0.0
 40
0.0
 40
0.0
 40
0.0
 40
1.0
 40
1.0
 40
1.0
 40
1.0
 10
8.4772
 20
-22.8202
 30
0.0
 10
4.5511
 20
-22.8202
 30
0.0
 10
1.3682
 20
-19.6374
 30
0.0
 10
1.3682
 20
-15.7112
 30
0.0
  0
SPLINE
  5
47
330
1F
100
AcDbEntity
  8
ROUND
 62
   250
100
AcDbSpline
210
0.0
220
0.0
230
1.0
 70
     8
 71
     3
 72
     8
 73
     4
 74
     0
 42
0.0000000001
 43
0.0000000001
 40
0.0
 40
0.0
 40
0.0
 40
0.0
 40
1.0
 40
1.0
 40
1.0
 40
1.0
 10
8.4772
 20
-19.8043
 30
0.0
 10
6.2167
 20
-19.8043
 30
0.0
 10
4.3842
 20
-17.9718
 30
0.0
 10
4.3842
 20
-15.7112
 30
0.0
  0
SPLINE
  5
48
330
1F
100
AcDbEntity
  8
ROUND
 62
   250
100
AcDbSpline
210
0.0
220
0.0
230
1.0
 70
    24
 71
     3
 72
     8
 73
     4
 74
     0
 42
0.0000000001
 43
0.0000000001
 40
0.0
 40
0.0
 40
0.0
 40
0.0
 40
1.0
 40
1.0
 40
1.0
 40
1.0
 10
4.3842
 20
-12.6953
 30
0.0
 10
4.3842
 20
-12.6953
 30
0.0
 10
1.3682
 20
-12.6953
 30
0.0
 10
1.3682
 20
-12.6953
 30
0.0
  0
SPLINE
  5
49
330
1F
100
AcDbEntity
  8
ROUND
 62
   250
100
AcDbSpline
210
0.0
220
0.0
230
1.0
 70
    24
 71
     3
 72
     8
 73
     4
 74
     0
 42
0.0000000001
 43
0.0000000001
 40
0.0
 40
0.0
 40
0.0
 40
0.0
 40
1.0
 40
1.0
 40
1.0
 40
1.0
 10
4.5134
 20
-12.1782
 30
0.0
 10
4.5134
 20
-12.1782
 30
0.0
 10
1.239
 20
-12.1782
 30
0.0
 10
1.239
 20
-12.1782
 30
0.0
  0
SPLINE
  5
4A
330
1F
100
AcDbEntity
  8
ROUND
 62
   250
100
AcDbSpline
210
0.0
220
0.0
230
1.0
 70
    24
 71
     3
 72
     8
 73
     4
 74
     0
 42
0.0000000001
 43
0.0000000001
 40
0.0
 40
0.0
 40
0.0
 40
0.0
 40
1.0
 40
1.0
 40
1.0
 40
1.0
 10
4.5134
 20
-8.8176
 30
0.0
 10
4.5134
 20
-8.8176
 30
0.0
 10
1.239
 20
-8.8176
 30
0.0
 10
1.239
 20
-8.8176
 30
0.0
  0
SPLINE
  5
4B
330
1F
100
AcDbEntity
  8
ROUND
 62
   250
100
AcDbSpline
210
0.0
220
0.0
230
1.0
 70
    24
 71
     3
 72
     8
 73
     4
 74
     0
 42
0.0000000001
 43
0.0000000001
 40
0.0
 40
0.0
 40
0.0
 40
0.0
 40
1.0
 40
1.0
 40
1.0
 40
1.0
 10
4.3842
 20
-12.6953
 30
0.0
 10
4.3842
 20
-12.6953
 30
0.0
 10
4.5134
 20
-12.1782
 30
0.0
 10
4.5134
 20
-12.1782
 30
0.0
  0
SPLINE
  5
4C
330
1F
100
AcDbEntity
  8
ROUND
 62
   250
100
AcDbSpline
210
0.0
220
0.0
230
1.0
 70
    24
 71
     3
 72
     8
 73
     4
 74
     0
 42
0.0000000001
 43
0.0000000001
 40
0.0
 40
0.0
 40
0.0
 40
0.0
 40
1.0
 40
1.0
 40
1.0
 40
1.0
 10
4.5134
 20
-12.1782
 30
0.0
 10
4.5134
 20
-12.1782
 30
0.0
 10
4.5134
 20
-8.8176
 30
0.0
 10
4.5134
 20
-8.8176
 30
0.0
  0
SPLINE
  5
4D
330
1F
100
AcDbEntity
  8
ROUND
 62
   250
100
AcDbSpline
210
0.0
220
0.0
230
1.0
 70
    24
 71
     3
 72
     8
 73
     4
 74
     0
 42
0.0000000001
 43
0.0000000001
 40
0.0
 40
0.0
 40
0.0
 40
0.0
 40
1.0
 40
1.0
 40
1.0
 40
1.0
 10
1.239
 20
-12.1782
 30
0.0
 10
1.239
 20
-12.1782
 30
0.0
 10
1.239
 20
-8.8176
 30
0.0
 10
1.239
 20
-8.8176
 30
0.0
  0
SPLINE
  5
4E
330
1F
100
AcDbEntity
  8
ROUND
 62
   250
100
AcDbSpline
210
0.0
220
0.0
230
1.0
 70
    24
 71
     3
 72
     8
 73
     4
 74
     0
 42
0.0000000001
 43
0.0000000001
 40
0.0
 40
0.0
 40
0.0
 40
0.0
 40
1.0
 40
1.0
 40
1.0
 40
1.0
 10
1.3682
 20
-12.6953
 30
0.0
 10
1.3682
 20
-12.6953
 30
0.0
 10
1.239
 20
-12.1782
 30
0.0
 10
1.239
 20
-12.1782
 30
0.0
  0
SPLINE
  5
4F
330
1F
100
AcDbEntity
  8
ROUND
 62
   250
100
AcDbSpline
210
0.0
220
0.0
230
1.0
 70
    24
 71
     3
 72
     8
 73
     4
 74
     0
 42
0.0000000001
 43
0.0000000001
 40
0.0
 40
0.0
 40
0.0
 40
0.0
 40
1.0
 40
1.0
 40
1.0
 40
1.0
 10
-9.5661
 20
18.8052
 30
0.0
 10
-9.5661
 20
18.8052
 30
0.0
 10
-12.5819
 20
18.8052
 30
0.0
 10
-12.5819
 20
18.8052
 30
0.0
  0
SPLINE
  5
50
330
1F
100
AcDbEntity
  8
ROUND
 62
   250
100
AcDbSpline
210
0.0
220
0.0
230
1.0
 70
    24
 71
     3
 72
     8
 73
     4
 74
     0
 42
0.0000000001
 43
0.0000000001
 40
0.0
 40
0.0
 40
0.0
 40
0.0
 40
1.0
 40
1.0
 40
1.0
 40
1.0
 10
-12.5819
 20
18.8052
 30
0.0
 10
-12.5819
 20
18.8052
 30
0.0
 10
-12.5819
 20
-1.6308
 30
0.0
 10
-12.5819
 20
-1.6308
 30
0.0
  0
SPLINE
  5
51
330
1F
100
AcDbEntity
  8
ROUND
 62
   250
100
AcDbSpline
210
0.0
220
0.0
230
1.0
 70
    24
 71
     3
 72
     8
 73
     4
 74
     0
 42
0.0000000001
 43
0.0000000001
 40
0.0
 40
0.0
 40
0.0
 40
0.0
 40
1.0
 40
1.0
 40
1.0
 40
1.0
 10
-9.566
 20
18.8052
 30
0.0
 10
-9.566
 20
18.8052
 30
0.0
 10
-9.566
 20
-1.3989
 30
0.0
 10
-9.566
 20
-1.3989
 30
0.0
  0
SPLINE
  5
52
330
1F
100
AcDbEntity
  8
ROUND
 62
   250
100
AcDbSpline
210
0.0
220
0.0
230
1.0
 70
    24
 71
     3
 72
     8
 73
     4
 74
     0
 42
0.0000000001
 43
0.0000000001
 40
0.0
 40
0.0
 40
0.0
 40
0.0
 40
1.0
 40
1.0
 40
1.0
 40
1.0
 10
-9.5661
 20
-19.4455
 30
0.0
 10
-9.5661
 20
-19.4455
 30
0.0
 10
-12.5819
 20
-19.4455
 30
0.0
 10
-12.5819
 20
-19.4455
 30
0.0
  0
SPLINE
  5
53
330
1F
100
AcDbEntity
  8
ROUND
 62
   250
100
AcDbSpline
210
0.0
220
0.0
230
1.0
 70
    24
 71
     3
 72
     8
 73
     4
 74
     0
 42
0.0000000001
 43
0.0000000001
 40
0.0
 40
0.0
 40
0.0
 40
0.0
 40
1.0
 40
1.0
 40
1.0
 40
1.0
 10
-12.5819
 20
-2.9585
 30
0.0
 10
-12.5819
 20
-2.9585
 30
0.0
 10
-12.5819
 20
-19.4455
 30
0.0
 10
-12.5819
 20
-19.4455
 30
0.0
  0
SPLINE
  5
54
330
1F
100
AcDbEntity
  8
ROUND
 62
   250
100
AcDbSpline
210
0.0
220
0.0
230
1.0
 70
    24
 71
     3
 72
     8
 73
     4
 74
     0
 42
0.0000000001
 43
0.0000000001
 40
0.0
 40
0.0
 40
0.0
 40
0.0
 40
1.0
 40
1.0
 40
1.0
 40
1.0
 10
-9.566
 20
-2.6746
 30
0.0
 10
-9.566
 20
-2.6746
 30
0.0
 10
-9.566
 20
-19.4455
 30
0.0
 10
-9.566
 20
-19.4455
 30
0.0
  0
SPLINE
  5
55
330
1F
100
AcDbEntity
  8
ROUND
 62
   250
100
AcDbSpline
210
0.0
220
0.0
230
1.0
 70
    24
 71
     3
 72
     8
 73
     4
 74
     0
 42
0.0000000001
 43
0.0000000001
 40
0.0
 40
0.0
 40
0.0
 40
0.0
 40
1.0
 40
1.0
 40
1.0
 40
1.0
 10
2.8138
 20
6.7883
 30
0.0
 10
2.8138
 20
6.7883
 30
0.0
 10
7.7227
 20
14.2407
 30
0.0
 10
7.7227
 20
14.2407
 30
0.0
  0
SPLINE
  5
56
330
1F
100
AcDbEntity
  8
ROUND
 62
   250
100
AcDbSpline
210
0.0
220
0.0
230
1.0
 70
    24
 71
     3
 72
     8
 73
     4
 74
     0
 42
0.0000000001
 43
0.0000000001
 40
0.0
 40
0.0
 40
0.0
 40
0.0
 40
1.0
 40
1.0
 40
1.0
 40
1.0
 10
5.3324
 20
5.1293
 30
0.0
 10
5.3324
 20
5.1293
 30
0.0
 10
10.2414
 20
12.5817
 30
0.0
 10
10.2414
 20
12.5817
 30
0.0
  0
SPLINE
  5
57
330
1F
100
AcDbEntity
  8
ROUND
 62
   250
100
AcDbSpline
210
0.0
220
0.0
230
1.0
 70
    24
 71
     3
 72
     8
 73
     4
 74
     0
 42
0.0000000001
 43
0.0000000001
 40
0.0
 40
0.0
 40
0.0
 40
0.0
 40
1.0
 40
1.0
 40
1.0
 40
1.0
 10
4.2441
 20
-2.8096
 30
0.0
 10
4.2441
 20
-2.8096
 30
0.0
 10
1.4867
 20
-2.8096
 30
0.0
 10
1.4867
 20
-2.8096
 30
0.0
  0
SPLINE
  5
58
330
1F
100
AcDbEntity
  8
ROUND
 62
   250
100
AcDbSpline
210
0.0
220
0.0
230
1.0
 70
    24
 71
     3
 72
     8
 73
     4
 74
     0
 42
0.0000000001
 43
0.0000000001
 40
0.0
 40
0.0
 40
0.0
 40
0.0
 40
1.0
 40
1.0
 40
1.0
 40
1.0
 10
1.3574
 20
-0.0953
 30
0.0
 10
1.3574
 20
-0.0953
 30
0.0
 10
1.3574
 20
1.9297
 30
0.0
 10
1.3574
 20
1.9297
 30
0.0
  0
SPLINE
  5
59
330
1F
100
AcDbEntity
  8
ROUND
 62
   250
100
AcDbSpline
210
0.0
220
0.0
230
1.0
 70
    24
 71
     3
 72
     8
 73
     4
 74
     0
 42
0.0000000001
 43
0.0000000001
 40
0.0
 40
0.0
 40
0.0
 40
0.0
 40
1.0
 40
1.0
 40
1.0
 40
1.0
 10
1.4867
 20
-0.2245
 30
0.0
 10
1.4867
 20
-0.2245
 30
0.0
 10
1.4867
 20
-2.8096
 30
0.0
 10
1.4867
 20
-2.8096
 30
0.0
  0
SPLINE
  5
5A
330
1F
100
AcDbEntity
  8
ROUND
 62
   250
100
AcDbSpline
210
0.0
220
0.0
230
1.0
 70
    24
 71
     3
 72
     8
 73
     4
 74
     0
 42
0.0000000001
 43
0.0000000001
 40
0.0
 40
0.0
 40
0.0
 40
0.0
 40
1.0
 40
1.0
 40
1.0
 40
1.0
 10
4.2441
 20
-0.2245
 30
0.0
 10
4.2441
 20
-0.2245
 30
0.0
 10
4.2441
 20
-2.8096
 30
0.0
 10
4.2441
 20
-2.8096
 30
0.0
  0
SPLINE
  5
5B
330
1F
100
AcDbEntity
  8
ROUND
 62
   250
100
AcDbSpline
210
0.0
220
0.0
230
1.0
 70
    24
 71
     3
 72
     8
 73
     4
 74
     0
 42
0.0000000001
 43
0.0000000001
 40
0.0
 40
0.0
 40
0.0
 40
0.0
 40
1.0
 40
1.0
 40
1.0
 40
1.0
 10
1.3574
 20
1.9297
 30
0.0
 10
1.3574
 20
1.9297
 30
0.0
 10
4.3733
 20
1.9297
 30
0.0
 10
4.3733
 20
1.9297
 30
0.0
  0
SPLINE
  5
5C
330
1F
100
AcDbEntity
  8
ROUND
 62
   250
100
AcDbSpline
210
0.0
220
0.0
230
1.0
 70
    24
 71
     3
 72
     8
 73
     4
 74
     0
 42
0.0000000001
 43
0.0000000001
 40
0.0
 40
0.0
 40
0.0
 40
0.0
 40
1.0
 40
1.0
 40
1.0
 40
1.0
 10
4.3733
 20
-0.0953
 30
0.0
 10
4.3733
 20
-0.0953
 30
0.0
 10
4.3733
 20
1.9297
 30
0.0
 10
4.3733
 20
1.9297
 30
0.0
  0
SPLINE
  5
5D
330
1F
100
AcDbEntity
  8
ROUND
 62
   250
100
AcDbSpline
210
0.0
220
0.0
230
1.0
 70
    24
 71
     3
 72
     8
 73
     4
 74
     0
 42
0.0000000001
 43
0.0000000001
 40
0.0
 40
0.0
 40
0.0
 40
0.0
 40
1.0
 40
1.0
 40
1.0
 40
1.0
 10
8.6818
 20
17.4403
 30
0.0
 10
8.6818
 20
17.4403
 30
0.0
 10
8.6818
 20
22.1796
 30
0.0
 10
8.6818
 20
22.1796
 30
0.0
  0
SPLINE
  5
5E
330
1F
100
AcDbEntity
  8
ROUND
 62
   250
100
AcDbSpline
210
0.0
220
0.0
230
1.0
 70
    24
 71
     3
 72
     8
 73
     4
 74
     0
 42
0.0000000001
 43
0.0000000001
 40
0.0
 40
0.0
 40
0.0
 40
0.0
 40
1.0
 40
1.0
 40
1.0
 40
1.0
 10
2.8138
 20
6.7883
 30
0.0
 10
2.8138
 20
6.7883
 30
0.0
 10
5.3324
 20
5.1293
 30
0.0
 10
5.3324
 20
5.1293
 30
0.0
  0
SPLINE
  5
5F
330
1F
100
AcDbEntity
  8
ROUND
 62
   250
100
AcDbSpline
210
0.0
220
0.0
230
1.0
 70
    24
 71
     3
 72
     8
 73
     4
 74
     0
 42
0.0000000001
 43
0.0000000001
 40
0.0
 40
0.0
 40
0.0
 40
0.0
 40
1.0
 40
1.0
 40
1.0
 40
1.0
 10
11.6978
 20
17.4403
 30
0.0
 10
11.6978
 20
17.4403
 30
0.0
 10
11.6978
 20
22.1796
 30
0.0
 10
11.6978
 20
22.1796
 30
0.0
  0
SPLINE
  5
60
330
1F
100
AcDbEntity
  8
ROUND
 62
   250
100
AcDbSpline
210
0.0
220
0.0
230
1.0
 70
    24
 71
     3
 72
     8
 73
     4
 74
     0
 42
0.0000000001
 43
0.0000000001
 40
0.0
 40
0.0
 40
0.0
 40
0.0
 40
1.0
 40
1.0
 40
1.0
 40
1.0
 10
8.6818
 20
17.4403
 30
0.0
 10
8.6818
 20
17.4403
 30
0.0
 10
11.6978
 20
17.4403
 30
0.0
 10
11.6978
 20
17.4403
 30
0.0
  0
SPLINE
  5
61
330
1F
100
AcDbEntity
  8
ROUND
 62
   250
100
AcDbSpline
210
0.0
220
0.0
230
1.0
 70
    24
 71
     3
 72
     8
 73
     4
 74
     0
 42
0.0000000001
 43
0.0000000001
 40
0.0
 40
0.0
 40
0.0
 40
0.0
 40
1.0
 40
1.0
 40
1.0
 40
1.0
 10
7.7227
 20
14.2407
 30
0.0
 10
7.7227
 20
14.2407
 30
0.0
 10
10.2414
 20
12.5817
 30
0.0
 10
10.2414
 20
12.5817
 30
0.0
  0
SPLINE
  5
62
330
1F
100
AcDbEntity
  8
ROUND
 62
   250
100
AcDbSpline
210
0.0
220
0.0
230
1.0
 70
    24
 71
     3
 72
     8
 73
     4
 74
     0
 42
0.0000000001
 43
0.0000000001
 40
0.0
 40
0.0
 40
0.0
 40
0.0
 40
1.0
 40
1.0
 40
1.0
 40
1.0
 10
8.6818
 20
22.1796
 30
0.0
 10
8.6818
 20
22.1796
 30
0.0
 10
11.6978
 20
22.1796
 30
0.0
 10
11.6978
 20
22.1796
 30
0.0
  0
SPLINE
  5
63
330
1F
100
AcDbEntity
  8
ROUND
 62
   250
100
AcDbSpline
210
0.0
220
0.0
230
1.0
 70
     8
 71
     3
 72
     8
 73
     4
 74
     0
 42
0.0000000001
 43
0.0000000001
 40
0.0
 40
0.0
 40
0.0
 40
0.0
 40
1.0
 40
1.0
 40
1.0
 40
1.0
 10
10.2414
 20
12.5817
 30
0.0
 10
11.1914
 20
14.024
 30
0.0
 10
11.6978
 20
15.7132
 30
0.0
 10
11.6978
 20
17.4403
 30
0.0
  0
SPLINE
  5
64
330
1F
100
AcDbEntity
  8
ROUND
 62
   250
100
AcDbSpline
210
0.0
220
0.0
230
1.0
 70
     8
 71
     3
 72
     8
 73
     4
 74
     0
 42
0.0000000001
 43
0.0000000001
 40
0.0
 40
0.0
 40
0.0
 40
0.0
 40
1.0
 40
1.0
 40
1.0
 40
1.0
 10
2.8138
 20
6.7883
 30
0.0
 10
1.8637
 20
5.346
 30
0.0
 10
1.3574
 20
3.6568
 30
0.0
 10
1.3574
 20
1.9297
 30
0.0
  0
SPLINE
  5
65
330
1F
100
AcDbEntity
  8
ROUND
 62
   250
100
AcDbSpline
210
0.0
220
0.0
230
1.0
 70
     8
 71
     3
 72
     8
 73
     4
 74
     0
 42
0.0000000001
 43
0.0000000001
 40
0.0
 40
0.0
 40
0.0
 40
0.0
 40
1.0
 40
1.0
 40
1.0
 40
1.0
 10
7.7227
 20
14.2407
 30
0.0
 10
8.3483
 20
15.1905
 30
0.0
 10
8.6818
 20
16.3029
 30
0.0
 10
8.6818
 20
17.4403
 30
0.0
  0
SPLINE
  5
66
330
1F
100
AcDbEntity
  8
ROUND
 62
   250
100
AcDbSpline
210
0.0
220
0.0
230
1.0
 70
     8
 71
     3
 72
     8
 73
     4
 74
     0
 42
0.0000000001
 43
0.0000000001
 40
0.0
 40
0.0
 40
0.0
 40
0.0
 40
1.0
 40
1.0
 40
1.0
 40
1.0
 10
5.3324
 20
5.1293
 30
0.0
 10
4.7068
 20
4.1795
 30
0.0
 10
4.3733
 20
3.0671
 30
0.0
 10
4.3733
 20
1.9297
 30
0.0
  0
SPLINE
  5
67
330
1F
100
AcDbEntity
  8
ROUND
 62
   250
100
AcDbSpline
210
0.0
220
0.0
230
1.0
 70
    24
 71
     3
 72
     8
 73
     4
 74
     0
 42
0.0000000001
 43
0.0000000001
 40
0.0
 40
0.0
 40
0.0
 40
0.0
 40
1.0
 40
1.0
 40
1.0
 40
1.0
 10
1.4867
 20
-0.2245
 30
0.0
 10
1.4867
 20
-0.2245
 30
0.0
 10
4.2441
 20
-0.2245
 30
0.0
 10
4.2441
 20
-0.2245
 30
0.0
  0
SPLINE
  5
68
330
1F
100
AcDbEntity
  8
ROUND
 62
   250
100
AcDbSpline
210
0.0
220
0.0
230
1.0
 70
    24
 71
     3
 72
     8
 73
     4
 74
     0
 42
0.0000000001
 43
0.0000000001
 40
0.0
 40
0.0
 40
0.0
 40
0.0
 40
1.0
 40
1.0
 40
1.0
 40
1.0
 10
1.3574
 20
-0.0953
 30
0.0
 10
1.3574
 20
-0.0953
 30
0.0
 10
4.3733
 20
-0.0953
 30
0.0
 10
4.3733
 20
-0.0953
 30
0.0
  0
SPLINE
  5
69
330
1F
100
AcDbEntity
  8
ROUND
 62
   250
100
AcDbSpline
210
0.0
220
0.0
230
1.0
 70
     8
 71
     3
 72
     8
 73
     4
 74
     0
 42
0.0000000001
 43
0.0000000001
 40
0.0
 40
0.0
 40
0.0
 40
0.0
 40
1.0
 40
1.0
 40
1.0
 40
1.0
 10
1.3574
 20
-0.0953
 30
0.0
 10
1.3574
 20
-0.1667
 30
0.0
 10
1.4153
 20
-0.2245
 30
0.0
 10
1.4867
 20
-0.2245
 30
0.0
  0
SPLINE
  5
6A
330
1F
100
AcDbEntity
  8
ROUND
 62
   250
100
AcDbSpline
210
0.0
220
0.0
230
1.0
 70
     8
 71
     3
 72
     8
 73
     4
 74
     0
 42
0.0000000001
 43
0.0000000001
 40
0.0
 40
0.0
 40
0.0
 40
0.0
 40
1.0
 40
1.0
 40
1.0
 40
1.0
 10
4.2441
 20
-0.2245
 30
0.0
 10
4.3155
 20
-0.2245
 30
0.0
 10
4.3733
 20
-0.1667
 30
0.0
 10
4.3733
 20
-0.0953
 30
0.0
  0
SPLINE
  5
6B
330
1F
100
AcDbEntity
  8
ROUND
  6
NEW_LINE1
 62
   250
100
AcDbSpline
210
0.0
220
0.0
230
1.0
 70
    24
 71
     3
 72
     8
 73
     4
 74
     0
 42
0.0000000001
 43
0.0000000001
 40
0.0
 40
0.0
 40
0.0
 40
0.0
 40
1.0
 40
1.0
 40
1.0
 40
1.0
 10
3.1456
 20
4.6142
 30
0.0
 10
3.1456
 20
4.6142
 30
0.0
 10
9.4669
 20
14.2108
 30
0.0
 10
9.4669
 20
14.2108
 30
0.0
  0
SPLINE
  5
6D
330
1F
100
AcDbEntity
  8
ROUND
 62
   250
100
AcDbSpline
210
0.0
220
0.0
230
1.0
 70
    24
 71
     3
 72
     8
 73
     4
 74
     0
 42
0.0000000001
 43
0.0000000001
 40
0.0
 40
0.0
 40
0.0
 40
0.0
 40
1.0
 40
1.0
 40
1.0
 40
1.0
 10
-5.2581
 20
9.423
 30
0.0
 10
-5.2581
 20
9.423
 30
0.0
 10
-22.215
 20
9.423
 30
0.0
 10
-22.215
 20
9.423
 30
0.0
  0
SPLINE
  5
6E
330
1F
100
AcDbEntity
  8
ROUND
 62
   250
100
AcDbSpline
210
0.0
220
0.0
230
1.0
 70
    24
 71
     3
 72
     8
 73
     4
 74
     0
 42
0.0000000001
 43
0.0000000001
 40
0.0
 40
0.0
 40
0.0
 40
0.0
 40
1.0
 40
1.0
 40
1.0
 40
1.0
 10
15.9013
 20
19.5891
 30
0.0
 10
15.9013
 20
19.5891
 30
0.0
 10
-1.0556
 20
19.5891
 30
0.0
 10
-1.0556
 20
19.5891
 30
0.0
  0
SPLINE
  5
6F
330
1F
100
AcDbEntity
  8
ROUND
 62
   250
100
AcDbSpline
210
0.0
220
0.0
230
1.0
 70
    24
 71
     3
 72
     8
 73
     4
 74
     0
 42
0.0000000001
 43
0.0000000001
 40
0.0
 40
0.0
 40
0.0
 40
0.0
 40
1.0
 40
1.0
 40
1.0
 40
1.0
 10
18.0498
 20
3.8588
 30
0.0
 10
18.0498
 20
3.8588
 30
0.0
 10
-2.3064
 20
3.8588
 30
0.0
 10
-2.3064
 20
3.8588
 30
0.0
  0
SPLINE
  5
70
330
1F
100
AcDbEntity
  8
ROUND
 62
   250
100
AcDbSpline
210
0.0
220
0.0
230
1.0
 70
    24
 71
     3
 72
     8
 73
     4
 74
     0
 42
0.0000000001
 43
0.0000000001
 40
0.0
 40
0.0
 40
0.0
 40
0.0
 40
1.0
 40
1.0
 40
1.0
 40
1.0
 10
20.4717
 20
-6.5942
 30
0.0
 10
20.4717
 20
-6.5942
 30
0.0
 10
3.2859
 20
-6.5942
 30
0.0
 10
3.2859
 20
-6.5942
 30
0.0
  0
SPLINE
  5
71
330
1F
100
AcDbEntity
  8
ROUND
 62
   250
100
AcDbSpline
210
0.0
220
0.0
230
1.0
 70
    24
 71
     3
 72
     8
 73
     4
 74
     0
 42
0.0000000001
 43
0.0000000001
 40
0.0
 40
0.0
 40
0.0
 40
0.0
 40
1.0
 40
1.0
 40
1.0
 40
1.0
 10
-12.915
 20
18.7478
 30
0.0
 10
-12.915
 20
18.7478
 30
0.0
 10
-24.3283
 20
18.7478
 30
0.0
 10
-24.3283
 20
18.7478
 30
0.0
  0
SPLINE
  5
72
330
1F
100
AcDbEntity
  8
ROUND
 62
   250
100
AcDbSpline
210
0.0
220
0.0
230
1.0
 70
    24
 71
     3
 72
     8
 73
     4
 74
     0
 42
0.0000000001
 43
0.0000000001
 40
0.0
 40
0.0
 40
0.0
 40
0.0
 40
1.0
 40
1.0
 40
1.0
 40
1.0
 10
26.236
 20
22.1212
 30
0.0
 10
26.236
 20
22.1212
 30
0.0
 10
12.2664
 20
22.1212
 30
0.0
 10
12.2664
 20
22.1212
 30
0.0
  0
SPLINE
  5
73
330
1F
100
AcDbEntity
  8
ROUND
 62
   250
100
AcDbSpline
210
0.0
220
0.0
230
1.0
 70
    24
 71
     3
 72
     8
 73
     4
 74
     0
 42
0.0000000001
 43
0.0000000001
 40
0.0
 40
0.0
 40
0.0
 40
0.0
 40
1.0
 40
1.0
 40
1.0
 40
1.0
 10
26.2291
 20
-8.7822
 30
0.0
 10
26.2291
 20
-8.7822
 30
0.0
 10
5.1685
 20
-8.7822
 30
0.0
 10
5.1685
 20
-8.7822
 30
0.0
  0
SPLINE
  5
74
330
1F
100
AcDbEntity
  8
ROUND
 62
   250
100
AcDbSpline
210
0.0
220
0.0
230
1.0
 70
    24
 71
     3
 72
     8
 73
     4
 74
     0
 42
0.0000000001
 43
0.0000000001
 40
0.0
 40
0.0
 40
0.0
 40
0.0
 40
1.0
 40
1.0
 40
1.0
 40
1.0
 10
-12.9146
 20
-19.5015
 30
0.0
 10
-12.9146
 20
-19.5015
 30
0.0
 10
-24.2706
 20
-19.5015
 30
0.0
 10
-24.2706
 20
-19.5015
 30
0.0
  0
SPLINE
  5
75
330
1F
100
AcDbEntity
  8
ROUND
 62
   250
100
AcDbSpline
210
0.0
220
0.0
230
1.0
 70
    24
 71
     3
 72
     8
 73
     4
 74
     0
 42
0.0000000001
 43
0.0000000001
 40
0.0
 40
0.0
 40
0.0
 40
0.0
 40
1.0
 40
1.0
 40
1.0
 40
1.0
 10
26.1699
 20
-2.7707
 30
0.0
 10
26.1699
 20
-2.7707
 30
0.0
 10
4.8026
 20
-2.7707
 30
0.0
 10
4.8026
 20
-2.7707
 30
0.0
  0
SPLINE
  5
76
330
1F
100
AcDbEntity
  8
ROUND
 62
   250
100
AcDbSpline
210
0.0
220
0.0
230
1.0
 70
    24
 71
     3
 72
     8
 73
     4
 74
     0
 42
0.0000000001
 43
0.0000000001
 40
0.0
 40
0.0
 40
0.0
 40
0.0
 40
1.0
 40
1.0
 40
1.0
 40
1.0
 10
26.0511
 20
-21.3
 30
0.0
 10
26.0511
 20
-21.3
 30
0.0
 10
22.4326
 20
-21.3
 30
0.0
 10
22.4326
 20
-21.3
 30
0.0
  0
SPLINE
  5
77
330
1F
100
AcDbEntity
  8
ROUND
 62
   250
100
AcDbSpline
210
0.0
220
0.0
230
1.0
 70
    24
 71
     3
 72
     8
 73
     4
 74
     0
 42
0.0000000001
 43
0.0000000001
 40
0.0
 40
0.0
 40
0.0
 40
0.0
 40
1.0
 40
1.0
 40
1.0
 40
1.0
 10
-23.7238
 20
15.9028
 30
0.0
 10
-23.7238
 20
15.9028
 30
0.0
 10
-23.7238
 20
-19.5014
 30
0.0
 10
-23.7238
 20
-19.5014
 30
0.0
  0
SPLINE
  5
78
330
1F
100
AcDbEntity
  8
ROUND
 62
   250
100
AcDbSpline
210
0.0
220
0.0
230
1.0
 70
    24
 71
     3
 72
     8
 73
     4
 74
     0
 42
0.0000000001
 43
0.0000000001
 40
0.0
 40
0.0
 40
0.0
 40
0.0
 40
1.0
 40
1.0
 40
1.0
 40
1.0
 10
25.6572
 20
19.2927
 30
0.0
 10
25.6572
 20
19.2927
 30
0.0
 10
25.6572
 20
-1.6543
 30
0.0
 10
25.6572
 20
-1.6543
 30
0.0
  0
SPLINE
  5
79
330
1F
100
AcDbEntity
  8
ROUND
 62
   250
100
AcDbSpline
210
0.0
220
0.0
230
1.0
 70
    24
 71
     3
 72
     8
 73
     4
 74
     0
 42
0.0000000001
 43
0.0000000001
 40
0.0
 40
0.0
 40
0.0
 40
0.0
 40
1.0
 40
1.0
 40
1.0
 40
1.0
 10
25.5347
 20
-11.6272
 30
0.0
 10
25.5347
 20
-11.6272
 30
0.0
 10
25.5347
 20
-20.502
 30
0.0
 10
25.5347
 20
-20.502
 30
0.0
  0
SPLINE
  5
7A
330
1F
100
AcDbEntity
  8
ROUND
 62
   250
100
AcDbSpline
210
0.0
220
0.0
230
1.0
 70
    24
 71
     3
 72
     8
 73
     4
 74
     0
 42
0.0000000001
 43
0.0000000001
 40
0.0
 40
0.0
 40
0.0
 40
0.0
 40
1.0
 40
1.0
 40
1.0
 40
1.0
 10
20.9016
 20
-5.4944
 30
0.0
 10
20.9016
 20
-5.4944
 30
0.0
 10
20.9016
 20
-19.2252
 30
0.0
 10
20.9016
 20
-19.2252
 30
0.0
  0
SPLINE
  5
7B
330
1F
100
AcDbEntity
  8
ROUND
 62
   250
100
AcDbSpline
210
0.0
220
0.0
230
1.0
 70
    24
 71
     3
 72
     8
 73
     4
 74
     0
 42
0.0000000001
 43
0.0000000001
 40
0.0
 40
0.0
 40
0.0
 40
0.0
 40
1.0
 40
1.0
 40
1.0
 40
1.0
 10
10.2982
 20
14.4905
 30
0.0
 10
10.2982
 20
14.4905
 30
0.0
 10
10.2982
 20
3.2615
 30
0.0
 10
10.2982
 20
3.2615
 30
0.0
  0
SPLINE
  5
7C
330
1F
100
AcDbEntity
  8
ROUND
  6
NEW_LINE2
 62
   250
100
AcDbSpline
210
0.0
220
0.0
230
1.0
 70
    24
 71
     3
 72
     8
 73
     4
 74
     0
 42
0.0000000001
 43
0.0000000001
 40
0.0
 40
0.0
 40
0.0
 40
0.0
 40
1.0
 40
1.0
 40
1.0
 40
1.0
 10
-11.0542
 20
19.5238
 30
0.0
 10
-11.0542
 20
19.5238
 30
0.0
 10
-11.0542
 20
-20.8046
 30
0.0
 10
-11.0542
 20
-20.8046
 30
0.0
  0
SPLINE
  5
7E
330
1F
100
AcDbEntity
  8
ROUND
  6
NEW_LINE3
 62
   250
100
AcDbSpline
210
0.0
220
0.0
230
1.0
 70
    24
 71
     3
 72
     8
 73
     4
 74
     0
 42
0.0000000001
 43
0.0000000001
 40
0.0
 40
0.0
 40
0.0
 40
0.0
 40
1.0
 40
1.0
 40
1.0
 40
1.0
 10
10.2356
 20
22.8204
 30
0.0
 10
10.2356
 20
22.8204
 30
0.0
 10
10.2356
 20
14.9042
 30
0.0
 10
10.2356
 20
14.9042
 30
0.0
  0
SPLINE
  5
80
330
1F
100
AcDbEntity
  8
ROUND
  6
NEW_LINE4
 62
   250
100
AcDbSpline
210
0.0
220
0.0
230
1.0
 70
    24
 71
     3
 72
     8
 73
     4
 74
     0
 42
0.0000000001
 43
0.0000000001
 40
0.0
 40
0.0
 40
0.0
 40
0.0
 40
1.0
 40
1.0
 40
1.0
 40
1.0
 10
2.8929
 20
3.7035
 30
0.0
 10
2.8929
 20
3.7035
 30
0.0
 10
2.8929
 20
-3.6011
 30
0.0
 10
2.8929
 20
-3.6011
 30
0.0
  0
SPLINE
  5
82
330
1F
100
AcDbEntity
  8
ROUND
 62
   250
100
AcDbSpline
210
0.0
220
0.0
230
1.0
 70
    11
 71
     3
 72
    16
 73
    12
 74
     0
 42
0.0000000001
 43
0.0000000001
 40
0.0
 40
0.0
 40
0.0
 40
0.0
 40
0.25
 40
0.25
 40
0.25
 40
0.25
 40
0.5
 40
0.5
 40
0.5
 40
0.5
 40
1.0
 40
1.0
 40
1.0
 40
1.0
 10
-12.6422
 20
9.4541
 30
0.0
 10
-12.6422
 20
9.4541
 30
0.0
 10
-15.6422
 20
9.985
 30
0.0
 10
-15.6422
 20
9.985
 30
0.0
 10
-15.6422
 20
9.985
 30
0.0
 10
-15.6422
 20
9.985
 30
0.0
 10
-15.6422
 20
8.9231
 30
0.0
 10
-15.6422
 20
8.9231
 30
0.0
 10
-15.6422
 20
8.9231
 30
0.0
 10
-15.6422
 20
8.9231
 30
0.0
 10
-12.6422
 20
9.4541
 30
0.0
 10
-12.6422
 20
9.4541
 30
0.0
  0
SPLINE
  5
83
330
1F
100
AcDbEntity
  8
ROUND
 62
   250
100
AcDbSpline
210
0.0
220
0.0
230
1.0
 70
    11
 71
     3
 72
    16
 73
    12
 74
     0
 42
0.0000000001
 43
0.0000000001
 40
0.0
 40
0.0
 40
0.0
 40
0.0
 40
0.25
 40
0.25
 40
0.25
 40
0.25
 40
0.5
 40
0.5
 40
0.5
 40
0.5
 40
1.0
 40
1.0
 40
1.0
 40
1.0
 10
8.5172
 20
19.6202
 30
0.0
 10
8.5172
 20
19.6202
 30
0.0
 10
5.5172
 20
20.1511
 30
0.0
 10
5.5172
 20
20.1511
 30
0.0
 10
5.5172
 20
20.1511
 30
0.0
 10
5.5172
 20
20.1511
 30
0.0
 10
5.5172
 20
19.0892
 30
0.0
 10
5.5172
 20
19.0892
 30
0.0
 10
5.5172
 20
19.0892
 30
0.0
 10
5.5172
 20
19.0892
 30
0.0
 10
8.5172
 20
19.6202
 30
0.0
 10
8.5172
 20
19.6202
 30
0.0
  0
SPLINE
  5
84
330
1F
100
AcDbEntity
  8
ROUND
 62
   250
100
AcDbSpline
210
0.0
220
0.0
230
1.0
 70
    11
 71
     3
 72
    16
 73
    12
 74
     0
 42
0.0000000001
 43
0.0000000001
 40
0.0
 40
0.0
 40
0.0
 40
0.0
 40
0.25
 40
0.25
 40
0.25
 40
0.25
 40
0.5
 40
0.5
 40
0.5
 40
0.5
 40
1.0
 40
1.0
 40
1.0
 40
1.0
 10
2.8516
 20
3.8589
 30
0.0
 10
2.8516
 20
3.8589
 30
0.0
 10
-0.1484
 20
4.3898
 30
0.0
 10
-0.1484
 20
4.3898
 30
0.0
 10
-0.1484
 20
4.3898
 30
0.0
 10
-0.1484
 20
4.3898
 30
0.0
 10
-0.1484
 20
3.3279
 30
0.0
 10
-0.1484
 20
3.3279
 30
0.0
 10
-0.1484
 20
3.3279
 30
0.0
 10
-0.1484
 20
3.3279
 30
0.0
 10
2.8516
 20
3.8589
 30
0.0
 10
2.8516
 20
3.8589
 30
0.0
  0
SPLINE
  5
85
330
1F
100
AcDbEntity
  8
ROUND
 62
   250
100
AcDbSpline
210
0.0
220
0.0
230
1.0
 70
    11
 71
     3
 72
    16
 73
    12
 74
     0
 42
0.0000000001
 43
0.0000000001
 40
0.0
 40
0.0
 40
0.0
 40
0.0
 40
0.25
 40
0.25
 40
0.25
 40
0.25
 40
0.5
 40
0.5
 40
0.5
 40
0.5
 40
1.0
 40
1.0
 40
1.0
 40
1.0
 10
20.8017
 20
-6.5941
 30
0.0
 10
20.8017
 20
-6.5941
 30
0.0
 10
17.8017
 20
-6.0632
 30
0.0
 10
17.8017
 20
-6.0632
 30
0.0
 10
17.8017
 20
-6.0632
 30
0.0
 10
17.8017
 20
-6.0632
 30
0.0
 10
17.8017
 20
-7.1251
 30
0.0
 10
17.8017
 20
-7.1251
 30
0.0
 10
17.8017
 20
-7.1251
 30
0.0
 10
17.8017
 20
-7.1251
 30
0.0
 10
20.8017
 20
-6.5941
 30
0.0
 10
20.8017
 20
-6.5941
 30
0.0
  0
SPLINE
  5
86
330
1F
100
AcDbEntity
  8
ROUND
 62
   250
100
AcDbSpline
210
0.0
220
0.0
230
1.0
 70
    11
 71
     3
 72
    16
 73
    12
 74
     0
 42
0.0000000001
 43
0.0000000001
 40
0.0
 40
0.0
 40
0.0
 40
0.0
 40
0.25
 40
0.25
 40
0.25
 40
0.25
 40
0.5
 40
0.5
 40
0.5
 40
0.5
 40
1.0
 40
1.0
 40
1.0
 40
1.0
 10
-23.7549
 20
18.6786
 30
0.0
 10
-23.7549
 20
18.6786
 30
0.0
 10
-24.2858
 20
15.6786
 30
0.0
 10
-24.2858
 20
15.6786
 30
0.0
 10
-24.2858
 20
15.6786
 30
0.0
 10
-24.2858
 20
15.6786
 30
0.0
 10
-23.2239
 20
15.6786
 30
0.0
 10
-23.2239
 20
15.6786
 30
0.0
 10
-23.2239
 20
15.6786
 30
0.0
 10
-23.2239
 20
15.6786
 30
0.0
 10
-23.7549
 20
18.6786
 30
0.0
 10
-23.7549
 20
18.6786
 30
0.0
  0
SPLINE
  5
87
330
1F
100
AcDbEntity
  8
ROUND
 62
   250
100
AcDbSpline
210
0.0
220
0.0
230
1.0
 70
    11
 71
     3
 72
    16
 73
    12
 74
     0
 42
0.0000000001
 43
0.0000000001
 40
0.0
 40
0.0
 40
0.0
 40
0.0
 40
0.25
 40
0.25
 40
0.25
 40
0.25
 40
0.5
 40
0.5
 40
0.5
 40
0.5
 40
1.0
 40
1.0
 40
1.0
 40
1.0
 10
25.6261
 20
22.0685
 30
0.0
 10
25.6261
 20
22.0685
 30
0.0
 10
25.0952
 20
19.0685
 30
0.0
 10
25.0952
 20
19.0685
 30
0.0
 10
25.0952
 20
19.0685
 30
0.0
 10
25.0952
 20
19.0685
 30
0.0
 10
26.1571
 20
19.0685
 30
0.0
 10
26.1571
 20
19.0685
 30
0.0
 10
26.1571
 20
19.0685
 30
0.0
 10
26.1571
 20
19.0685
 30
0.0
 10
25.6261
 20
22.0685
 30
0.0
 10
25.6261
 20
22.0685
 30
0.0
  0
SPLINE
  5
88
330
1F
100
AcDbEntity
  8
ROUND
 62
   250
100
AcDbSpline
210
0.0
220
0.0
230
1.0
 70
    11
 71
     3
 72
    16
 73
    12
 74
     0
 42
0.0000000001
 43
0.0000000001
 40
0.0
 40
0.0
 40
0.0
 40
0.0
 40
0.25
 40
0.25
 40
0.25
 40
0.25
 40
0.5
 40
0.5
 40
0.5
 40
0.5
 40
1.0
 40
1.0
 40
1.0
 40
1.0
 10
25.5036
 20
-8.8514
 30
0.0
 10
25.5036
 20
-8.8514
 30
0.0
 10
24.9727
 20
-11.8514
 30
0.0
 10
24.9727
 20
-11.8514
 30
0.0
 10
24.9727
 20
-11.8514
 30
0.0
 10
24.9727
 20
-11.8514
 30
0.0
 10
26.0346
 20
-11.8514
 30
0.0
 10
26.0346
 20
-11.8514
 30
0.0
 10
26.0346
 20
-11.8514
 30
0.0
 10
26.0346
 20
-11.8514
 30
0.0
 10
25.5036
 20
-8.8514
 30
0.0
 10
25.5036
 20
-8.8514
 30
0.0
  0
SPLINE
  5
89
330
1F
100
AcDbEntity
  8
ROUND
 62
   250
100
AcDbSpline
210
0.0
220
0.0
230
1.0
 70
    11
 71
     3
 72
    16
 73
    12
 74
     0
 42
0.0000000001
 43
0.0000000001
 40
0.0
 40
0.0
 40
0.0
 40
0.0
 40
0.25
 40
0.25
 40
0.25
 40
0.25
 40
0.5
 40
0.5
 40
0.5
 40
0.5
 40
1.0
 40
1.0
 40
1.0
 40
1.0
 10
-9.3222
 20
9.4395
 30
0.0
 10
-9.3222
 20
9.4395
 30
0.0
 10
-6.449
 20
8.931
 30
0.0
 10
-6.449
 20
8.931
 30
0.0
 10
-6.449
 20
8.931
 30
0.0
 10
-6.449
 20
8.931
 30
0.0
 10
-6.449
 20
9.948
 30
0.0
 10
-6.449
 20
9.948
 30
0.0
 10
-6.449
 20
9.948
 30
0.0
 10
-6.449
 20
9.948
 30
0.0
 10
-9.3222
 20
9.4395
 30
0.0
 10
-9.3222
 20
9.4395
 30
0.0
  0
SPLINE
  5
8A
330
1F
100
AcDbEntity
  8
ROUND
 62
   250
100
AcDbSpline
210
0.0
220
0.0
230
1.0
 70
    11
 71
     3
 72
    16
 73
    12
 74
     0
 42
0.0000000001
 43
0.0000000001
 40
0.0
 40
0.0
 40
0.0
 40
0.0
 40
0.25
 40
0.25
 40
0.25
 40
0.25
 40
0.5
 40
0.5
 40
0.5
 40
0.5
 40
1.0
 40
1.0
 40
1.0
 40
1.0
 10
11.8372
 20
19.6056
 30
0.0
 10
11.8372
 20
19.6056
 30
0.0
 10
14.7104
 20
19.0971
 30
0.0
 10
14.7104
 20
19.0971
 30
0.0
 10
14.7104
 20
19.0971
 30
0.0
 10
14.7104
 20
19.0971
 30
0.0
 10
14.7104
 20
20.1141
 30
0.0
 10
14.7104
 20
20.1141
 30
0.0
 10
14.7104
 20
20.1141
 30
0.0
 10
14.7104
 20
20.1141
 30
0.0
 10
11.8372
 20
19.6056
 30
0.0
 10
11.8372
 20
19.6056
 30
0.0
  0
SPLINE
  5
8B
330
1F
100
AcDbEntity
  8
ROUND
 62
   250
100
AcDbSpline
210
0.0
220
0.0
230
1.0
 70
    11
 71
     3
 72
    16
 73
    12
 74
     0
 42
0.0000000001
 43
0.0000000001
 40
0.0
 40
0.0
 40
0.0
 40
0.0
 40
0.25
 40
0.25
 40
0.25
 40
0.25
 40
0.5
 40
0.5
 40
0.5
 40
0.5
 40
1.0
 40
1.0
 40
1.0
 40
1.0
 10
10.4313
 20
3.8589
 30
0.0
 10
10.4313
 20
3.8589
 30
0.0
 10
13.3045
 20
3.3504
 30
0.0
 10
13.3045
 20
3.3504
 30
0.0
 10
13.3045
 20
3.3504
 30
0.0
 10
13.3045
 20
3.3504
 30
0.0
 10
13.3045
 20
4.3674
 30
0.0
 10
13.3045
 20
4.3674
 30
0.0
 10
13.3045
 20
4.3674
 30
0.0
 10
13.3045
 20
4.3674
 30
0.0
 10
10.4313
 20
3.8589
 30
0.0
 10
10.4313
 20
3.8589
 30
0.0
  0
SPLINE
  5
8C
330
1F
100
AcDbEntity
  8
ROUND
 62
   250
100
AcDbSpline
210
0.0
220
0.0
230
1.0
 70
    11
 71
     3
 72
    16
 73
    12
 74
     0
 42
0.0000000001
 43
0.0000000001
 40
0.0
 40
0.0
 40
0.0
 40
0.0
 40
0.25
 40
0.25
 40
0.25
 40
0.25
 40
0.5
 40
0.5
 40
0.5
 40
0.5
 40
1.0
 40
1.0
 40
1.0
 40
1.0
 10
3.0234
 20
-6.5941
 30
0.0
 10
3.0234
 20
-6.5941
 30
0.0
 10
5.8966
 20
-7.1026
 30
0.0
 10
5.8966
 20
-7.1026
 30
0.0
 10
5.8966
 20
-7.1026
 30
0.0
 10
5.8966
 20
-7.1026
 30
0.0
 10
5.8966
 20
-6.0856
 30
0.0
 10
5.8966
 20
-6.0856
 30
0.0
 10
5.8966
 20
-6.0856
 30
0.0
 10
5.8966
 20
-6.0856
 30
0.0
 10
3.0234
 20
-6.5941
 30
0.0
 10
3.0234
 20
-6.5941
 30
0.0
  0
SPLINE
  5
8D
330
1F
100
AcDbEntity
  8
ROUND
 62
   250
100
AcDbSpline
210
0.0
220
0.0
230
1.0
 70
    11
 71
     3
 72
    16
 73
    12
 74
     0
 42
0.0000000001
 43
0.0000000001
 40
0.0
 40
0.0
 40
0.0
 40
0.0
 40
0.25
 40
0.25
 40
0.25
 40
0.25
 40
0.5
 40
0.5
 40
0.5
 40
0.5
 40
1.0
 40
1.0
 40
1.0
 40
1.0
 10
-23.7238
 20
-19.433
 30
0.0
 10
-23.7238
 20
-19.433
 30
0.0
 10
-23.2153
 20
-16.5598
 30
0.0
 10
-23.2153
 20
-16.5598
 30
0.0
 10
-23.2153
 20
-16.5598
 30
0.0
 10
-23.2153
 20
-16.5598
 30
0.0
 10
-24.2323
 20
-16.5598
 30
0.0
 10
-24.2323
 20
-16.5598
 30
0.0
 10
-24.2323
 20
-16.5598
 30
0.0
 10
-24.2323
 20
-16.5598
 30
0.0
 10
-23.7238
 20
-19.433
 30
0.0
 10
-23.7238
 20
-19.433
 30
0.0
  0
SPLINE
  5
8E
330
1F
100
AcDbEntity
  8
ROUND
 62
   250
100
AcDbSpline
210
0.0
220
0.0
230
1.0
 70
    11
 71
     3
 72
    16
 73
    12
 74
     0
 42
0.0000000001
 43
0.0000000001
 40
0.0
 40
0.0
 40
0.0
 40
0.0
 40
0.25
 40
0.25
 40
0.25
 40
0.25
 40
0.5
 40
0.5
 40
0.5
 40
0.5
 40
1.0
 40
1.0
 40
1.0
 40
1.0
 10
25.6572
 20
-2.6611
 30
0.0
 10
25.6572
 20
-2.6611
 30
0.0
 10
26.1657
 20
0.2121
 30
0.0
 10
26.1657
 20
0.2121
 30
0.0
 10
26.1657
 20
0.2121
 30
0.0
 10
26.1657
 20
0.2121
 30
0.0
 10
25.1487
 20
0.2121
 30
0.0
 10
25.1487
 20
0.2121
 30
0.0
 10
25.1487
 20
0.2121
 30
0.0
 10
25.1487
 20
0.2121
 30
0.0
 10
25.6572
 20
-2.6611
 30
0.0
 10
25.6572
 20
-2.6611
 30
0.0
  0
SPLINE
  5
8F
330
1F
100
AcDbEntity
  8
ROUND
 62
   250
100
AcDbSpline
210
0.0
220
0.0
230
1.0
 70
    11
 71
     3
 72
    16
 73
    12
 74
     0
 42
0.0000000001
 43
0.0000000001
 40
0.0
 40
0.0
 40
0.0
 40
0.0
 40
0.25
 40
0.25
 40
0.25
 40
0.25
 40
0.5
 40
0.5
 40
0.5
 40
0.5
 40
1.0
 40
1.0
 40
1.0
 40
1.0
 10
25.5347
 20
-21.2318
 30
0.0
 10
25.5347
 20
-21.2318
 30
0.0
 10
26.0432
 20
-18.3586
 30
0.0
 10
26.0432
 20
-18.3586
 30
0.0
 10
26.0432
 20
-18.3586
 30
0.0
 10
26.0432
 20
-18.3586
 30
0.0
 10
25.0262
 20
-18.3586
 30
0.0
 10
25.0262
 20
-18.3586
 30
0.0
 10
25.0262
 20
-18.3586
 30
0.0
 10
25.0262
 20
-18.3586
 30
0.0
 10
25.5347
 20
-21.2318
 30
0.0
 10
25.5347
 20
-21.2318
 30
0.0
  0
SPLINE
  5
90
330
1F
100
AcDbEntity
  8
ROUND
 62
   250
100
AcDbSpline
210
0.0
220
0.0
230
1.0
 70
    11
 71
     3
 72
    84
 73
    80
 74
     0
 42
0.0000000001
 43
0.0000000001
 40
0.0
 40
0.0
 40
0.0
 40
0.0
 40
0.0476190476190476
 40
0.0476190476190476
 40
0.0476190476190476
 40
0.0476190476190476
 40
0.0952380952380952
 40
0.0952380952380952
 40
0.0952380952380952
 40
0.0952380952380952
 40
0.1428571428571428
 40
0.1428571428571428
 40
0.1428571428571428
 40
0.1428571428571428
 40
0.1904761904761905
 40
0.1904761904761905
 40
0.1904761904761905
 40
0.1904761904761905
 40
0.2380952380952381
 40
0.2380952380952381
 40
0.2380952380952381
 40
0.2380952380952381
 40
0.2857142857142857
 40
0.2857142857142857
 40
0.2857142857142857
 40
0.2857142857142857
 40
0.3333333333333333
 40
0.3333333333333333
 40
0.3333333333333333
 40
0.3333333333333333
 40
0.3809523809523809
 40
0.3809523809523809
 40
0.3809523809523809
 40
0.3809523809523809
 40
0.4285714285714285
 40
0.4285714285714285
 40
0.4285714285714285
 40
0.4285714285714285
 40
0.4761904761904762
 40
0.4761904761904762
 40
0.4761904761904762
 40
0.4761904761904762
 40
0.5238095238095238
 40
0.5238095238095238
 40
0.5238095238095238
 40
0.5238095238095238
 40
0.5714285714285714
 40
0.5714285714285714
 40
0.5714285714285714
 40
0.5714285714285714
 40
0.6190476190476191
 40
0.6190476190476191
 40
0.6190476190476191
 40
0.6190476190476191
 40
0.6666666666666666
 40
0.6666666666666666
 40
0.6666666666666666
 40
0.6666666666666666
 40
0.7142857142857143
 40
0.7142857142857143
 40
0.7142857142857143
 40
0.7142857142857143
 40
0.7619047619047619
 40
0.7619047619047619
 40
0.7619047619047619
 40
0.7619047619047619
 40
0.8095238095238095
 40
0.8095238095238095
 40
0.8095238095238095
 40
0.8095238095238095
 40
0.8571428571428571
 40
0.8571428571428571
 40
0.8571428571428571
 40
0.8571428571428571
 40
0.9047619047619048
 40
0.9047619047619048
 40
0.9047619047619048
 40
0.9047619047619048
 40
1.0
 40
1.0
 40
1.0
 40
1.0
 10
-19.7955
 20
11.683
 30
0.0
 10
-19.7955
 20
11.683
 30
0.0
 10
-19.5641
 20
11.9423
 30
0.0
 10
-19.5641
 20
11.9423
 30
0.0
 10
-19.5641
 20
11.9423
 30
0.0
 10
-19.5641
 20
11.9423
 30
0.0
 10
-19.4276
 20
11.8266
 30
0.0
 10
-19.4276
 20
11.8266
 30
0.0
 10
-19.4276
 20
11.8266
 30
0.0
 10
-19.4276
 20
11.8266
 30
0.0
 10
-19.6699
 20
11.5537
 30
0.0
 10
-19.6699
 20
11.5537
 30
0.0
 10
-19.6699
 20
11.5537
 30
0.0
 10
-19.5909
 20
11.4361
 30
0.0
 10
-19.5377
 20
11.3332
 30
0.0
 10
-19.51
 20
11.2451
 30
0.0
 10
-19.51
 20
11.2451
 30
0.0
 10
-19.4733
 20
11.1294
 30
0.0
 10
-19.4549
 20
10.9996
 30
0.0
 10
-19.4549
 20
10.8566
 30
0.0
 10
-19.4549
 20
10.8566
 30
0.0
 10
-19.4549
 20
10.6496
 30
0.0
 10
-19.4968
 20
10.4652
 30
0.0
 10
-19.5805
 20
10.3039
 30
0.0
 10
-19.5805
 20
10.3039
 30
0.0
 10
-19.6643
 20
10.1421
 30
0.0
 10
-19.7814
 20
10.0197
 30
0.0
 10
-19.9324
 20
9.9369
 30
0.0
 10
-19.9324
 20
9.9369
 30
0.0
 10
-20.0839
 20
9.8547
 30
0.0
 10
-20.2442
 20
9.8133
 30
0.0
 10
-20.414
 20
9.8133
 30
0.0
 10
-20.414
 20
9.8133
 30
0.0
 10
-20.5411
 20
9.8133
 30
0.0
 10
-20.6559
 20
9.8311
 30
0.0
 10
-20.7589
 20
9.8669
 30
0.0
 10
-20.7589
 20
9.8669
 30
0.0
 10
-20.8379
 20
9.8946
 30
0.0
 10
-20.9301
 20
9.9474
 30
0.0
 10
-21.0359
 20
10.0253
 30
0.0
 10
-21.0359
 20
10.0253
 30
0.0
 10
-21.0359
 20
10.0253
 30
0.0
 10
-21.2674
 20
9.7662
 30
0.0
 10
-21.2674
 20
9.7662
 30
0.0
 10
-21.2674
 20
9.7662
 30
0.0
 10
-21.2674
 20
9.7662
 30
0.0
 10
-21.4038
 20
9.8819
 30
0.0
 10
-21.4038
 20
9.8819
 30
0.0
 10
-21.4038
 20
9.8819
 30
0.0
 10
-21.4038
 20
9.8819
 30
0.0
 10
-21.161
 20
10.1533
 30
0.0
 10
-21.161
 20
10.1533
 30
0.0
 10
-21.161
 20
10.1533
 30
0.0
 10
-21.2514
 20
10.2902
 30
0.0
 10
-21.3116
 20
10.4073
 30
0.0
 10
-21.3417
 20
10.5042
 30
0.0
 10
-21.3417
 20
10.5042
 30
0.0
 10
-21.3718
 20
10.6012
 30
0.0
 10
-21.3874
 20
10.7178
 30
0.0
 10
-21.3874
 20
10.8537
 30
0.0
 10
-21.3874
 20
10.8537
 30
0.0
 10
-21.3874
 20
11.0612
 30
0.0
 10
-21.346
 20
11.246
 30
0.0
 10
-21.2632
 20
11.4084
 30
0.0
 10
-21.2632
 20
11.4084
 30
0.0
 10
-21.1804
 20
11.5707
 30
0.0
 10
-21.0647
 20
11.6935
 30
0.0
 10
-20.915
 20
11.7772
 30
0.0
 10
-20.915
 20
11.7772
 30
0.0
 10
-20.766
 20
11.8604
 30
0.0
 10
-20.5999
 20
11.9023
 30
0.0
 10
-20.4169
 20
11.9023
 30
0.0
 10
-20.4169
 20
11.9023
 30
0.0
 10
-20.2936
 20
11.9023
 30
0.0
 10
-20.186
 20
11.8862
 30
0.0
 10
-20.0938
 20
11.8533
 30
0.0
 10
-20.0938
 20
11.8533
 30
0.0
 10
-20.0016
 20
11.8209
 30
0.0
 10
-19.9018
 20
11.764
 30
0.0
 10
-19.7955
 20
11.683
 30
0.0
  0
SPLINE
  5
91
330
1F
100
AcDbEntity
  8
ROUND
 62
   250
100
AcDbSpline
210
0.0
220
0.0
230
1.0
 70
    11
 71
     3
 72
    32
 73
    28
 74
     0
 42
0.0000000001
 43
0.0000000001
 40
0.0
 40
0.0
 40
0.0
 40
0.0
 40
0.125
 40
0.125
 40
0.125
 40
0.125
 40
0.25
 40
0.25
 40
0.25
 40
0.25
 40
0.375
 40
0.375
 40
0.375
 40
0.375
 40
0.5
 40
0.5
 40
0.5
 40
0.5
 40
0.625
 40
0.625
 40
0.625
 40
0.625
 40
0.75
 40
0.75
 40
0.75
 40
0.75
 40
1.0
 40
1.0
 40
1.0
 40
1.0
 10
-19.9606
 20
11.4973
 30
0.0
 10
-20.0472
 20
11.565
 30
0.0
 10
-20.1229
 20
11.6116
 30
0.0
 10
-20.1873
 20
11.6365
 30
0.0
 10
-20.1873
 20
11.6365
 30
0.0
 10
-20.2522
 20
11.661
 30
0.0
 10
-20.3285
 20
11.6736
 30
0.0
 10
-20.4155
 20
11.6736
 30
0.0
 10
-20.4155
 20
11.6736
 30
0.0
 10
-20.6168
 20
11.6736
 30
0.0
 10
-20.7828
 20
11.6055
 30
0.0
 10
-20.9146
 20
11.4691
 30
0.0
 10
-20.9146
 20
11.4691
 30
0.0
 10
-21.0459
 20
11.3326
 30
0.0
 10
-21.1117
 20
11.1289
 30
0.0
 10
-21.1117
 20
10.8575
 30
0.0
 10
-21.1117
 20
10.8575
 30
0.0
 10
-21.1117
 20
10.7512
 30
0.0
 10
-21.1014
 20
10.6567
 30
0.0
 10
-21.0811
 20
10.5739
 30
0.0
 10
-21.0811
 20
10.5739
 30
0.0
 10
-21.0665
 20
10.5122
 30
0.0
 10
-21.0359
 20
10.4365
 30
0.0
 10
-20.9889
 20
10.3467
 30
0.0
 10
-20.9889
 20
10.3467
 30
0.0
 10
-20.9889
 20
10.3467
 30
0.0
 10
-19.9606
 20
11.4973
 30
0.0
 10
-19.9606
 20
11.4973
 30
0.0
  0
SPLINE
  5
92
330
1F
100
AcDbEntity
  8
ROUND
 62
   250
100
AcDbSpline
210
0.0
220
0.0
230
1.0
 70
    11
 71
     3
 72
    28
 73
    24
 74
     0
 42
0.0000000001
 43
0.0000000001
 40
0.0
 40
0.0
 40
0.0
 40
0.0
 40
0.1428571428571428
 40
0.1428571428571428
 40
0.1428571428571428
 40
0.1428571428571428
 40
0.2857142857142857
 40
0.2857142857142857
 40
0.2857142857142857
 40
0.2857142857142857
 40
0.4285714285714285
 40
0.4285714285714285
 40
0.4285714285714285
 40
0.4285714285714285
 40
0.5714285714285714
 40
0.5714285714285714
 40
0.5714285714285714
 40
0.5714285714285714
 40
0.7142857142857143
 40
0.7142857142857143
 40
0.7142857142857143
 40
0.7142857142857143
 40
1.0
 40
1.0
 40
1.0
 40
1.0
 10
-19.8477
 20
11.3552
 30
0.0
 10
-19.8477
 20
11.3552
 30
0.0
 10
-20.8718
 20
10.2088
 30
0.0
 10
-20.8718
 20
10.2088
 30
0.0
 10
-20.8718
 20
10.2088
 30
0.0
 10
-20.8012
 20
10.151
 30
0.0
 10
-20.7358
 20
10.1105
 30
0.0
 10
-20.6761
 20
10.0875
 30
0.0
 10
-20.6761
 20
10.0875
 30
0.0
 10
-20.598
 20
10.0569
 30
0.0
 10
-20.5133
 20
10.0419
 30
0.0
 10
-20.4225
 20
10.0419
 30
0.0
 10
-20.4225
 20
10.0419
 30
0.0
 10
-20.2222
 20
10.0419
 30
0.0
 10
-20.0571
 20
10.1125
 30
0.0
 10
-19.9262
 20
10.254
 30
0.0
 10
-19.9262
 20
10.254
 30
0.0
 10
-19.796
 20
10.3956
 30
0.0
 10
-19.7306
 20
10.5941
 30
0.0
 10
-19.7306
 20
10.8495
 30
0.0
 10
-19.7306
 20
10.8495
 30
0.0
 10
-19.7306
 20
11.0405
 30
0.0
 10
-19.7696
 20
11.2093
 30
0.0
 10
-19.8477
 20
11.3552
 30
0.0
  0
SPLINE
  5
93
330
1F
100
AcDbEntity
  8
ROUND
 62
   250
100
AcDbSpline
210
0.0
220
0.0
230
1.0
 70
    11
 71
     3
 72
   124
 73
   120
 74
     0
 42
0.0000000001
 43
0.0000000001
 40
0.0
 40
0.0
 40
0.0
 40
0.0
 40
0.032258064516129
 40
0.032258064516129
 40
0.032258064516129
 40
0.032258064516129
 40
0.0645161290322581
 40
0.0645161290322581
 40
0.0645161290322581
 40
0.0645161290322581
 40
0.0967741935483871
 40
0.0967741935483871
 40
0.0967741935483871
 40
0.0967741935483871
 40
0.1290322580645161
 40
0.1290322580645161
 40
0.1290322580645161
 40
0.1290322580645161
 40
0.1612903225806452
 40
0.1612903225806452
 40
0.1612903225806452
 40
0.1612903225806452
 40
0.1935483870967742
 40
0.1935483870967742
 40
0.1935483870967742
 40
0.1935483870967742
 40
0.2258064516129032
 40
0.2258064516129032
 40
0.2258064516129032
 40
0.2258064516129032
 40
0.2580645161290323
 40
0.2580645161290323
 40
0.2580645161290323
 40
0.2580645161290323
 40
0.2903225806451613
 40
0.2903225806451613
 40
0.2903225806451613
 40
0.2903225806451613
 40
0.3225806451612903
 40
0.3225806451612903
 40
0.3225806451612903
 40
0.3225806451612903
 40
0.3548387096774194
 40
0.3548387096774194
 40
0.3548387096774194
 40
0.3548387096774194
 40
0.3870967741935484
 40
0.3870967741935484
 40
0.3870967741935484
 40
0.3870967741935484
 40
0.4193548387096774
 40
0.4193548387096774
 40
0.4193548387096774
 40
0.4193548387096774
 40
0.4516129032258064
 40
0.4516129032258064
 40
0.4516129032258064
 40
0.4516129032258064
 40
0.4838709677419355
 40
0.4838709677419355
 40
0.4838709677419355
 40
0.4838709677419355
 40
0.5161290322580645
 40
0.5161290322580645
 40
0.5161290322580645
 40
0.5161290322580645
 40
0.5483870967741935
 40
0.5483870967741935
 40
0.5483870967741935
 40
0.5483870967741935
 40
0.5806451612903226
 40
0.5806451612903226
 40
0.5806451612903226
 40
0.5806451612903226
 40
0.6129032258064516
 40
0.6129032258064516
 40
0.6129032258064516
 40
0.6129032258064516
 40
0.6451612903225806
 40
0.6451612903225806
 40
0.6451612903225806
 40
0.6451612903225806
 40
0.6774193548387096
 40
0.6774193548387096
 40
0.6774193548387096
 40
0.6774193548387096
 40
0.7096774193548387
 40
0.7096774193548387
 40
0.7096774193548387
 40
0.7096774193548387
 40
0.7419354838709677
 40
0.7419354838709677
 40
0.7419354838709677
 40
0.7419354838709677
 40
0.7741935483870968
 40
0.7741935483870968
 40
0.7741935483870968
 40
0.7741935483870968
 40
0.8064516129032258
 40
0.8064516129032258
 40
0.8064516129032258
 40
0.8064516129032258
 40
0.8387096774193549
 40
0.8387096774193549
 40
0.8387096774193549
 40
0.8387096774193549
 40
0.8709677419354839
 40
0.8709677419354839
 40
0.8709677419354839
 40
0.8709677419354839
 40
0.9032258064516129
 40
0.9032258064516129
 40
0.9032258064516129
 40
0.9032258064516129
 40
0.9354838709677419
 40
0.9354838709677419
 40
0.9354838709677419
 40
0.9354838709677419
 40
1.0
 40
1.0
 40
1.0
 40
1.0
 10
-19.2042
 20
10.381
 30
0.0
 10
-19.2042
 20
10.381
 30
0.0
 10
-18.9563
 20
10.414
 30
0.0
 10
-18.9563
 20
10.414
 30
0.0
 10
-18.9563
 20
10.414
 30
0.0
 10
-18.9276
 20
10.2733
 30
0.0
 10
-18.8791
 20
10.1721
 30
0.0
 10
-18.8109
 20
10.1101
 30
0.0
 10
-18.8109
 20
10.1101
 30
0.0
 10
-18.7422
 20
10.0479
 30
0.0
 10
-18.659
 20
10.017
 30
0.0
 10
-18.5607
 20
10.017
 30
0.0
 10
-18.5607
 20
10.017
 30
0.0
 10
-18.4441
 20
10.017
 30
0.0
 10
-18.3452
 20
10.0573
 30
0.0
 10
-18.2648
 20
10.1383
 30
0.0
 10
-18.2648
 20
10.1383
 30
0.0
 10
-18.1848
 20
10.2192
 30
0.0
 10
-18.1444
 20
10.3195
 30
0.0
 10
-18.1444
 20
10.4389
 30
0.0
 10
-18.1444
 20
10.4389
 30
0.0
 10
-18.1444
 20
10.5527
 30
0.0
 10
-18.1816
 20
10.6469
 30
0.0
 10
-18.2559
 20
10.7206
 30
0.0
 10
-18.2559
 20
10.7206
 30
0.0
 10
-18.3307
 20
10.7944
 30
0.0
 10
-18.4253
 20
10.8317
 30
0.0
 10
-18.5401
 20
10.8317
 30
0.0
 10
-18.5401
 20
10.8317
 30
0.0
 10
-18.5871
 20
10.8317
 30
0.0
 10
-18.6453
 20
10.8223
 30
0.0
 10
-18.7149
 20
10.804
 30
0.0
 10
-18.7149
 20
10.804
 30
0.0
 10
-18.7149
 20
10.804
 30
0.0
 10
-18.6873
 20
11.0217
 30
0.0
 10
-18.6873
 20
11.0217
 30
0.0
 10
-18.6873
 20
11.0217
 30
0.0
 10
-18.6708
 20
11.0198
 30
0.0
 10
-18.6576
 20
11.0189
 30
0.0
 10
-18.6473
 20
11.0189
 30
0.0
 10
-18.6473
 20
11.0189
 30
0.0
 10
-18.5419
 20
11.0189
 30
0.0
 10
-18.4468
 20
11.0466
 30
0.0
 10
-18.3622
 20
11.1016
 30
0.0
 10
-18.3622
 20
11.1016
 30
0.0
 10
-18.2776
 20
11.1567
 30
0.0
 10
-18.2352
 20
11.2419
 30
0.0
 10
-18.2352
 20
11.3567
 30
0.0
 10
-18.2352
 20
11.3567
 30
0.0
 10
-18.2352
 20
11.4474
 30
0.0
 10
-18.2662
 20
11.5232
 30
0.0
 10
-18.3278
 20
11.5825
 30
0.0
 10
-18.3278
 20
11.5825
 30
0.0
 10
-18.3895
 20
11.6421
 30
0.0
 10
-18.469
 20
11.6723
 30
0.0
 10
-18.5663
 20
11.6723
 30
0.0
 10
-18.5663
 20
11.6723
 30
0.0
 10
-18.6628
 20
11.6723
 30
0.0
 10
-18.7433
 20
11.6416
 30
0.0
 10
-18.8071
 20
11.5814
 30
0.0
 10
-18.8071
 20
11.5814
 30
0.0
 10
-18.8717
 20
11.5208
 30
0.0
 10
-18.9131
 20
11.4295
 30
0.0
 10
-18.9313
 20
11.3082
 30
0.0
 10
-18.9313
 20
11.3082
 30
0.0
 10
-18.9313
 20
11.3082
 30
0.0
 10
-19.1792
 20
11.3524
 30
0.0
 10
-19.1792
 20
11.3524
 30
0.0
 10
-19.1792
 20
11.3524
 30
0.0
 10
-19.1492
 20
11.5189
 30
0.0
 10
-19.08
 20
11.6478
 30
0.0
 10
-18.9727
 20
11.7391
 30
0.0
 10
-18.9727
 20
11.7391
 30
0.0
 10
-18.865
 20
11.8303
 30
0.0
 10
-18.7314
 20
11.8764
 30
0.0
 10
-18.5715
 20
11.8764
 30
0.0
 10
-18.5715
 20
11.8764
 30
0.0
 10
-18.4614
 20
11.8764
 30
0.0
 10
-18.3598
 20
11.8524
 30
0.0
 10
-18.2671
 20
11.8054
 30
0.0
 10
-18.2671
 20
11.8054
 30
0.0
 10
-18.1745
 20
11.7579
 30
0.0
 10
-18.1035
 20
11.6935
 30
0.0
 10
-18.0541
 20
11.6116
 30
0.0
 10
-18.0541
 20
11.6116
 30
0.0
 10
-18.0051
 20
11.5297
 30
0.0
 10
-17.9802
 20
11.4431
 30
0.0
 10
-17.9802
 20
11.3509
 30
0.0
 10
-17.9802
 20
11.3509
 30
0.0
 10
-17.9802
 20
11.2639
 30
0.0
 10
-18.0037
 20
11.1844
 30
0.0
 10
-18.0508
 20
11.1124
 30
0.0
 10
-18.0508
 20
11.1124
 30
0.0
 10
-18.0979
 20
11.041
 30
0.0
 10
-18.1669
 20
10.9841
 30
0.0
 10
-18.2588
 20
10.9418
 30
0.0
 10
-18.2588
 20
10.9418
 30
0.0
 10
-18.1393
 20
10.9145
 30
0.0
 10
-18.0465
 20
10.8571
 30
0.0
 10
-17.9802
 20
10.77
 30
0.0
 10
-17.9802
 20
10.77
 30
0.0
 10
-17.9144
 20
10.6834
 30
0.0
 10
-17.8815
 20
10.5748
 30
0.0
 10
-17.8815
 20
10.4446
 30
0.0
 10
-17.8815
 20
10.4446
 30
0.0
 10
-17.8815
 20
10.2681
 30
0.0
 10
-17.9455
 20
10.1186
 30
0.0
 10
-18.0744
 20
9.9958
 30
0.0
 10
-18.0744
 20
9.9958
 30
0.0
 10
-18.2027
 20
9.8729
 30
0.0
 10
-18.3655
 20
9.8118
 30
0.0
 10
-18.5621
 20
9.8118
 30
0.0
 10
-18.5621
 20
9.8118
 30
0.0
 10
-18.7395
 20
9.8118
 30
0.0
 10
-18.8867
 20
9.8646
 30
0.0
 10
-19.0038
 20
9.9704
 30
0.0
 10
-19.0038
 20
9.9704
 30
0.0
 10
-19.121
 20
10.0758
 30
0.0
 10
-19.1877
 20
10.2126
 30
0.0
 10
-19.2042
 20
10.381
 30
0.0
  0
SPLINE
  5
94
330
1F
100
AcDbEntity
  8
ROUND
 62
   250
100
AcDbSpline
210
0.0
220
0.0
230
1.0
 70
    11
 71
     3
 72
    92
 73
    88
 74
     0
 42
0.0000000001
 43
0.0000000001
 40
0.0
 40
0.0
 40
0.0
 40
0.0
 40
0.0434782608695652
 40
0.0434782608695652
 40
0.0434782608695652
 40
0.0434782608695652
 40
0.0869565217391304
 40
0.0869565217391304
 40
0.0869565217391304
 40
0.0869565217391304
 40
0.1304347826086956
 40
0.1304347826086956
 40
0.1304347826086956
 40
0.1304347826086956
 40
0.1739130434782609
 40
0.1739130434782609
 40
0.1739130434782609
 40
0.1739130434782609
 40
0.2173913043478261
 40
0.2173913043478261
 40
0.2173913043478261
 40
0.2173913043478261
 40
0.2608695652173913
 40
0.2608695652173913
 40
0.2608695652173913
 40
0.2608695652173913
 40
0.3043478260869565
 40
0.3043478260869565
 40
0.3043478260869565
 40
0.3043478260869565
 40
0.3478260869565217
 40
0.3478260869565217
 40
0.3478260869565217
 40
0.3478260869565217
 40
0.391304347826087
 40
0.391304347826087
 40
0.391304347826087
 40
0.391304347826087
 40
0.4347826086956522
 40
0.4347826086956522
 40
0.4347826086956522
 40
0.4347826086956522
 40
0.4782608695652174
 40
0.4782608695652174
 40
0.4782608695652174
 40
0.4782608695652174
 40
0.5217391304347826
 40
0.5217391304347826
 40
0.5217391304347826
 40
0.5217391304347826
 40
0.5652173913043478
 40
0.5652173913043478
 40
0.5652173913043478
 40
0.5652173913043478
 40
0.6086956521739131
 40
0.6086956521739131
 40
0.6086956521739131
 40
0.6086956521739131
 40
0.6521739130434783
 40
0.6521739130434783
 40
0.6521739130434783
 40
0.6521739130434783
 40
0.6956521739130435
 40
0.6956521739130435
 40
0.6956521739130435
 40
0.6956521739130435
 40
0.7391304347826086
 40
0.7391304347826086
 40
0.7391304347826086
 40
0.7391304347826086
 40
0.782608695652174
 40
0.782608695652174
 40
0.782608695652174
 40
0.782608695652174
 40
0.8260869565217391
 40
0.8260869565217391
 40
0.8260869565217391
 40
0.8260869565217391
 40
0.8695652173913043
 40
0.8695652173913043
 40
0.8695652173913043
 40
0.8695652173913043
 40
0.9130434782608695
 40
0.9130434782608695
 40
0.9130434782608695
 40
0.9130434782608695
 40
1.0
 40
1.0
 40
1.0
 40
1.0
 10
-17.6359
 20
10.3768
 30
0.0
 10
-17.6359
 20
10.3768
 30
0.0
 10
-17.3754
 20
10.3989
 30
0.0
 10
-17.3754
 20
10.3989
 30
0.0
 10
-17.3754
 20
10.3989
 30
0.0
 10
-17.3561
 20
10.2719
 30
0.0
 10
-17.3114
 20
10.1768
 30
0.0
 10
-17.2413
 20
10.1128
 30
0.0
 10
-17.2413
 20
10.1128
 30
0.0
 10
-17.1707
 20
10.049
 30
0.0
 10
-17.0861
 20
10.017
 30
0.0
 10
-16.9869
 20
10.017
 30
0.0
 10
-16.9869
 20
10.017
 30
0.0
 10
-16.8674
 20
10.017
 30
0.0
 10
-16.7661
 20
10.062
 30
0.0
 10
-16.6839
 20
10.1519
 30
0.0
 10
-16.6839
 20
10.1519
 30
0.0
 10
-16.6011
 20
10.2423
 30
0.0
 10
-16.5597
 20
10.3618
 30
0.0
 10
-16.5597
 20
10.5104
 30
0.0
 10
-16.5597
 20
10.5104
 30
0.0
 10
-16.5597
 20
10.652
 30
0.0
 10
-16.5992
 20
10.7635
 30
0.0
 10
-16.6786
 20
10.8452
 30
0.0
 10
-16.6786
 20
10.8452
 30
0.0
 10
-16.7582
 20
10.9271
 30
0.0
 10
-16.8621
 20
10.9681
 30
0.0
 10
-16.991
 20
10.9681
 30
0.0
 10
-16.991
 20
10.9681
 30
0.0
 10
-17.071
 20
10.9681
 30
0.0
 10
-17.1429
 20
10.9497
 30
0.0
 10
-17.2074
 20
10.9135
 30
0.0
 10
-17.2074
 20
10.9135
 30
0.0
 10
-17.2718
 20
10.8772
 30
0.0
 10
-17.3222
 20
10.8302
 30
0.0
 10
-17.3589
 20
10.7724
 30
0.0
 10
-17.3589
 20
10.7724
 30
0.0
 10
-17.3589
 20
10.7724
 30
0.0
 10
-17.5918
 20
10.8025
 30
0.0
 10
-17.5918
 20
10.8025
 30
0.0
 10
-17.5918
 20
10.8025
 30
0.0
 10
-17.5918
 20
10.8025
 30
0.0
 10
-17.396
 20
11.8401
 30
0.0
 10
-17.396
 20
11.8401
 30
0.0
 10
-17.396
 20
11.8401
 30
0.0
 10
-17.396
 20
11.8401
 30
0.0
 10
-16.3913
 20
11.8401
 30
0.0
 10
-16.3913
 20
11.8401
 30
0.0
 10
-16.3913
 20
11.8401
 30
0.0
 10
-16.3913
 20
11.8401
 30
0.0
 10
-16.3913
 20
11.6031
 30
0.0
 10
-16.3913
 20
11.6031
 30
0.0
 10
-16.3913
 20
11.6031
 30
0.0
 10
-16.3913
 20
11.6031
 30
0.0
 10
-17.1975
 20
11.6031
 30
0.0
 10
-17.1975
 20
11.6031
 30
0.0
 10
-17.1975
 20
11.6031
 30
0.0
 10
-17.1975
 20
11.6031
 30
0.0
 10
-17.3067
 20
11.0603
 30
0.0
 10
-17.3067
 20
11.0603
 30
0.0
 10
-17.3067
 20
11.0603
 30
0.0
 10
-17.1854
 20
11.145
 30
0.0
 10
-17.0578
 20
11.1873
 30
0.0
 10
-16.9247
 20
11.1873
 30
0.0
 10
-16.9247
 20
11.1873
 30
0.0
 10
-16.7483
 20
11.1873
 30
0.0
 10
-16.5996
 20
11.1262
 30
0.0
 10
-16.4783
 20
11.0038
 30
0.0
 10
-16.4783
 20
11.0038
 30
0.0
 10
-16.357
 20
10.8815
 30
0.0
 10
-16.2963
 20
10.7244
 30
0.0
 10
-16.2963
 20
10.5325
 30
0.0
 10
-16.2963
 20
10.5325
 30
0.0
 10
-16.2963
 20
10.3495
 30
0.0
 10
-16.3499
 20
10.1915
 30
0.0
 10
-16.4562
 20
10.0584
 30
0.0
 10
-16.4562
 20
10.0584
 30
0.0
 10
-16.5861
 20
9.8951
 30
0.0
 10
-16.7629
 20
9.8133
 30
0.0
 10
-16.9869
 20
9.8133
 30
0.0
 10
-16.9869
 20
9.8133
 30
0.0
 10
-17.1707
 20
9.8133
 30
0.0
 10
-17.3208
 20
9.8646
 30
0.0
 10
-17.437
 20
9.9675
 30
0.0
 10
-17.437
 20
9.9675
 30
0.0
 10
-17.5531
 20
10.0705
 30
0.0
 10
-17.6195
 20
10.207
 30
0.0
 10
-17.6359
 20
10.3768
 30
0.0
  0
SPLINE
  5
95
330
1F
100
AcDbEntity
  8
ROUND
 62
   250
100
AcDbSpline
210
0.0
220
0.0
230
1.0
 70
    11
 71
     3
 72
    84
 73
    80
 74
     0
 42
0.0000000001
 43
0.0000000001
 40
0.0
 40
0.0
 40
0.0
 40
0.0
 40
0.0476190476190476
 40
0.0476190476190476
 40
0.0476190476190476
 40
0.0476190476190476
 40
0.0952380952380952
 40
0.0952380952380952
 40
0.0952380952380952
 40
0.0952380952380952
 40
0.1428571428571428
 40
0.1428571428571428
 40
0.1428571428571428
 40
0.1428571428571428
 40
0.1904761904761905
 40
0.1904761904761905
 40
0.1904761904761905
 40
0.1904761904761905
 40
0.2380952380952381
 40
0.2380952380952381
 40
0.2380952380952381
 40
0.2380952380952381
 40
0.2857142857142857
 40
0.2857142857142857
 40
0.2857142857142857
 40
0.2857142857142857
 40
0.3333333333333333
 40
0.3333333333333333
 40
0.3333333333333333
 40
0.3333333333333333
 40
0.3809523809523809
 40
0.3809523809523809
 40
0.3809523809523809
 40
0.3809523809523809
 40
0.4285714285714285
 40
0.4285714285714285
 40
0.4285714285714285
 40
0.4285714285714285
 40
0.4761904761904762
 40
0.4761904761904762
 40
0.4761904761904762
 40
0.4761904761904762
 40
0.5238095238095238
 40
0.5238095238095238
 40
0.5238095238095238
 40
0.5238095238095238
 40
0.5714285714285714
 40
0.5714285714285714
 40
0.5714285714285714
 40
0.5714285714285714
 40
0.6190476190476191
 40
0.6190476190476191
 40
0.6190476190476191
 40
0.6190476190476191
 40
0.6666666666666666
 40
0.6666666666666666
 40
0.6666666666666666
 40
0.6666666666666666
 40
0.7142857142857143
 40
0.7142857142857143
 40
0.7142857142857143
 40
0.7142857142857143
 40
0.7619047619047619
 40
0.7619047619047619
 40
0.7619047619047619
 40
0.7619047619047619
 40
0.8095238095238095
 40
0.8095238095238095
 40
0.8095238095238095
 40
0.8095238095238095
 40
0.8571428571428571
 40
0.8571428571428571
 40
0.8571428571428571
 40
0.8571428571428571
 40
0.9047619047619048
 40
0.9047619047619048
 40
0.9047619047619048
 40
0.9047619047619048
 40
1.0
 40
1.0
 40
1.0
 40
1.0
 10
1.3639
 20
21.8491
 30
0.0
 10
1.3639
 20
21.8491
 30
0.0
 10
1.5953
 20
22.1084
 30
0.0
 10
1.5953
 20
22.1084
 30
0.0
 10
1.5953
 20
22.1084
 30
0.0
 10
1.5953
 20
22.1084
 30
0.0
 10
1.7318
 20
21.9927
 30
0.0
 10
1.7318
 20
21.9927
 30
0.0
 10
1.7318
 20
21.9927
 30
0.0
 10
1.7318
 20
21.9927
 30
0.0
 10
1.4895
 20
21.7198
 30
0.0
 10
1.4895
 20
21.7198
 30
0.0
 10
1.4895
 20
21.7198
 30
0.0
 10
1.5685
 20
21.6022
 30
0.0
 10
1.6217
 20
21.4993
 30
0.0
 10
1.6494
 20
21.4112
 30
0.0
 10
1.6494
 20
21.4112
 30
0.0
 10
1.6861
 20
21.2955
 30
0.0
 10
1.7045
 20
21.1657
 30
0.0
 10
1.7045
 20
21.0227
 30
0.0
 10
1.7045
 20
21.0227
 30
0.0
 10
1.7045
 20
20.8157
 30
0.0
 10
1.6626
 20
20.6313
 30
0.0
 10
1.5789
 20
20.47
 30
0.0
 10
1.5789
 20
20.47
 30
0.0
 10
1.4951
 20
20.3082
 30
0.0
 10
1.378
 20
20.1858
 30
0.0
 10
1.227
 20
20.103
 30
0.0
 10
1.227
 20
20.103
 30
0.0
 10
1.0755
 20
20.0208
 30
0.0
 10
0.9152
 20
19.9794
 30
0.0
 10
0.7454
 20
19.9794
 30
0.0
 10
0.7454
 20
19.9794
 30
0.0
 10
0.6183
 20
19.9794
 30
0.0
 10
0.5035
 20
19.9972
 30
0.0
 10
0.4005
 20
20.033
 30
0.0
 10
0.4005
 20
20.033
 30
0.0
 10
0.3215
 20
20.0607
 30
0.0
 10
0.2293
 20
20.1135
 30
0.0
 10
0.1235
 20
20.1914
 30
0.0
 10
0.1235
 20
20.1914
 30
0.0
 10
0.1235
 20
20.1914
 30
0.0
 10
-0.108
 20
19.9323
 30
0.0
 10
-0.108
 20
19.9323
 30
0.0
 10
-0.108
 20
19.9323
 30
0.0
 10
-0.108
 20
19.9323
 30
0.0
 10
-0.2444
 20
20.048
 30
0.0
 10
-0.2444
 20
20.048
 30
0.0
 10
-0.2444
 20
20.048
 30
0.0
 10
-0.2444
 20
20.048
 30
0.0
 10
-0.0016
 20
20.3194
 30
0.0
 10
-0.0016
 20
20.3194
 30
0.0
 10
-0.0016
 20
20.3194
 30
0.0
 10
-0.092
 20
20.4563
 30
0.0
 10
-0.1522
 20
20.5734
 30
0.0
 10
-0.1823
 20
20.6703
 30
0.0
 10
-0.1823
 20
20.6703
 30
0.0
 10
-0.2124
 20
20.7673
 30
0.0
 10
-0.228
 20
20.8839
 30
0.0
 10
-0.228
 20
21.0198
 30
0.0
 10
-0.228
 20
21.0198
 30
0.0
 10
-0.228
 20
21.2273
 30
0.0
 10
-0.1866
 20
21.4121
 30
0.0
 10
-0.1038
 20
21.5745
 30
0.0
 10
-0.1038
 20
21.5745
 30
0.0
 10
-0.021
 20
21.7368
 30
0.0
 10
0.0947
 20
21.8596
 30
0.0
 10
0.2444
 20
21.9433
 30
0.0
 10
0.2444
 20
21.9433
 30
0.0
 10
0.3934
 20
22.0265
 30
0.0
 10
0.5595
 20
22.0684
 30
0.0
 10
0.7425
 20
22.0684
 30
0.0
 10
0.7425
 20
22.0684
 30
0.0
 10
0.8658
 20
22.0684
 30
0.0
 10
0.9734
 20
22.0523
 30
0.0
 10
1.0656
 20
22.0194
 30
0.0
 10
1.0656
 20
22.0194
 30
0.0
 10
1.1578
 20
21.987
 30
0.0
 10
1.2576
 20
21.9301
 30
0.0
 10
1.3639
 20
21.8491
 30
0.0
  0
SPLINE
  5
96
330
1F
100
AcDbEntity
  8
ROUND
 62
   250
100
AcDbSpline
210
0.0
220
0.0
230
1.0
 70
    11
 71
     3
 72
    32
 73
    28
 74
     0
 42
0.0000000001
 43
0.0000000001
 40
0.0
 40
0.0
 40
0.0
 40
0.0
 40
0.125
 40
0.125
 40
0.125
 40
0.125
 40
0.25
 40
0.25
 40
0.25
 40
0.25
 40
0.375
 40
0.375
 40
0.375
 40
0.375
 40
0.5
 40
0.5
 40
0.5
 40
0.5
 40
0.625
 40
0.625
 40
0.625
 40
0.625
 40
0.75
 40
0.75
 40
0.75
 40
0.75
 40
1.0
 40
1.0
 40
1.0
 40
1.0
 10
1.1988
 20
21.6634
 30
0.0
 10
1.1122
 20
21.7311
 30
0.0
 10
1.0365
 20
21.7777
 30
0.0
 10
0.9721
 20
21.8026
 30
0.0
 10
0.9721
 20
21.8026
 30
0.0
 10
0.9072
 20
21.8271
 30
0.0
 10
0.8309
 20
21.8397
 30
0.0
 10
0.7439
 20
21.8397
 30
0.0
 10
0.7439
 20
21.8397
 30
0.0
 10
0.5426
 20
21.8397
 30
0.0
 10
0.3766
 20
21.7716
 30
0.0
 10
0.2448
 20
21.6352
 30
0.0
 10
0.2448
 20
21.6352
 30
0.0
 10
0.1135
 20
21.4987
 30
0.0
 10
0.0477
 20
21.295
 30
0.0
 10
0.0477
 20
21.0236
 30
0.0
 10
0.0477
 20
21.0236
 30
0.0
 10
0.0477
 20
20.9173
 30
0.0
 10
0.058
 20
20.8228
 30
0.0
 10
0.0783
 20
20.74
 30
0.0
 10
0.0783
 20
20.74
 30
0.0
 10
0.0929
 20
20.6783
 30
0.0
 10
0.1235
 20
20.6026
 30
0.0
 10
0.1705
 20
20.5128
 30
0.0
 10
0.1705
 20
20.5128
 30
0.0
 10
0.1705
 20
20.5128
 30
0.0
 10
1.1988
 20
21.6634
 30
0.0
 10
1.1988
 20
21.6634
 30
0.0
  0
SPLINE
  5
97
330
1F
100
AcDbEntity
  8
ROUND
 62
   250
100
AcDbSpline
210
0.0
220
0.0
230
1.0
 70
    11
 71
     3
 72
    28
 73
    24
 74
     0
 42
0.0000000001
 43
0.0000000001
 40
0.0
 40
0.0
 40
0.0
 40
0.0
 40
0.1428571428571428
 40
0.1428571428571428
 40
0.1428571428571428
 40
0.1428571428571428
 40
0.2857142857142857
 40
0.2857142857142857
 40
0.2857142857142857
 40
0.2857142857142857
 40
0.4285714285714285
 40
0.4285714285714285
 40
0.4285714285714285
 40
0.4285714285714285
 40
0.5714285714285714
 40
0.5714285714285714
 40
0.5714285714285714
 40
0.5714285714285714
 40
0.7142857142857143
 40
0.7142857142857143
 40
0.7142857142857143
 40
0.7142857142857143
 40
1.0
 40
1.0
 40
1.0
 40
1.0
 10
1.3117
 20
21.5213
 30
0.0
 10
1.3117
 20
21.5213
 30
0.0
 10
0.2876
 20
20.3749
 30
0.0
 10
0.2876
 20
20.3749
 30
0.0
 10
0.2876
 20
20.3749
 30
0.0
 10
0.3582
 20
20.3171
 30
0.0
 10
0.4236
 20
20.2766
 30
0.0
 10
0.4833
 20
20.2536
 30
0.0
 10
0.4833
 20
20.2536
 30
0.0
 10
0.5614
 20
20.223
 30
0.0
 10
0.6461
 20
20.208
 30
0.0
 10
0.7369
 20
20.208
 30
0.0
 10
0.7369
 20
20.208
 30
0.0
 10
0.9372
 20
20.208
 30
0.0
 10
1.1023
 20
20.2786
 30
0.0
 10
1.2332
 20
20.4201
 30
0.0
 10
1.2332
 20
20.4201
 30
0.0
 10
1.3634
 20
20.5617
 30
0.0
 10
1.4288
 20
20.7602
 30
0.0
 10
1.4288
 20
21.0156
 30
0.0
 10
1.4288
 20
21.0156
 30
0.0
 10
1.4288
 20
21.2066
 30
0.0
 10
1.3898
 20
21.3754
 30
0.0
 10
1.3117
 20
21.5213
 30
0.0
  0
SPLINE
  5
98
330
1F
100
AcDbEntity
  8
ROUND
 62
   250
100
AcDbSpline
210
0.0
220
0.0
230
1.0
 70
    11
 71
     3
 72
   124
 73
   120
 74
     0
 42
0.0000000001
 43
0.0000000001
 40
0.0
 40
0.0
 40
0.0
 40
0.0
 40
0.032258064516129
 40
0.032258064516129
 40
0.032258064516129
 40
0.032258064516129
 40
0.0645161290322581
 40
0.0645161290322581
 40
0.0645161290322581
 40
0.0645161290322581
 40
0.0967741935483871
 40
0.0967741935483871
 40
0.0967741935483871
 40
0.0967741935483871
 40
0.1290322580645161
 40
0.1290322580645161
 40
0.1290322580645161
 40
0.1290322580645161
 40
0.1612903225806452
 40
0.1612903225806452
 40
0.1612903225806452
 40
0.1612903225806452
 40
0.1935483870967742
 40
0.1935483870967742
 40
0.1935483870967742
 40
0.1935483870967742
 40
0.2258064516129032
 40
0.2258064516129032
 40
0.2258064516129032
 40
0.2258064516129032
 40
0.2580645161290323
 40
0.2580645161290323
 40
0.2580645161290323
 40
0.2580645161290323
 40
0.2903225806451613
 40
0.2903225806451613
 40
0.2903225806451613
 40
0.2903225806451613
 40
0.3225806451612903
 40
0.3225806451612903
 40
0.3225806451612903
 40
0.3225806451612903
 40
0.3548387096774194
 40
0.3548387096774194
 40
0.3548387096774194
 40
0.3548387096774194
 40
0.3870967741935484
 40
0.3870967741935484
 40
0.3870967741935484
 40
0.3870967741935484
 40
0.4193548387096774
 40
0.4193548387096774
 40
0.4193548387096774
 40
0.4193548387096774
 40
0.4516129032258064
 40
0.4516129032258064
 40
0.4516129032258064
 40
0.4516129032258064
 40
0.4838709677419355
 40
0.4838709677419355
 40
0.4838709677419355
 40
0.4838709677419355
 40
0.5161290322580645
 40
0.5161290322580645
 40
0.5161290322580645
 40
0.5161290322580645
 40
0.5483870967741935
 40
0.5483870967741935
 40
0.5483870967741935
 40
0.5483870967741935
 40
0.5806451612903226
 40
0.5806451612903226
 40
0.5806451612903226
 40
0.5806451612903226
 40
0.6129032258064516
 40
0.6129032258064516
 40
0.6129032258064516
 40
0.6129032258064516
 40
0.6451612903225806
 40
0.6451612903225806
 40
0.6451612903225806
 40
0.6451612903225806
 40
0.6774193548387096
 40
0.6774193548387096
 40
0.6774193548387096
 40
0.6774193548387096
 40
0.7096774193548387
 40
0.7096774193548387
 40
0.7096774193548387
 40
0.7096774193548387
 40
0.7419354838709677
 40
0.7419354838709677
 40
0.7419354838709677
 40
0.7419354838709677
 40
0.7741935483870968
 40
0.7741935483870968
 40
0.7741935483870968
 40
0.7741935483870968
 40
0.8064516129032258
 40
0.8064516129032258
 40
0.8064516129032258
 40
0.8064516129032258
 40
0.8387096774193549
 40
0.8387096774193549
 40
0.8387096774193549
 40
0.8387096774193549
 40
0.8709677419354839
 40
0.8709677419354839
 40
0.8709677419354839
 40
0.8709677419354839
 40
0.9032258064516129
 40
0.9032258064516129
 40
0.9032258064516129
 40
0.9032258064516129
 40
0.9354838709677419
 40
0.9354838709677419
 40
0.9354838709677419
 40
0.9354838709677419
 40
1.0
 40
1.0
 40
1.0
 40
1.0
 10
1.9552
 20
20.5471
 30
0.0
 10
1.9552
 20
20.5471
 30
0.0
 10
2.2031
 20
20.5801
 30
0.0
 10
2.2031
 20
20.5801
 30
0.0
 10
2.2031
 20
20.5801
 30
0.0
 10
2.2318
 20
20.4394
 30
0.0
 10
2.2803
 20
20.3382
 30
0.0
 10
2.3485
 20
20.2762
 30
0.0
 10
2.3485
 20
20.2762
 30
0.0
 10
2.4172
 20
20.214
 30
0.0
 10
2.5004
 20
20.1831
 30
0.0
 10
2.5987
 20
20.1831
 30
0.0
 10
2.5987
 20
20.1831
 30
0.0
 10
2.7153
 20
20.1831
 30
0.0
 10
2.8142
 20
20.2234
 30
0.0
 10
2.8946
 20
20.3044
 30
0.0
 10
2.8946
 20
20.3044
 30
0.0
 10
2.9746
 20
20.3853
 30
0.0
 10
3.015
 20
20.4856
 30
0.0
 10
3.015
 20
20.605
 30
0.0
 10
3.015
 20
20.605
 30
0.0
 10
3.015
 20
20.7188
 30
0.0
 10
2.9778
 20
20.813
 30
0.0
 10
2.9035
 20
20.8867
 30
0.0
 10
2.9035
 20
20.8867
 30
0.0
 10
2.8287
 20
20.9605
 30
0.0
 10
2.7341
 20
20.9978
 30
0.0
 10
2.6193
 20
20.9978
 30
0.0
 10
2.6193
 20
20.9978
 30
0.0
 10
2.5723
 20
20.9978
 30
0.0
 10
2.5141
 20
20.9884
 30
0.0
 10
2.4445
 20
20.9701
 30
0.0
 10
2.4445
 20
20.9701
 30
0.0
 10
2.4445
 20
20.9701
 30
0.0
 10
2.4721
 20
21.1878
 30
0.0
 10
2.4721
 20
21.1878
 30
0.0
 10
2.4721
 20
21.1878
 30
0.0
 10
2.4886
 20
21.1859
 30
0.0
 10
2.5018
 20
21.185
 30
0.0
 10
2.5121
 20
21.185
 30
0.0
 10
2.5121
 20
21.185
 30
0.0
 10
2.6175
 20
21.185
 30
0.0
 10
2.7126
 20
21.2127
 30
0.0
 10
2.7972
 20
21.2677
 30
0.0
 10
2.7972
 20
21.2677
 30
0.0
 10
2.8818
 20
21.3228
 30
0.0
 10
2.9242
 20
21.408
 30
0.0
 10
2.9242
 20
21.5228
 30
0.0
 10
2.9242
 20
21.5228
 30
0.0
 10
2.9242
 20
21.6135
 30
0.0
 10
2.8932
 20
21.6893
 30
0.0
 10
2.8316
 20
21.7486
 30
0.0
 10
2.8316
 20
21.7486
 30
0.0
 10
2.7699
 20
21.8082
 30
0.0
 10
2.6904
 20
21.8384
 30
0.0
 10
2.5931
 20
21.8384
 30
0.0
 10
2.5931
 20
21.8384
 30
0.0
 10
2.4966
 20
21.8384
 30
0.0
 10
2.4161
 20
21.8077
 30
0.0
 10
2.3523
 20
21.7475
 30
0.0
 10
2.3523
 20
21.7475
 30
0.0
 10
2.2877
 20
21.6869
 30
0.0
 10
2.2463
 20
21.5956
 30
0.0
 10
2.2281
 20
21.4743
 30
0.0
 10
2.2281
 20
21.4743
 30
0.0
 10
2.2281
 20
21.4743
 30
0.0
 10
1.9802
 20
21.5185
 30
0.0
 10
1.9802
 20
21.5185
 30
0.0
 10
1.9802
 20
21.5185
 30
0.0
 10
2.0102
 20
21.685
 30
0.0
 10
2.0794
 20
21.8139
 30
0.0
 10
2.1867
 20
21.9052
 30
0.0
 10
2.1867
 20
21.9052
 30
0.0
 10
2.2944
 20
21.9964
 30
0.0
 10
2.428
 20
22.0425
 30
0.0
 10
2.5879
 20
22.0425
 30
0.0
 10
2.5879
 20
22.0425
 30
0.0
 10
2.698
 20
22.0425
 30
0.0
 10
2.7996
 20
22.0185
 30
0.0
 10
2.8923
 20
21.9715
 30
0.0
 10
2.8923
 20
21.9715
 30
0.0
 10
2.9849
 20
21.924
 30
0.0
 10
3.0559
 20
21.8596
 30
0.0
 10
3.1053
 20
21.7777
 30
0.0
 10
3.1053
 20
21.7777
 30
0.0
 10
3.1543
 20
21.6958
 30
0.0
 10
3.1792
 20
21.6092
 30
0.0
 10
3.1792
 20
21.517
 30
0.0
 10
3.1792
 20
21.517
 30
0.0
 10
3.1792
 20
21.43
 30
0.0
 10
3.1557
 20
21.3505
 30
0.0
 10
3.1086
 20
21.2785
 30
0.0
 10
3.1086
 20
21.2785
 30
0.0
 10
3.0615
 20
21.2071
 30
0.0
 10
2.9925
 20
21.1502
 30
0.0
 10
2.9006
 20
21.1079
 30
0.0
 10
2.9006
 20
21.1079
 30
0.0
 10
3.0201
 20
21.0806
 30
0.0
 10
3.1129
 20
21.0232
 30
0.0
 10
3.1792
 20
20.9361
 30
0.0
 10
3.1792
 20
20.9361
 30
0.0
 10
3.245
 20
20.8495
 30
0.0
 10
3.2779
 20
20.7409
 30
0.0
 10
3.2779
 20
20.6107
 30
0.0
 10
3.2779
 20
20.6107
 30
0.0
 10
3.2779
 20
20.4342
 30
0.0
 10
3.2139
 20
20.2847
 30
0.0
 10
3.085
 20
20.1619
 30
0.0
 10
3.085
 20
20.1619
 30
0.0
 10
2.9567
 20
20.039
 30
0.0
 10
2.7939
 20
19.9779
 30
0.0
 10
2.5973
 20
19.9779
 30
0.0
 10
2.5973
 20
19.9779
 30
0.0
 10
2.4199
 20
19.9779
 30
0.0
 10
2.2727
 20
20.0307
 30
0.0
 10
2.1556
 20
20.1365
 30
0.0
 10
2.1556
 20
20.1365
 30
0.0
 10
2.0384
 20
20.2419
 30
0.0
 10
1.9717
 20
20.3787
 30
0.0
 10
1.9552
 20
20.5471
 30
0.0
  0
SPLINE
  5
99
330
1F
100
AcDbEntity
  8
ROUND
 62
   250
100
AcDbSpline
210
0.0
220
0.0
230
1.0
 70
    11
 71
     3
 72
    92
 73
    88
 74
     0
 42
0.0000000001
 43
0.0000000001
 40
0.0
 40
0.0
 40
0.0
 40
0.0
 40
0.0434782608695652
 40
0.0434782608695652
 40
0.0434782608695652
 40
0.0434782608695652
 40
0.0869565217391304
 40
0.0869565217391304
 40
0.0869565217391304
 40
0.0869565217391304
 40
0.1304347826086956
 40
0.1304347826086956
 40
0.1304347826086956
 40
0.1304347826086956
 40
0.1739130434782609
 40
0.1739130434782609
 40
0.1739130434782609
 40
0.1739130434782609
 40
0.2173913043478261
 40
0.2173913043478261
 40
0.2173913043478261
 40
0.2173913043478261
 40
0.2608695652173913
 40
0.2608695652173913
 40
0.2608695652173913
 40
0.2608695652173913
 40
0.3043478260869565
 40
0.3043478260869565
 40
0.3043478260869565
 40
0.3043478260869565
 40
0.3478260869565217
 40
0.3478260869565217
 40
0.3478260869565217
 40
0.3478260869565217
 40
0.391304347826087
 40
0.391304347826087
 40
0.391304347826087
 40
0.391304347826087
 40
0.4347826086956522
 40
0.4347826086956522
 40
0.4347826086956522
 40
0.4347826086956522
 40
0.4782608695652174
 40
0.4782608695652174
 40
0.4782608695652174
 40
0.4782608695652174
 40
0.5217391304347826
 40
0.5217391304347826
 40
0.5217391304347826
 40
0.5217391304347826
 40
0.5652173913043478
 40
0.5652173913043478
 40
0.5652173913043478
 40
0.5652173913043478
 40
0.6086956521739131
 40
0.6086956521739131
 40
0.6086956521739131
 40
0.6086956521739131
 40
0.6521739130434783
 40
0.6521739130434783
 40
0.6521739130434783
 40
0.6521739130434783
 40
0.6956521739130435
 40
0.6956521739130435
 40
0.6956521739130435
 40
0.6956521739130435
 40
0.7391304347826086
 40
0.7391304347826086
 40
0.7391304347826086
 40
0.7391304347826086
 40
0.782608695652174
 40
0.782608695652174
 40
0.782608695652174
 40
0.782608695652174
 40
0.8260869565217391
 40
0.8260869565217391
 40
0.8260869565217391
 40
0.8260869565217391
 40
0.8695652173913043
 40
0.8695652173913043
 40
0.8695652173913043
 40
0.8695652173913043
 40
0.9130434782608695
 40
0.9130434782608695
 40
0.9130434782608695
 40
0.9130434782608695
 40
1.0
 40
1.0
 40
1.0
 40
1.0
 10
3.5235
 20
20.5429
 30
0.0
 10
3.5235
 20
20.5429
 30
0.0
 10
3.784
 20
20.565
 30
0.0
 10
3.784
 20
20.565
 30
0.0
 10
3.784
 20
20.565
 30
0.0
 10
3.8033
 20
20.438
 30
0.0
 10
3.848
 20
20.3429
 30
0.0
 10
3.9181
 20
20.2789
 30
0.0
 10
3.9181
 20
20.2789
 30
0.0
 10
3.9887
 20
20.2151
 30
0.0
 10
4.0733
 20
20.1831
 30
0.0
 10
4.1725
 20
20.1831
 30
0.0
 10
4.1725
 20
20.1831
 30
0.0
 10
4.292
 20
20.1831
 30
0.0
 10
4.3933
 20
20.2281
 30
0.0
 10
4.4755
 20
20.318
 30
0.0
 10
4.4755
 20
20.318
 30
0.0
 10
4.5583
 20
20.4084
 30
0.0
 10
4.5997
 20
20.5279
 30
0.0
 10
4.5997
 20
20.6765
 30
0.0
 10
4.5997
 20
20.6765
 30
0.0
 10
4.5997
 20
20.8181
 30
0.0
 10
4.5602
 20
20.9296
 30
0.0
 10
4.4808
 20
21.0113
 30
0.0
 10
4.4808
 20
21.0113
 30
0.0
 10
4.4012
 20
21.0932
 30
0.0
 10
4.2973
 20
21.1342
 30
0.0
 10
4.1684
 20
21.1342
 30
0.0
 10
4.1684
 20
21.1342
 30
0.0
 10
4.0884
 20
21.1342
 30
0.0
 10
4.0165
 20
21.1158
 30
0.0
 10
3.952
 20
21.0796
 30
0.0
 10
3.952
 20
21.0796
 30
0.0
 10
3.8876
 20
21.0433
 30
0.0
 10
3.8372
 20
20.9963
 30
0.0
 10
3.8005
 20
20.9385
 30
0.0
 10
3.8005
 20
20.9385
 30
0.0
 10
3.8005
 20
20.9385
 30
0.0
 10
3.5676
 20
20.9686
 30
0.0
 10
3.5676
 20
20.9686
 30
0.0
 10
3.5676
 20
20.9686
 30
0.0
 10
3.5676
 20
20.9686
 30
0.0
 10
3.7634
 20
22.0062
 30
0.0
 10
3.7634
 20
22.0062
 30
0.0
 10
3.7634
 20
22.0062
 30
0.0
 10
3.7634
 20
22.0062
 30
0.0
 10
4.7681
 20
22.0062
 30
0.0
 10
4.7681
 20
22.0062
 30
0.0
 10
4.7681
 20
22.0062
 30
0.0
 10
4.7681
 20
22.0062
 30
0.0
 10
4.7681
 20
21.7692
 30
0.0
 10
4.7681
 20
21.7692
 30
0.0
 10
4.7681
 20
21.7692
 30
0.0
 10
4.7681
 20
21.7692
 30
0.0
 10
3.9619
 20
21.7692
 30
0.0
 10
3.9619
 20
21.7692
 30
0.0
 10
3.9619
 20
21.7692
 30
0.0
 10
3.9619
 20
21.7692
 30
0.0
 10
3.8527
 20
21.2264
 30
0.0
 10
3.8527
 20
21.2264
 30
0.0
 10
3.8527
 20
21.2264
 30
0.0
 10
3.974
 20
21.3111
 30
0.0
 10
4.1016
 20
21.3534
 30
0.0
 10
4.2347
 20
21.3534
 30
0.0
 10
4.2347
 20
21.3534
 30
0.0
 10
4.4111
 20
21.3534
 30
0.0
 10
4.5598
 20
21.2923
 30
0.0
 10
4.6811
 20
21.1699
 30
0.0
 10
4.6811
 20
21.1699
 30
0.0
 10
4.8024
 20
21.0476
 30
0.0
 10
4.8631
 20
20.8905
 30
0.0
 10
4.8631
 20
20.6986
 30
0.0
 10
4.8631
 20
20.6986
 30
0.0
 10
4.8631
 20
20.5156
 30
0.0
 10
4.8095
 20
20.3576
 30
0.0
 10
4.7032
 20
20.2245
 30
0.0
 10
4.7032
 20
20.2245
 30
0.0
 10
4.5733
 20
20.0612
 30
0.0
 10
4.3965
 20
19.9794
 30
0.0
 10
4.1725
 20
19.9794
 30
0.0
 10
4.1725
 20
19.9794
 30
0.0
 10
3.9887
 20
19.9794
 30
0.0
 10
3.8386
 20
20.0307
 30
0.0
 10
3.7224
 20
20.1336
 30
0.0
 10
3.7224
 20
20.1336
 30
0.0
 10
3.6063
 20
20.2366
 30
0.0
 10
3.5399
 20
20.3731
 30
0.0
 10
3.5235
 20
20.5429
 30
0.0
  0
SPLINE
  5
9A
330
1F
100
AcDbEntity
  8
ROUND
 62
   250
100
AcDbSpline
210
0.0
220
0.0
230
1.0
 70
    11
 71
     3
 72
    68
 73
    64
 74
     0
 42
0.0000000001
 43
0.0000000001
 40
0.0
 40
0.0
 40
0.0
 40
0.0
 40
0.0588235294117647
 40
0.0588235294117647
 40
0.0588235294117647
 40
0.0588235294117647
 40
0.1176470588235294
 40
0.1176470588235294
 40
0.1176470588235294
 40
0.1176470588235294
 40
0.1764705882352941
 40
0.1764705882352941
 40
0.1764705882352941
 40
0.1764705882352941
 40
0.2352941176470588
 40
0.2352941176470588
 40
0.2352941176470588
 40
0.2352941176470588
 40
0.2941176470588235
 40
0.2941176470588235
 40
0.2941176470588235
 40
0.2941176470588235
 40
0.3529411764705883
 40
0.3529411764705883
 40
0.3529411764705883
 40
0.3529411764705883
 40
0.4117647058823529
 40
0.4117647058823529
 40
0.4117647058823529
 40
0.4117647058823529
 40
0.4705882352941176
 40
0.4705882352941176
 40
0.4705882352941176
 40
0.4705882352941176
 40
0.5294117647058824
 40
0.5294117647058824
 40
0.5294117647058824
 40
0.5294117647058824
 40
0.5882352941176471
 40
0.5882352941176471
 40
0.5882352941176471
 40
0.5882352941176471
 40
0.6470588235294118
 40
0.6470588235294118
 40
0.6470588235294118
 40
0.6470588235294118
 40
0.7058823529411765
 40
0.7058823529411765
 40
0.7058823529411765
 40
0.7058823529411765
 40
0.7647058823529411
 40
0.7647058823529411
 40
0.7647058823529411
 40
0.7647058823529411
 40
0.8235294117647058
 40
0.8235294117647058
 40
0.8235294117647058
 40
0.8235294117647058
 40
0.8823529411764706
 40
0.8823529411764706
 40
0.8823529411764706
 40
0.8823529411764706
 40
1.0
 40
1.0
 40
1.0
 40
1.0
 10
14.4663
 20
5.4695
 30
0.0
 10
14.3633
 20
5.5071
 30
0.0
 10
14.287
 20
5.5606
 30
0.0
 10
14.2371
 20
5.6308
 30
0.0
 10
14.2371
 20
5.6308
 30
0.0
 10
14.1878
 20
5.7004
 30
0.0
 10
14.1628
 20
5.7841
 30
0.0
 10
14.1628
 20
5.8815
 30
0.0
 10
14.1628
 20
5.8815
 30
0.0
 10
14.1628
 20
6.0287
 30
0.0
 10
14.2156
 20
6.152
 30
0.0
 10
14.3214
 20
6.2522
 30
0.0
 10
14.3214
 20
6.2522
 30
0.0
 10
14.4273
 20
6.3523
 30
0.0
 10
14.5674
 20
6.4027
 30
0.0
 10
14.7428
 20
6.4027
 30
0.0
 10
14.7428
 20
6.4027
 30
0.0
 10
14.9193
 20
6.4027
 30
0.0
 10
15.0614
 20
6.3514
 30
0.0
 10
15.1691
 20
6.2489
 30
0.0
 10
15.1691
 20
6.2489
 30
0.0
 10
15.2763
 20
6.1464
 30
0.0
 10
15.33
 20
6.0217
 30
0.0
 10
15.33
 20
5.8745
 30
0.0
 10
15.33
 20
5.8745
 30
0.0
 10
15.33
 20
5.7808
 30
0.0
 10
15.3054
 20
5.6995
 30
0.0
 10
15.2566
 20
5.6299
 30
0.0
 10
15.2566
 20
5.6299
 30
0.0
 10
15.2071
 20
5.5606
 30
0.0
 10
15.1328
 20
5.5071
 30
0.0
 10
15.0326
 20
5.4695
 30
0.0
 10
15.0326
 20
5.4695
 30
0.0
 10
15.1563
 20
5.429
 30
0.0
 10
15.2509
 20
5.3641
 30
0.0
 10
15.3158
 20
5.2737
 30
0.0
 10
15.3158
 20
5.2737
 30
0.0
 10
15.3803
 20
5.1839
 30
0.0
 10
15.4127
 20
5.0763
 30
0.0
 10
15.4127
 20
4.9515
 30
0.0
 10
15.4127
 20
4.9515
 30
0.0
 10
15.4127
 20
4.7785
 30
0.0
 10
15.3515
 20
4.6335
 30
0.0
 10
15.2297
 20
4.516
 30
0.0
 10
15.2297
 20
4.516
 30
0.0
 10
15.1075
 20
4.3983
 30
0.0
 10
14.9466
 20
4.3396
 30
0.0
 10
14.7471
 20
4.3396
 30
0.0
 10
14.7471
 20
4.3396
 30
0.0
 10
14.5477
 20
4.3396
 30
0.0
 10
14.3872
 20
4.3983
 30
0.0
 10
14.265
 20
4.5164
 30
0.0
 10
14.265
 20
4.5164
 30
0.0
 10
14.1426
 20
4.6344
 30
0.0
 10
14.0815
 20
4.7818
 30
0.0
 10
14.0815
 20
4.9581
 30
0.0
 10
14.0815
 20
4.9581
 30
0.0
 10
14.0815
 20
5.0893
 30
0.0
 10
14.1149
 20
5.1994
 30
0.0
 10
14.1816
 20
5.2883
 30
0.0
 10
14.1816
 20
5.2883
 30
0.0
 10
14.248
 20
5.3768
 30
0.0
 10
14.3431
 20
5.4375
 30
0.0
 10
14.4663
 20
5.4695
 30
0.0
  0
SPLINE
  5
9B
330
1F
100
AcDbEntity
  8
ROUND
 62
   250
100
AcDbSpline
210
0.0
220
0.0
230
1.0
 70
    11
 71
     3
 72
    36
 73
    32
 74
     0
 42
0.0000000001
 43
0.0000000001
 40
0.0
 40
0.0
 40
0.0
 40
0.0
 40
0.1111111111111111
 40
0.1111111111111111
 40
0.1111111111111111
 40
0.1111111111111111
 40
0.2222222222222222
 40
0.2222222222222222
 40
0.2222222222222222
 40
0.2222222222222222
 40
0.3333333333333333
 40
0.3333333333333333
 40
0.3333333333333333
 40
0.3333333333333333
 40
0.4444444444444444
 40
0.4444444444444444
 40
0.4444444444444444
 40
0.4444444444444444
 40
0.5555555555555556
 40
0.5555555555555556
 40
0.5555555555555556
 40
0.5555555555555556
 40
0.6666666666666666
 40
0.6666666666666666
 40
0.6666666666666666
 40
0.6666666666666666
 40
0.7777777777777778
 40
0.7777777777777778
 40
0.7777777777777778
 40
0.7777777777777778
 40
1.0
 40
1.0
 40
1.0
 40
1.0
 10
14.4165
 20
5.89
 30
0.0
 10
14.4165
 20
5.7945
 30
0.0
 10
14.4474
 20
5.7164
 30
0.0
 10
14.5087
 20
5.6557
 30
0.0
 10
14.5087
 20
5.6557
 30
0.0
 10
14.5703
 20
5.595
 30
0.0
 10
14.6502
 20
5.5644
 30
0.0
 10
14.7486
 20
5.5644
 30
0.0
 10
14.7486
 20
5.5644
 30
0.0
 10
14.844
 20
5.5644
 30
0.0
 10
14.9225
 20
5.5946
 30
0.0
 10
14.9838
 20
5.6548
 30
0.0
 10
14.9838
 20
5.6548
 30
0.0
 10
15.0449
 20
5.715
 30
0.0
 10
15.0749
 20
5.7888
 30
0.0
 10
15.0749
 20
5.8759
 30
0.0
 10
15.0749
 20
5.8759
 30
0.0
 10
15.0749
 20
5.9671
 30
0.0
 10
15.044
 20
6.0433
 30
0.0
 10
14.9809
 20
6.1054
 30
0.0
 10
14.9809
 20
6.1054
 30
0.0
 10
14.9178
 20
6.1675
 30
0.0
 10
14.8397
 20
6.1986
 30
0.0
 10
14.7457
 20
6.1986
 30
0.0
 10
14.7457
 20
6.1986
 30
0.0
 10
14.6511
 20
6.1986
 30
0.0
 10
14.5727
 20
6.1679
 30
0.0
 10
14.5101
 20
6.1077
 30
0.0
 10
14.5101
 20
6.1077
 30
0.0
 10
14.4474
 20
6.0471
 30
0.0
 10
14.4165
 20
5.9741
 30
0.0
 10
14.4165
 20
5.89
 30
0.0
  0
SPLINE
  5
9C
330
1F
100
AcDbEntity
  8
ROUND
 62
   250
100
AcDbSpline
210
0.0
220
0.0
230
1.0
 70
    11
 71
     3
 72
    40
 73
    36
 74
     0
 42
0.0000000001
 43
0.0000000001
 40
0.0
 40
0.0
 40
0.0
 40
0.0
 40
0.1
 40
0.1
 40
0.1
 40
0.1
 40
0.2
 40
0.2
 40
0.2
 40
0.2
 40
0.3
 40
0.3
 40
0.3
 40
0.3
 40
0.4
 40
0.4
 40
0.4
 40
0.4
 40
0.5
 40
0.5
 40
0.5
 40
0.5
 40
0.6
 40
0.6
 40
0.6
 40
0.6
 40
0.7
 40
0.7
 40
0.7
 40
0.7
 40
0.8
 40
0.8
 40
0.8
 40
0.8
 40
1.0
 40
1.0
 40
1.0
 40
1.0
 10
14.3364
 20
4.9568
 30
0.0
 10
14.3364
 20
4.8861
 30
0.0
 10
14.3534
 20
4.8175
 30
0.0
 10
14.3868
 20
4.7516
 30
0.0
 10
14.3868
 20
4.7516
 30
0.0
 10
14.4202
 20
4.6852
 30
0.0
 10
14.47
 20
4.6341
 30
0.0
 10
14.5363
 20
4.5977
 30
0.0
 10
14.5363
 20
4.5977
 30
0.0
 10
14.6027
 20
4.5616
 30
0.0
 10
14.6737
 20
4.5433
 30
0.0
 10
14.7499
 20
4.5433
 30
0.0
 10
14.7499
 20
4.5433
 30
0.0
 10
14.8685
 20
4.5433
 30
0.0
 10
14.9663
 20
4.5813
 30
0.0
 10
15.0435
 20
4.6581
 30
0.0
 10
15.0435
 20
4.6581
 30
0.0
 10
15.1206
 20
4.7342
 30
0.0
 10
15.1592
 20
4.8311
 30
0.0
 10
15.1592
 20
4.9487
 30
0.0
 10
15.1592
 20
4.9487
 30
0.0
 10
15.1592
 20
5.0682
 30
0.0
 10
15.1196
 20
5.167
 30
0.0
 10
15.0402
 20
5.2451
 30
0.0
 10
15.0402
 20
5.2451
 30
0.0
 10
14.9607
 20
5.3231
 30
0.0
 10
14.8609
 20
5.3621
 30
0.0
 10
14.7415
 20
5.3621
 30
0.0
 10
14.7415
 20
5.3621
 30
0.0
 10
14.6248
 20
5.3621
 30
0.0
 10
14.5284
 20
5.3236
 30
0.0
 10
14.4517
 20
5.2464
 30
0.0
 10
14.4517
 20
5.2464
 30
0.0
 10
14.3751
 20
5.1689
 30
0.0
 10
14.3364
 20
5.0725
 30
0.0
 10
14.3364
 20
4.9568
 30
0.0
  0
SPLINE
  5
9D
330
1F
100
AcDbEntity
  8
ROUND
 62
   250
100
AcDbSpline
210
0.0
220
0.0
230
1.0
 70
    11
 71
     3
 72
    92
 73
    88
 74
     0
 42
0.0000000001
 43
0.0000000001
 40
0.0
 40
0.0
 40
0.0
 40
0.0
 40
0.0434782608695652
 40
0.0434782608695652
 40
0.0434782608695652
 40
0.0434782608695652
 40
0.0869565217391304
 40
0.0869565217391304
 40
0.0869565217391304
 40
0.0869565217391304
 40
0.1304347826086956
 40
0.1304347826086956
 40
0.1304347826086956
 40
0.1304347826086956
 40
0.1739130434782609
 40
0.1739130434782609
 40
0.1739130434782609
 40
0.1739130434782609
 40
0.2173913043478261
 40
0.2173913043478261
 40
0.2173913043478261
 40
0.2173913043478261
 40
0.2608695652173913
 40
0.2608695652173913
 40
0.2608695652173913
 40
0.2608695652173913
 40
0.3043478260869565
 40
0.3043478260869565
 40
0.3043478260869565
 40
0.3043478260869565
 40
0.3478260869565217
 40
0.3478260869565217
 40
0.3478260869565217
 40
0.3478260869565217
 40
0.391304347826087
 40
0.391304347826087
 40
0.391304347826087
 40
0.391304347826087
 40
0.4347826086956522
 40
0.4347826086956522
 40
0.4347826086956522
 40
0.4347826086956522
 40
0.4782608695652174
 40
0.4782608695652174
 40
0.4782608695652174
 40
0.4782608695652174
 40
0.5217391304347826
 40
0.5217391304347826
 40
0.5217391304347826
 40
0.5217391304347826
 40
0.5652173913043478
 40
0.5652173913043478
 40
0.5652173913043478
 40
0.5652173913043478
 40
0.6086956521739131
 40
0.6086956521739131
 40
0.6086956521739131
 40
0.6086956521739131
 40
0.6521739130434783
 40
0.6521739130434783
 40
0.6521739130434783
 40
0.6521739130434783
 40
0.6956521739130435
 40
0.6956521739130435
 40
0.6956521739130435
 40
0.6956521739130435
 40
0.7391304347826086
 40
0.7391304347826086
 40
0.7391304347826086
 40
0.7391304347826086
 40
0.782608695652174
 40
0.782608695652174
 40
0.782608695652174
 40
0.782608695652174
 40
0.8260869565217391
 40
0.8260869565217391
 40
0.8260869565217391
 40
0.8260869565217391
 40
0.8695652173913043
 40
0.8695652173913043
 40
0.8695652173913043
 40
0.8695652173913043
 40
0.9130434782608695
 40
0.9130434782608695
 40
0.9130434782608695
 40
0.9130434782608695
 40
1.0
 40
1.0
 40
1.0
 40
1.0
 10
15.654
 20
4.9031
 30
0.0
 10
15.654
 20
4.9031
 30
0.0
 10
15.9146
 20
4.9252
 30
0.0
 10
15.9146
 20
4.9252
 30
0.0
 10
15.9146
 20
4.9252
 30
0.0
 10
15.9339
 20
4.7982
 30
0.0
 10
15.9785
 20
4.7031
 30
0.0
 10
16.0487
 20
4.6391
 30
0.0
 10
16.0487
 20
4.6391
 30
0.0
 10
16.1192
 20
4.5753
 30
0.0
 10
16.2038
 20
4.5433
 30
0.0
 10
16.3031
 20
4.5433
 30
0.0
 10
16.3031
 20
4.5433
 30
0.0
 10
16.4226
 20
4.5433
 30
0.0
 10
16.5238
 20
4.5883
 30
0.0
 10
16.6061
 20
4.6782
 30
0.0
 10
16.6061
 20
4.6782
 30
0.0
 10
16.6889
 20
4.7686
 30
0.0
 10
16.7303
 20
4.8881
 30
0.0
 10
16.7303
 20
5.0367
 30
0.0
 10
16.7303
 20
5.0367
 30
0.0
 10
16.7303
 20
5.1783
 30
0.0
 10
16.6907
 20
5.2898
 30
0.0
 10
16.6113
 20
5.3715
 30
0.0
 10
16.6113
 20
5.3715
 30
0.0
 10
16.5318
 20
5.4534
 30
0.0
 10
16.4278
 20
5.4944
 30
0.0
 10
16.2989
 20
5.4944
 30
0.0
 10
16.2989
 20
5.4944
 30
0.0
 10
16.219
 20
5.4944
 30
0.0
 10
16.147
 20
5.476
 30
0.0
 10
16.0825
 20
5.4398
 30
0.0
 10
16.0825
 20
5.4398
 30
0.0
 10
16.0181
 20
5.4035
 30
0.0
 10
15.9677
 20
5.3565
 30
0.0
 10
15.931
 20
5.2987
 30
0.0
 10
15.931
 20
5.2987
 30
0.0
 10
15.931
 20
5.2987
 30
0.0
 10
15.6982
 20
5.3288
 30
0.0
 10
15.6982
 20
5.3288
 30
0.0
 10
15.6982
 20
5.3288
 30
0.0
 10
15.6982
 20
5.3288
 30
0.0
 10
15.8939
 20
6.3664
 30
0.0
 10
15.8939
 20
6.3664
 30
0.0
 10
15.8939
 20
6.3664
 30
0.0
 10
15.8939
 20
6.3664
 30
0.0
 10
16.8986
 20
6.3664
 30
0.0
 10
16.8986
 20
6.3664
 30
0.0
 10
16.8986
 20
6.3664
 30
0.0
 10
16.8986
 20
6.3664
 30
0.0
 10
16.8986
 20
6.1294
 30
0.0
 10
16.8986
 20
6.1294
 30
0.0
 10
16.8986
 20
6.1294
 30
0.0
 10
16.8986
 20
6.1294
 30
0.0
 10
16.0924
 20
6.1294
 30
0.0
 10
16.0924
 20
6.1294
 30
0.0
 10
16.0924
 20
6.1294
 30
0.0
 10
16.0924
 20
6.1294
 30
0.0
 10
15.9832
 20
5.5866
 30
0.0
 10
15.9832
 20
5.5866
 30
0.0
 10
15.9832
 20
5.5866
 30
0.0
 10
16.1046
 20
5.6713
 30
0.0
 10
16.2322
 20
5.7136
 30
0.0
 10
16.3652
 20
5.7136
 30
0.0
 10
16.3652
 20
5.7136
 30
0.0
 10
16.5417
 20
5.7136
 30
0.0
 10
16.6903
 20
5.6525
 30
0.0
 10
16.8116
 20
5.5301
 30
0.0
 10
16.8116
 20
5.5301
 30
0.0
 10
16.933
 20
5.4078
 30
0.0
 10
16.9937
 20
5.2507
 30
0.0
 10
16.9937
 20
5.0588
 30
0.0
 10
16.9937
 20
5.0588
 30
0.0
 10
16.9937
 20
4.8758
 30
0.0
 10
16.94
 20
4.7178
 30
0.0
 10
16.8337
 20
4.5847
 30
0.0
 10
16.8337
 20
4.5847
 30
0.0
 10
16.7039
 20
4.4214
 30
0.0
 10
16.5271
 20
4.3396
 30
0.0
 10
16.3031
 20
4.3396
 30
0.0
 10
16.3031
 20
4.3396
 30
0.0
 10
16.1192
 20
4.3396
 30
0.0
 10
15.9691
 20
4.3909
 30
0.0
 10
15.8529
 20
4.4938
 30
0.0
 10
15.8529
 20
4.4938
 30
0.0
 10
15.7368
 20
4.5968
 30
0.0
 10
15.6705
 20
4.7333
 30
0.0
 10
15.654
 20
4.9031
 30
0.0
  0
SPLINE
  5
9E
330
1F
100
AcDbEntity
  8
ROUND
 62
   250
100
AcDbSpline
210
0.0
220
0.0
230
1.0
 70
    11
 71
     3
 72
    92
 73
    88
 74
     0
 42
0.0000000001
 43
0.0000000001
 40
0.0
 40
0.0
 40
0.0
 40
0.0
 40
0.0434782608695652
 40
0.0434782608695652
 40
0.0434782608695652
 40
0.0434782608695652
 40
0.0869565217391304
 40
0.0869565217391304
 40
0.0869565217391304
 40
0.0869565217391304
 40
0.1304347826086956
 40
0.1304347826086956
 40
0.1304347826086956
 40
0.1304347826086956
 40
0.1739130434782609
 40
0.1739130434782609
 40
0.1739130434782609
 40
0.1739130434782609
 40
0.2173913043478261
 40
0.2173913043478261
 40
0.2173913043478261
 40
0.2173913043478261
 40
0.2608695652173913
 40
0.2608695652173913
 40
0.2608695652173913
 40
0.2608695652173913
 40
0.3043478260869565
 40
0.3043478260869565
 40
0.3043478260869565
 40
0.3043478260869565
 40
0.3478260869565217
 40
0.3478260869565217
 40
0.3478260869565217
 40
0.3478260869565217
 40
0.391304347826087
 40
0.391304347826087
 40
0.391304347826087
 40
0.391304347826087
 40
0.4347826086956522
 40
0.4347826086956522
 40
0.4347826086956522
 40
0.4347826086956522
 40
0.4782608695652174
 40
0.4782608695652174
 40
0.4782608695652174
 40
0.4782608695652174
 40
0.5217391304347826
 40
0.5217391304347826
 40
0.5217391304347826
 40
0.5217391304347826
 40
0.5652173913043478
 40
0.5652173913043478
 40
0.5652173913043478
 40
0.5652173913043478
 40
0.6086956521739131
 40
0.6086956521739131
 40
0.6086956521739131
 40
0.6086956521739131
 40
0.6521739130434783
 40
0.6521739130434783
 40
0.6521739130434783
 40
0.6521739130434783
 40
0.6956521739130435
 40
0.6956521739130435
 40
0.6956521739130435
 40
0.6956521739130435
 40
0.7391304347826086
 40
0.7391304347826086
 40
0.7391304347826086
 40
0.7391304347826086
 40
0.782608695652174
 40
0.782608695652174
 40
0.782608695652174
 40
0.782608695652174
 40
0.8260869565217391
 40
0.8260869565217391
 40
0.8260869565217391
 40
0.8260869565217391
 40
0.8695652173913043
 40
0.8695652173913043
 40
0.8695652173913043
 40
0.8695652173913043
 40
0.9130434782608695
 40
0.9130434782608695
 40
0.9130434782608695
 40
0.9130434782608695
 40
1.0
 40
1.0
 40
1.0
 40
1.0
 10
11.3992
 20
-5.9386
 30
0.0
 10
11.3992
 20
-5.9386
 30
0.0
 10
11.3992
 20
-6.1771
 30
0.0
 10
11.3992
 20
-6.1771
 30
0.0
 10
11.3992
 20
-6.1771
 30
0.0
 10
11.3992
 20
-6.1771
 30
0.0
 10
10.0639
 20
-6.1771
 30
0.0
 10
10.0639
 20
-6.1771
 30
0.0
 10
10.0639
 20
-6.1771
 30
0.0
 10
10.0619
 20
-6.1174
 30
0.0
 10
10.0713
 20
-6.06
 30
0.0
 10
10.0925
 20
-6.005
 30
0.0
 10
10.0925
 20
-6.005
 30
0.0
 10
10.1264
 20
-5.9137
 30
0.0
 10
10.1809
 20
-5.8244
 30
0.0
 10
10.2557
 20
-5.7358
 30
0.0
 10
10.2557
 20
-5.7358
 30
0.0
 10
10.3309
 20
-5.6479
 30
0.0
 10
10.4392
 20
-5.5458
 30
0.0
 10
10.5803
 20
-5.4301
 30
0.0
 10
10.5803
 20
-5.4301
 30
0.0
 10
10.7999
 20
-5.25
 30
0.0
 10
10.9487
 20
-5.1074
 30
0.0
 10
11.0257
 20
-5.0021
 30
0.0
 10
11.0257
 20
-5.0021
 30
0.0
 10
11.1029
 20
-4.8971
 30
0.0
 10
11.1414
 20
-4.7975
 30
0.0
 10
11.1414
 20
-4.7038
 30
0.0
 10
11.1414
 20
-4.7038
 30
0.0
 10
11.1414
 20
-4.6055
 30
0.0
 10
11.1062
 20
-4.5227
 30
0.0
 10
11.0362
 20
-4.455
 30
0.0
 10
11.0362
 20
-4.455
 30
0.0
 10
10.9655
 20
-4.3878
 30
0.0
 10
10.8738
 20
-4.3538
 30
0.0
 10
10.7609
 20
-4.3538
 30
0.0
 10
10.7609
 20
-4.3538
 30
0.0
 10
10.6415
 20
-4.3538
 30
0.0
 10
10.5459
 20
-4.3896
 30
0.0
 10
10.4745
 20
-4.4616
 30
0.0
 10
10.4745
 20
-4.4616
 30
0.0
 10
10.4025
 20
-4.5331
 30
0.0
 10
10.3663
 20
-4.6324
 30
0.0
 10
10.3653
 20
-4.7588
 30
0.0
 10
10.3653
 20
-4.7588
 30
0.0
 10
10.3653
 20
-4.7588
 30
0.0
 10
10.1104
 20
-4.7329
 30
0.0
 10
10.1104
 20
-4.7329
 30
0.0
 10
10.1104
 20
-4.7329
 30
0.0
 10
10.1277
 20
-4.5425
 30
0.0
 10
10.1937
 20
-4.3976
 30
0.0
 10
10.3074
 20
-4.2979
 30
0.0
 10
10.3074
 20
-4.2979
 30
0.0
 10
10.4213
 20
-4.1981
 30
0.0
 10
10.5746
 20
-4.1483
 30
0.0
 10
10.7666
 20
-4.1483
 30
0.0
 10
10.7666
 20
-4.1483
 30
0.0
 10
10.9604
 20
-4.1483
 30
0.0
 10
11.1138
 20
-4.2025
 30
0.0
 10
11.2266
 20
-4.3097
 30
0.0
 10
11.2266
 20
-4.3097
 30
0.0
 10
11.3399
 20
-4.4174
 30
0.0
 10
11.3965
 20
-4.5505
 30
0.0
 10
11.3965
 20
-4.7094
 30
0.0
 10
11.3965
 20
-4.7094
 30
0.0
 10
11.3965
 20
-4.7904
 30
0.0
 10
11.3799
 20
-4.8699
 30
0.0
 10
11.3466
 20
-4.9479
 30
0.0
 10
11.3466
 20
-4.9479
 30
0.0
 10
11.3137
 20
-5.026
 30
0.0
 10
11.2586
 20
-5.1084
 30
0.0
 10
11.1819
 20
-5.1945
 30
0.0
 10
11.1819
 20
-5.1945
 30
0.0
 10
11.1053
 20
-5.2811
 30
0.0
 10
10.9778
 20
-5.3995
 30
0.0
 10
10.7995
 20
-5.5501
 30
0.0
 10
10.7995
 20
-5.5501
 30
0.0
 10
10.6509
 20
-5.6752
 30
0.0
 10
10.5553
 20
-5.7598
 30
0.0
 10
10.513
 20
-5.8045
 30
0.0
 10
10.513
 20
-5.8045
 30
0.0
 10
10.4707
 20
-5.8488
 30
0.0
 10
10.4359
 20
-5.8934
 30
0.0
 10
10.4081
 20
-5.9386
 30
0.0
 10
10.4081
 20
-5.9386
 30
0.0
 10
10.4081
 20
-5.9386
 30
0.0
 10
11.3992
 20
-5.9386
 30
0.0
 10
11.3992
 20
-5.9386
 30
0.0
  0
SPLINE
  5
9F
330
1F
100
AcDbEntity
  8
ROUND
 62
   250
100
AcDbSpline
210
0.0
220
0.0
230
1.0
 70
    11
 71
     3
 72
    40
 73
    36
 74
     0
 42
0.0000000001
 43
0.0000000001
 40
0.0
 40
0.0
 40
0.0
 40
0.0
 40
0.1
 40
0.1
 40
0.1
 40
0.1
 40
0.2
 40
0.2
 40
0.2
 40
0.2
 40
0.3
 40
0.3
 40
0.3
 40
0.3
 40
0.4
 40
0.4
 40
0.4
 40
0.4
 40
0.5
 40
0.5
 40
0.5
 40
0.5
 40
0.6
 40
0.6
 40
0.6
 40
0.6
 40
0.7
 40
0.7
 40
0.7
 40
0.7
 40
0.8
 40
0.8
 40
0.8
 40
0.8
 40
1.0
 40
1.0
 40
1.0
 40
1.0
 10
12.5992
 20
-6.1771
 30
0.0
 10
12.5992
 20
-6.1771
 30
0.0
 10
12.3513
 20
-6.1771
 30
0.0
 10
12.3513
 20
-6.1771
 30
0.0
 10
12.3513
 20
-6.1771
 30
0.0
 10
12.3513
 20
-6.1771
 30
0.0
 10
12.3513
 20
-4.5966
 30
0.0
 10
12.3513
 20
-4.5966
 30
0.0
 10
12.3513
 20
-4.5966
 30
0.0
 10
12.2915
 20
-4.6535
 30
0.0
 10
12.2135
 20
-4.7104
 30
0.0
 10
12.1166
 20
-4.7673
 30
0.0
 10
12.1166
 20
-4.7673
 30
0.0
 10
12.0192
 20
-4.8242
 30
0.0
 10
11.9322
 20
-4.8671
 30
0.0
 10
11.855
 20
-4.8953
 30
0.0
 10
11.855
 20
-4.8953
 30
0.0
 10
11.855
 20
-4.8953
 30
0.0
 10
11.855
 20
-4.6559
 30
0.0
 10
11.855
 20
-4.6559
 30
0.0
 10
11.855
 20
-4.6559
 30
0.0
 10
11.9939
 20
-4.5905
 30
0.0
 10
12.1152
 20
-4.5115
 30
0.0
 10
12.2191
 20
-4.4187
 30
0.0
 10
12.2191
 20
-4.4187
 30
0.0
 10
12.3226
 20
-4.3256
 30
0.0
 10
12.3965
 20
-4.2358
 30
0.0
 10
12.4397
 20
-4.1483
 30
0.0
 10
12.4397
 20
-4.1483
 30
0.0
 10
12.4397
 20
-4.1483
 30
0.0
 10
12.5992
 20
-4.1483
 30
0.0
 10
12.5992
 20
-4.1483
 30
0.0
 10
12.5992
 20
-4.1483
 30
0.0
 10
12.5992
 20
-4.1483
 30
0.0
 10
12.5992
 20
-6.1771
 30
0.0
 10
12.5992
 20
-6.1771
 30
0.0
  0
SPLINE
  5
A0
330
1F
100
AcDbEntity
  8
ROUND
 62
   250
100
AcDbSpline
210
0.0
220
0.0
230
1.0
 70
    11
 71
     3
 72
    52
 73
    48
 74
     0
 42
0.0000000001
 43
0.0000000001
 40
0.0
 40
0.0
 40
0.0
 40
0.0
 40
0.0769230769230769
 40
0.0769230769230769
 40
0.0769230769230769
 40
0.0769230769230769
 40
0.1538461538461539
 40
0.1538461538461539
 40
0.1538461538461539
 40
0.1538461538461539
 40
0.2307692307692308
 40
0.2307692307692308
 40
0.2307692307692308
 40
0.2307692307692308
 40
0.3076923076923077
 40
0.3076923076923077
 40
0.3076923076923077
 40
0.3076923076923077
 40
0.3846153846153846
 40
0.3846153846153846
 40
0.3846153846153846
 40
0.3846153846153846
 40
0.4615384615384616
 40
0.4615384615384616
 40
0.4615384615384616
 40
0.4615384615384616
 40
0.5384615384615384
 40
0.5384615384615384
 40
0.5384615384615384
 40
0.5384615384615384
 40
0.6153846153846154
 40
0.6153846153846154
 40
0.6153846153846154
 40
0.6153846153846154
 40
0.6923076923076923
 40
0.6923076923076923
 40
0.6923076923076923
 40
0.6923076923076923
 40
0.7692307692307693
 40
0.7692307692307693
 40
0.7692307692307693
 40
0.7692307692307693
 40
0.8461538461538461
 40
0.8461538461538461
 40
0.8461538461538461
 40
0.8461538461538461
 40
1.0
 40
1.0
 40
1.0
 40
1.0
 10
13.2347
 20
-5.1808
 30
0.0
 10
13.2347
 20
-4.9419
 30
0.0
 10
13.2591
 20
-4.7494
 30
0.0
 10
13.3085
 20
-4.604
 30
0.0
 10
13.3085
 20
-4.604
 30
0.0
 10
13.3574
 20
-4.4583
 30
0.0
 10
13.4308
 20
-4.3459
 30
0.0
 10
13.5277
 20
-4.2668
 30
0.0
 10
13.5277
 20
-4.2668
 30
0.0
 10
13.6246
 20
-4.1878
 30
0.0
 10
13.7465
 20
-4.1483
 30
0.0
 10
13.8931
 20
-4.1483
 30
0.0
 10
13.8931
 20
-4.1483
 30
0.0
 10
14.0018
 20
-4.1483
 30
0.0
 10
14.0969
 20
-4.1705
 30
0.0
 10
14.1788
 20
-4.2142
 30
0.0
 10
14.1788
 20
-4.2142
 30
0.0
 10
14.2605
 20
-4.2574
 30
0.0
 10
14.3279
 20
-4.3205
 30
0.0
 10
14.3815
 20
-4.4028
 30
0.0
 10
14.3815
 20
-4.4028
 30
0.0
 10
14.4346
 20
-4.4851
 30
0.0
 10
14.4765
 20
-4.5852
 30
0.0
 10
14.5066
 20
-4.7033
 30
0.0
 10
14.5066
 20
-4.7033
 30
0.0
 10
14.5371
 20
-4.8215
 30
0.0
 10
14.5523
 20
-4.9804
 30
0.0
 10
14.5523
 20
-5.1808
 30
0.0
 10
14.5523
 20
-5.1808
 30
0.0
 10
14.5523
 20
-5.4179
 30
0.0
 10
14.5277
 20
-5.6089
 30
0.0
 10
14.4793
 20
-5.7547
 30
0.0
 10
14.4793
 20
-5.7547
 30
0.0
 10
14.4304
 20
-5.9005
 30
0.0
 10
14.3574
 20
-6.0129
 30
0.0
 10
14.2605
 20
-6.0925
 30
0.0
 10
14.2605
 20
-6.0925
 30
0.0
 10
14.1636
 20
-6.1719
 30
0.0
 10
14.0414
 20
-6.2114
 30
0.0
 10
13.8931
 20
-6.2114
 30
0.0
 10
13.8931
 20
-6.2114
 30
0.0
 10
13.6984
 20
-6.2114
 30
0.0
 10
13.5456
 20
-6.1418
 30
0.0
 10
13.4346
 20
-6.0021
 30
0.0
 10
13.4346
 20
-6.0021
 30
0.0
 10
13.3014
 20
-5.8341
 30
0.0
 10
13.2347
 20
-5.5599
 30
0.0
 10
13.2347
 20
-5.1808
 30
0.0
  0
SPLINE
  5
A1
330
1F
100
AcDbEntity
  8
ROUND
 62
   250
100
AcDbSpline
210
0.0
220
0.0
230
1.0
 70
    11
 71
     3
 72
    36
 73
    32
 74
     0
 42
0.0000000001
 43
0.0000000001
 40
0.0
 40
0.0
 40
0.0
 40
0.0
 40
0.1111111111111111
 40
0.1111111111111111
 40
0.1111111111111111
 40
0.1111111111111111
 40
0.2222222222222222
 40
0.2222222222222222
 40
0.2222222222222222
 40
0.2222222222222222
 40
0.3333333333333333
 40
0.3333333333333333
 40
0.3333333333333333
 40
0.3333333333333333
 40
0.4444444444444444
 40
0.4444444444444444
 40
0.4444444444444444
 40
0.4444444444444444
 40
0.5555555555555556
 40
0.5555555555555556
 40
0.5555555555555556
 40
0.5555555555555556
 40
0.6666666666666666
 40
0.6666666666666666
 40
0.6666666666666666
 40
0.6666666666666666
 40
0.7777777777777778
 40
0.7777777777777778
 40
0.7777777777777778
 40
0.7777777777777778
 40
1.0
 40
1.0
 40
1.0
 40
1.0
 10
13.4896
 20
-5.1808
 30
0.0
 10
13.4896
 20
-5.5125
 30
0.0
 10
13.5286
 20
-5.7331
 30
0.0
 10
13.6062
 20
-5.8432
 30
0.0
 10
13.6062
 20
-5.8432
 30
0.0
 10
13.6839
 20
-5.9527
 30
0.0
 10
13.7794
 20
-6.0077
 30
0.0
 10
13.8931
 20
-6.0077
 30
0.0
 10
13.8931
 20
-6.0077
 30
0.0
 10
14.0076
 20
-6.0077
 30
0.0
 10
14.103
 20
-5.9522
 30
0.0
 10
14.1806
 20
-5.8421
 30
0.0
 10
14.1806
 20
-5.8421
 30
0.0
 10
14.2582
 20
-5.7322
 30
0.0
 10
14.2972
 20
-5.5114
 30
0.0
 10
14.2972
 20
-5.1808
 30
0.0
 10
14.2972
 20
-5.1808
 30
0.0
 10
14.2972
 20
-4.8483
 30
0.0
 10
14.2582
 20
-4.6272
 30
0.0
 10
14.1806
 20
-4.518
 30
0.0
 10
14.1806
 20
-4.518
 30
0.0
 10
14.103
 20
-4.4084
 30
0.0
 10
14.0065
 20
-4.3538
 30
0.0
 10
13.8908
 20
-4.3538
 30
0.0
 10
13.8908
 20
-4.3538
 30
0.0
 10
13.7765
 20
-4.3538
 30
0.0
 10
13.6858
 20
-4.4023
 30
0.0
 10
13.6176
 20
-4.4988
 30
0.0
 10
13.6176
 20
-4.4988
 30
0.0
 10
13.5324
 20
-4.6215
 30
0.0
 10
13.4896
 20
-4.8492
 30
0.0
 10
13.4896
 20
-5.1808
 30
0.0
  0
SPLINE
  5
A2
330
1F
100
AcDbEntity
  8
ROUND
 62
   250
100
AcDbSpline
210
0.0
220
0.0
230
1.0
 70
    11
 71
     3
 72
    40
 73
    36
 74
     0
 42
0.0000000001
 43
0.0000000001
 40
0.0
 40
0.0
 40
0.0
 40
0.0
 40
0.1
 40
0.1
 40
0.1
 40
0.1
 40
0.2
 40
0.2
 40
0.2
 40
0.2
 40
0.3
 40
0.3
 40
0.3
 40
0.3
 40
0.4
 40
0.4
 40
0.4
 40
0.4
 40
0.5
 40
0.5
 40
0.5
 40
0.5
 40
0.6
 40
0.6
 40
0.6
 40
0.6
 40
0.7
 40
0.7
 40
0.7
 40
0.7
 40
0.8
 40
0.8
 40
0.8
 40
0.8
 40
1.0
 40
1.0
 40
1.0
 40
1.0
 10
-24.2073
 20
-2.3304
 30
0.0
 10
-24.2073
 20
-2.3304
 30
0.0
 10
-24.2073
 20
-2.5783
 30
0.0
 10
-24.2073
 20
-2.5783
 30
0.0
 10
-24.2073
 20
-2.5783
 30
0.0
 10
-24.2073
 20
-2.5783
 30
0.0
 10
-25.7878
 20
-2.5783
 30
0.0
 10
-25.7878
 20
-2.5783
 30
0.0
 10
-25.7878
 20
-2.5783
 30
0.0
 10
-25.7309
 20
-2.6381
 30
0.0
 10
-25.674
 20
-2.716
 30
0.0
 10
-25.6171
 20
-2.8129
 30
0.0
 10
-25.6171
 20
-2.8129
 30
0.0
 10
-25.5602
 20
-2.9104
 30
0.0
 10
-25.5173
 20
-2.9973
 30
0.0
 10
-25.4891
 20
-3.0745
 30
0.0
 10
-25.4891
 20
-3.0745
 30
0.0
 10
-25.4891
 20
-3.0745
 30
0.0
 10
-25.7285
 20
-3.0745
 30
0.0
 10
-25.7285
 20
-3.0745
 30
0.0
 10
-25.7285
 20
-3.0745
 30
0.0
 10
-25.7939
 20
-2.9357
 30
0.0
 10
-25.8729
 20
-2.8144
 30
0.0
 10
-25.9657
 20
-2.7104
 30
0.0
 10
-25.9657
 20
-2.7104
 30
0.0
 10
-26.0588
 20
-2.607
 30
0.0
 10
-26.1486
 20
-2.5331
 30
0.0
 10
-26.2361
 20
-2.4898
 30
0.0
 10
-26.2361
 20
-2.4898
 30
0.0
 10
-26.2361
 20
-2.4898
 30
0.0
 10
-26.2361
 20
-2.3304
 30
0.0
 10
-26.2361
 20
-2.3304
 30
0.0
 10
-26.2361
 20
-2.3304
 30
0.0
 10
-26.2361
 20
-2.3304
 30
0.0
 10
-24.2073
 20
-2.3304
 30
0.0
 10
-24.2073
 20
-2.3304
 30
0.0
  0
SPLINE
  5
A3
330
1F
100
AcDbEntity
  8
ROUND
 62
   250
100
AcDbSpline
210
0.0
220
0.0
230
1.0
 70
    11
 71
     3
 72
    92
 73
    88
 74
     0
 42
0.0000000001
 43
0.0000000001
 40
0.0
 40
0.0
 40
0.0
 40
0.0
 40
0.0434782608695652
 40
0.0434782608695652
 40
0.0434782608695652
 40
0.0434782608695652
 40
0.0869565217391304
 40
0.0869565217391304
 40
0.0869565217391304
 40
0.0869565217391304
 40
0.1304347826086956
 40
0.1304347826086956
 40
0.1304347826086956
 40
0.1304347826086956
 40
0.1739130434782609
 40
0.1739130434782609
 40
0.1739130434782609
 40
0.1739130434782609
 40
0.2173913043478261
 40
0.2173913043478261
 40
0.2173913043478261
 40
0.2173913043478261
 40
0.2608695652173913
 40
0.2608695652173913
 40
0.2608695652173913
 40
0.2608695652173913
 40
0.3043478260869565
 40
0.3043478260869565
 40
0.3043478260869565
 40
0.3043478260869565
 40
0.3478260869565217
 40
0.3478260869565217
 40
0.3478260869565217
 40
0.3478260869565217
 40
0.391304347826087
 40
0.391304347826087
 40
0.391304347826087
 40
0.391304347826087
 40
0.4347826086956522
 40
0.4347826086956522
 40
0.4347826086956522
 40
0.4347826086956522
 40
0.4782608695652174
 40
0.4782608695652174
 40
0.4782608695652174
 40
0.4782608695652174
 40
0.5217391304347826
 40
0.5217391304347826
 40
0.5217391304347826
 40
0.5217391304347826
 40
0.5652173913043478
 40
0.5652173913043478
 40
0.5652173913043478
 40
0.5652173913043478
 40
0.6086956521739131
 40
0.6086956521739131
 40
0.6086956521739131
 40
0.6086956521739131
 40
0.6521739130434783
 40
0.6521739130434783
 40
0.6521739130434783
 40
0.6521739130434783
 40
0.6956521739130435
 40
0.6956521739130435
 40
0.6956521739130435
 40
0.6956521739130435
 40
0.7391304347826086
 40
0.7391304347826086
 40
0.7391304347826086
 40
0.7391304347826086
 40
0.782608695652174
 40
0.782608695652174
 40
0.782608695652174
 40
0.782608695652174
 40
0.8260869565217391
 40
0.8260869565217391
 40
0.8260869565217391
 40
0.8260869565217391
 40
0.8695652173913043
 40
0.8695652173913043
 40
0.8695652173913043
 40
0.8695652173913043
 40
0.9130434782608695
 40
0.9130434782608695
 40
0.9130434782608695
 40
0.9130434782608695
 40
1.0
 40
1.0
 40
1.0
 40
1.0
 10
-24.7365
 20
-0.9108
 30
0.0
 10
-24.7365
 20
-0.9108
 30
0.0
 10
-24.7586
 20
-0.6502
 30
0.0
 10
-24.7586
 20
-0.6502
 30
0.0
 10
-24.7586
 20
-0.6502
 30
0.0
 10
-24.6316
 20
-0.6309
 30
0.0
 10
-24.5365
 20
-0.5862
 30
0.0
 10
-24.4725
 20
-0.5161
 30
0.0
 10
-24.4725
 20
-0.5161
 30
0.0
 10
-24.4087
 20
-0.4456
 30
0.0
 10
-24.3767
 20
-0.361
 30
0.0
 10
-24.3767
 20
-0.2617
 30
0.0
 10
-24.3767
 20
-0.2617
 30
0.0
 10
-24.3767
 20
-0.1422
 30
0.0
 10
-24.4217
 20
-0.041
 30
0.0
 10
-24.5116
 20
0.0413
 30
0.0
 10
-24.5116
 20
0.0413
 30
0.0
 10
-24.602
 20
0.1241
 30
0.0
 10
-24.7215
 20
0.1655
 30
0.0
 10
-24.8701
 20
0.1655
 30
0.0
 10
-24.8701
 20
0.1655
 30
0.0
 10
-25.0117
 20
0.1655
 30
0.0
 10
-25.1232
 20
0.1259
 30
0.0
 10
-25.2049
 20
0.0465
 30
0.0
 10
-25.2049
 20
0.0465
 30
0.0
 10
-25.2868
 20
-0.033
 30
0.0
 10
-25.3278
 20
-0.137
 30
0.0
 10
-25.3278
 20
-0.2659
 30
0.0
 10
-25.3278
 20
-0.2659
 30
0.0
 10
-25.3278
 20
-0.3458
 30
0.0
 10
-25.3094
 20
-0.4178
 30
0.0
 10
-25.2732
 20
-0.4823
 30
0.0
 10
-25.2732
 20
-0.4823
 30
0.0
 10
-25.2369
 20
-0.5467
 30
0.0
 10
-25.1899
 20
-0.5971
 30
0.0
 10
-25.1321
 20
-0.6338
 30
0.0
 10
-25.1321
 20
-0.6338
 30
0.0
 10
-25.1321
 20
-0.6338
 30
0.0
 10
-25.1622
 20
-0.8666
 30
0.0
 10
-25.1622
 20
-0.8666
 30
0.0
 10
-25.1622
 20
-0.8666
 30
0.0
 10
-25.1622
 20
-0.8666
 30
0.0
 10
-26.1998
 20
-0.6709
 30
0.0
 10
-26.1998
 20
-0.6709
 30
0.0
 10
-26.1998
 20
-0.6709
 30
0.0
 10
-26.1998
 20
-0.6709
 30
0.0
 10
-26.1998
 20
0.3338
 30
0.0
 10
-26.1998
 20
0.3338
 30
0.0
 10
-26.1998
 20
0.3338
 30
0.0
 10
-26.1998
 20
0.3338
 30
0.0
 10
-25.9628
 20
0.3338
 30
0.0
 10
-25.9628
 20
0.3338
 30
0.0
 10
-25.9628
 20
0.3338
 30
0.0
 10
-25.9628
 20
0.3338
 30
0.0
 10
-25.9628
 20
-0.4724
 30
0.0
 10
-25.9628
 20
-0.4724
 30
0.0
 10
-25.9628
 20
-0.4724
 30
0.0
 10
-25.9628
 20
-0.4724
 30
0.0
 10
-25.42
 20
-0.5815
 30
0.0
 10
-25.42
 20
-0.5815
 30
0.0
 10
-25.42
 20
-0.5815
 30
0.0
 10
-25.5047
 20
-0.4602
 30
0.0
 10
-25.547
 20
-0.3326
 30
0.0
 10
-25.547
 20
-0.1995
 30
0.0
 10
-25.547
 20
-0.1995
 30
0.0
 10
-25.547
 20
-0.0231
 30
0.0
 10
-25.4859
 20
0.1255
 30
0.0
 10
-25.3635
 20
0.2468
 30
0.0
 10
-25.3635
 20
0.2468
 30
0.0
 10
-25.2412
 20
0.3682
 30
0.0
 10
-25.0841
 20
0.4289
 30
0.0
 10
-24.8922
 20
0.4289
 30
0.0
 10
-24.8922
 20
0.4289
 30
0.0
 10
-24.7092
 20
0.4289
 30
0.0
 10
-24.5512
 20
0.3752
 30
0.0
 10
-24.4181
 20
0.2689
 30
0.0
 10
-24.4181
 20
0.2689
 30
0.0
 10
-24.2548
 20
0.1391
 30
0.0
 10
-24.173
 20
-0.0377
 30
0.0
 10
-24.173
 20
-0.2617
 30
0.0
 10
-24.173
 20
-0.2617
 30
0.0
 10
-24.173
 20
-0.4456
 30
0.0
 10
-24.2243
 20
-0.5956
 30
0.0
 10
-24.3272
 20
-0.7119
 30
0.0
 10
-24.3272
 20
-0.7119
 30
0.0
 10
-24.4302
 20
-0.828
 30
0.0
 10
-24.5667
 20
-0.8943
 30
0.0
 10
-24.7365
 20
-0.9108
 30
0.0
  0
SPLINE
  5
A4
330
1F
100
AcDbEntity
  8
ROUND
 62
   250
100
AcDbSpline
210
0.0
220
0.0
230
1.0
 70
    11
 71
     3
 72
    52
 73
    48
 74
     0
 42
0.0000000001
 43
0.0000000001
 40
0.0
 40
0.0
 40
0.0
 40
0.0
 40
0.0769230769230769
 40
0.0769230769230769
 40
0.0769230769230769
 40
0.0769230769230769
 40
0.1538461538461539
 40
0.1538461538461539
 40
0.1538461538461539
 40
0.1538461538461539
 40
0.2307692307692308
 40
0.2307692307692308
 40
0.2307692307692308
 40
0.2307692307692308
 40
0.3076923076923077
 40
0.3076923076923077
 40
0.3076923076923077
 40
0.3076923076923077
 40
0.3846153846153846
 40
0.3846153846153846
 40
0.3846153846153846
 40
0.3846153846153846
 40
0.4615384615384616
 40
0.4615384615384616
 40
0.4615384615384616
 40
0.4615384615384616
 40
0.5384615384615384
 40
0.5384615384615384
 40
0.5384615384615384
 40
0.5384615384615384
 40
0.6153846153846154
 40
0.6153846153846154
 40
0.6153846153846154
 40
0.6153846153846154
 40
0.6923076923076923
 40
0.6923076923076923
 40
0.6923076923076923
 40
0.6923076923076923
 40
0.7692307692307693
 40
0.7692307692307693
 40
0.7692307692307693
 40
0.7692307692307693
 40
0.8461538461538461
 40
0.8461538461538461
 40
0.8461538461538461
 40
0.8461538461538461
 40
1.0
 40
1.0
 40
1.0
 40
1.0
 10
-25.2036
 20
0.6589
 30
0.0
 10
-25.4425
 20
0.6589
 30
0.0
 10
-25.635
 20
0.6833
 30
0.0
 10
-25.7804
 20
0.7327
 30
0.0
 10
-25.7804
 20
0.7327
 30
0.0
 10
-25.9261
 20
0.7816
 30
0.0
 10
-26.0385
 20
0.855
 30
0.0
 10
-26.1176
 20
0.9519
 30
0.0
 10
-26.1176
 20
0.9519
 30
0.0
 10
-26.1966
 20
1.0488
 30
0.0
 10
-26.2361
 20
1.1707
 30
0.0
 10
-26.2361
 20
1.3174
 30
0.0
 10
-26.2361
 20
1.3174
 30
0.0
 10
-26.2361
 20
1.426
 30
0.0
 10
-26.2139
 20
1.5211
 30
0.0
 10
-26.1702
 20
1.603
 30
0.0
 10
-26.1702
 20
1.603
 30
0.0
 10
-26.127
 20
1.6847
 30
0.0
 10
-26.0639
 20
1.7521
 30
0.0
 10
-25.9816
 20
1.8057
 30
0.0
 10
-25.9816
 20
1.8057
 30
0.0
 10
-25.8993
 20
1.8588
 30
0.0
 10
-25.7992
 20
1.9007
 30
0.0
 10
-25.6811
 20
1.9308
 30
0.0
 10
-25.6811
 20
1.9308
 30
0.0
 10
-25.5629
 20
1.9613
 30
0.0
 10
-25.404
 20
1.9765
 30
0.0
 10
-25.2036
 20
1.9765
 30
0.0
 10
-25.2036
 20
1.9765
 30
0.0
 10
-24.9665
 20
1.9765
 30
0.0
 10
-24.7755
 20
1.9519
 30
0.0
 10
-24.6297
 20
1.9035
 30
0.0
 10
-24.6297
 20
1.9035
 30
0.0
 10
-24.4839
 20
1.8546
 30
0.0
 10
-24.3715
 20
1.7816
 30
0.0
 10
-24.2919
 20
1.6847
 30
0.0
 10
-24.2919
 20
1.6847
 30
0.0
 10
-24.2125
 20
1.5878
 30
0.0
 10
-24.173
 20
1.4656
 30
0.0
 10
-24.173
 20
1.3174
 30
0.0
 10
-24.173
 20
1.3174
 30
0.0
 10
-24.173
 20
1.1226
 30
0.0
 10
-24.2426
 20
0.9698
 30
0.0
 10
-24.3823
 20
0.8588
 30
0.0
 10
-24.3823
 20
0.8588
 30
0.0
 10
-24.5503
 20
0.7256
 30
0.0
 10
-24.8245
 20
0.6589
 30
0.0
 10
-25.2036
 20
0.6589
 30
0.0
  0
SPLINE
  5
A5
330
1F
100
AcDbEntity
  8
ROUND
 62
   250
100
AcDbSpline
210
0.0
220
0.0
230
1.0
 70
    11
 71
     3
 72
    36
 73
    32
 74
     0
 42
0.0000000001
 43
0.0000000001
 40
0.0
 40
0.0
 40
0.0
 40
0.0
 40
0.1111111111111111
 40
0.1111111111111111
 40
0.1111111111111111
 40
0.1111111111111111
 40
0.2222222222222222
 40
0.2222222222222222
 40
0.2222222222222222
 40
0.2222222222222222
 40
0.3333333333333333
 40
0.3333333333333333
 40
0.3333333333333333
 40
0.3333333333333333
 40
0.4444444444444444
 40
0.4444444444444444
 40
0.4444444444444444
 40
0.4444444444444444
 40
0.5555555555555556
 40
0.5555555555555556
 40
0.5555555555555556
 40
0.5555555555555556
 40
0.6666666666666666
 40
0.6666666666666666
 40
0.6666666666666666
 40
0.6666666666666666
 40
0.7777777777777778
 40
0.7777777777777778
 40
0.7777777777777778
 40
0.7777777777777778
 40
1.0
 40
1.0
 40
1.0
 40
1.0
 10
-25.2036
 20
0.9138
 30
0.0
 10
-24.8719
 20
0.9138
 30
0.0
 10
-24.6513
 20
0.9529
 30
0.0
 10
-24.5412
 20
1.0304
 30
0.0
 10
-24.5412
 20
1.0304
 30
0.0
 10
-24.4317
 20
1.1081
 30
0.0
 10
-24.3767
 20
1.2036
 30
0.0
 10
-24.3767
 20
1.3174
 30
0.0
 10
-24.3767
 20
1.3174
 30
0.0
 10
-24.3767
 20
1.4318
 30
0.0
 10
-24.4322
 20
1.5272
 30
0.0
 10
-24.5423
 20
1.6048
 30
0.0
 10
-24.5423
 20
1.6048
 30
0.0
 10
-24.6522
 20
1.6824
 30
0.0
 10
-24.873
 20
1.7214
 30
0.0
 10
-25.2036
 20
1.7214
 30
0.0
 10
-25.2036
 20
1.7214
 30
0.0
 10
-25.5361
 20
1.7214
 30
0.0
 10
-25.7572
 20
1.6824
 30
0.0
 10
-25.8664
 20
1.6048
 30
0.0
 10
-25.8664
 20
1.6048
 30
0.0
 10
-25.976
 20
1.5272
 30
0.0
 10
-26.0306
 20
1.4307
 30
0.0
 10
-26.0306
 20
1.315
 30
0.0
 10
-26.0306
 20
1.315
 30
0.0
 10
-26.0306
 20
1.2007
 30
0.0
 10
-25.9821
 20
1.11
 30
0.0
 10
-25.8856
 20
1.0418
 30
0.0
 10
-25.8856
 20
1.0418
 30
0.0
 10
-25.7629
 20
0.9566
 30
0.0
 10
-25.5352
 20
0.9138
 30
0.0
 10
-25.2036
 20
0.9138
 30
0.0
  0
SPLINE
  5
A6
330
1F
100
AcDbEntity
  8
ROUND
 62
   250
100
AcDbSpline
210
0.0
220
0.0
230
1.0
 70
    11
 71
     3
 72
    52
 73
    48
 74
     0
 42
0.0000000001
 43
0.0000000001
 40
0.0
 40
0.0
 40
0.0
 40
0.0
 40
0.0769230769230769
 40
0.0769230769230769
 40
0.0769230769230769
 40
0.0769230769230769
 40
0.1538461538461539
 40
0.1538461538461539
 40
0.1538461538461539
 40
0.1538461538461539
 40
0.2307692307692308
 40
0.2307692307692308
 40
0.2307692307692308
 40
0.2307692307692308
 40
0.3076923076923077
 40
0.3076923076923077
 40
0.3076923076923077
 40
0.3076923076923077
 40
0.3846153846153846
 40
0.3846153846153846
 40
0.3846153846153846
 40
0.3846153846153846
 40
0.4615384615384616
 40
0.4615384615384616
 40
0.4615384615384616
 40
0.4615384615384616
 40
0.5384615384615384
 40
0.5384615384615384
 40
0.5384615384615384
 40
0.5384615384615384
 40
0.6153846153846154
 40
0.6153846153846154
 40
0.6153846153846154
 40
0.6153846153846154
 40
0.6923076923076923
 40
0.6923076923076923
 40
0.6923076923076923
 40
0.6923076923076923
 40
0.7692307692307693
 40
0.7692307692307693
 40
0.7692307692307693
 40
0.7692307692307693
 40
0.8461538461538461
 40
0.8461538461538461
 40
0.8461538461538461
 40
0.8461538461538461
 40
1.0
 40
1.0
 40
1.0
 40
1.0
 10
-25.2036
 20
2.2285
 30
0.0
 10
-25.4425
 20
2.2285
 30
0.0
 10
-25.635
 20
2.253
 30
0.0
 10
-25.7804
 20
2.3023
 30
0.0
 10
-25.7804
 20
2.3023
 30
0.0
 10
-25.9261
 20
2.3513
 30
0.0
 10
-26.0385
 20
2.4247
 30
0.0
 10
-26.1176
 20
2.5216
 30
0.0
 10
-26.1176
 20
2.5216
 30
0.0
 10
-26.1966
 20
2.6185
 30
0.0
 10
-26.2361
 20
2.7404
 30
0.0
 10
-26.2361
 20
2.887
 30
0.0
 10
-26.2361
 20
2.887
 30
0.0
 10
-26.2361
 20
2.9957
 30
0.0
 10
-26.2139
 20
3.0908
 30
0.0
 10
-26.1702
 20
3.1726
 30
0.0
 10
-26.1702
 20
3.1726
 30
0.0
 10
-26.127
 20
3.2544
 30
0.0
 10
-26.0639
 20
3.3218
 30
0.0
 10
-25.9816
 20
3.3753
 30
0.0
 10
-25.9816
 20
3.3753
 30
0.0
 10
-25.8993
 20
3.4285
 30
0.0
 10
-25.7992
 20
3.4704
 30
0.0
 10
-25.6811
 20
3.5004
 30
0.0
 10
-25.6811
 20
3.5004
 30
0.0
 10
-25.5629
 20
3.531
 30
0.0
 10
-25.404
 20
3.5461
 30
0.0
 10
-25.2036
 20
3.5461
 30
0.0
 10
-25.2036
 20
3.5461
 30
0.0
 10
-24.9665
 20
3.5461
 30
0.0
 10
-24.7755
 20
3.5216
 30
0.0
 10
-24.6297
 20
3.4731
 30
0.0
 10
-24.6297
 20
3.4731
 30
0.0
 10
-24.4839
 20
3.4243
 30
0.0
 10
-24.3715
 20
3.3513
 30
0.0
 10
-24.2919
 20
3.2544
 30
0.0
 10
-24.2919
 20
3.2544
 30
0.0
 10
-24.2125
 20
3.1575
 30
0.0
 10
-24.173
 20
3.0352
 30
0.0
 10
-24.173
 20
2.887
 30
0.0
 10
-24.173
 20
2.887
 30
0.0
 10
-24.173
 20
2.6923
 30
0.0
 10
-24.2426
 20
2.5395
 30
0.0
 10
-24.3823
 20
2.4285
 30
0.0
 10
-24.3823
 20
2.4285
 30
0.0
 10
-24.5503
 20
2.2953
 30
0.0
 10
-24.8245
 20
2.2285
 30
0.0
 10
-25.2036
 20
2.2285
 30
0.0
  0
SPLINE
  5
A7
330
1F
100
AcDbEntity
  8
ROUND
 62
   250
100
AcDbSpline
210
0.0
220
0.0
230
1.0
 70
    11
 71
     3
 72
    36
 73
    32
 74
     0
 42
0.0000000001
 43
0.0000000001
 40
0.0
 40
0.0
 40
0.0
 40
0.0
 40
0.1111111111111111
 40
0.1111111111111111
 40
0.1111111111111111
 40
0.1111111111111111
 40
0.2222222222222222
 40
0.2222222222222222
 40
0.2222222222222222
 40
0.2222222222222222
 40
0.3333333333333333
 40
0.3333333333333333
 40
0.3333333333333333
 40
0.3333333333333333
 40
0.4444444444444444
 40
0.4444444444444444
 40
0.4444444444444444
 40
0.4444444444444444
 40
0.5555555555555556
 40
0.5555555555555556
 40
0.5555555555555556
 40
0.5555555555555556
 40
0.6666666666666666
 40
0.6666666666666666
 40
0.6666666666666666
 40
0.6666666666666666
 40
0.7777777777777778
 40
0.7777777777777778
 40
0.7777777777777778
 40
0.7777777777777778
 40
1.0
 40
1.0
 40
1.0
 40
1.0
 10
-25.2036
 20
2.4835
 30
0.0
 10
-24.8719
 20
2.4835
 30
0.0
 10
-24.6513
 20
2.5225
 30
0.0
 10
-24.5412
 20
2.6001
 30
0.0
 10
-24.5412
 20
2.6001
 30
0.0
 10
-24.4317
 20
2.6778
 30
0.0
 10
-24.3767
 20
2.7733
 30
0.0
 10
-24.3767
 20
2.887
 30
0.0
 10
-24.3767
 20
2.887
 30
0.0
 10
-24.3767
 20
3.0014
 30
0.0
 10
-24.4322
 20
3.0969
 30
0.0
 10
-24.5423
 20
3.1745
 30
0.0
 10
-24.5423
 20
3.1745
 30
0.0
 10
-24.6522
 20
3.252
 30
0.0
 10
-24.873
 20
3.2911
 30
0.0
 10
-25.2036
 20
3.2911
 30
0.0
 10
-25.2036
 20
3.2911
 30
0.0
 10
-25.5361
 20
3.2911
 30
0.0
 10
-25.7572
 20
3.252
 30
0.0
 10
-25.8664
 20
3.1745
 30
0.0
 10
-25.8664
 20
3.1745
 30
0.0
 10
-25.976
 20
3.0969
 30
0.0
 10
-26.0306
 20
3.0004
 30
0.0
 10
-26.0306
 20
2.8847
 30
0.0
 10
-26.0306
 20
2.8847
 30
0.0
 10
-26.0306
 20
2.7704
 30
0.0
 10
-25.9821
 20
2.6796
 30
0.0
 10
-25.8856
 20
2.6115
 30
0.0
 10
-25.8856
 20
2.6115
 30
0.0
 10
-25.7629
 20
2.5263
 30
0.0
 10
-25.5352
 20
2.4835
 30
0.0
 10
-25.2036
 20
2.4835
 30
0.0
  0
SPLINE
  5
A8
330
1F
100
AcDbEntity
  8
ROUND
 62
   250
100
AcDbSpline
210
0.0
220
0.0
230
1.0
 70
    11
 71
     3
 72
    92
 73
    88
 74
     0
 42
0.0000000001
 43
0.0000000001
 40
0.0
 40
0.0
 40
0.0
 40
0.0
 40
0.0434782608695652
 40
0.0434782608695652
 40
0.0434782608695652
 40
0.0434782608695652
 40
0.0869565217391304
 40
0.0869565217391304
 40
0.0869565217391304
 40
0.0869565217391304
 40
0.1304347826086956
 40
0.1304347826086956
 40
0.1304347826086956
 40
0.1304347826086956
 40
0.1739130434782609
 40
0.1739130434782609
 40
0.1739130434782609
 40
0.1739130434782609
 40
0.2173913043478261
 40
0.2173913043478261
 40
0.2173913043478261
 40
0.2173913043478261
 40
0.2608695652173913
 40
0.2608695652173913
 40
0.2608695652173913
 40
0.2608695652173913
 40
0.3043478260869565
 40
0.3043478260869565
 40
0.3043478260869565
 40
0.3043478260869565
 40
0.3478260869565217
 40
0.3478260869565217
 40
0.3478260869565217
 40
0.3478260869565217
 40
0.391304347826087
 40
0.391304347826087
 40
0.391304347826087
 40
0.391304347826087
 40
0.4347826086956522
 40
0.4347826086956522
 40
0.4347826086956522
 40
0.4347826086956522
 40
0.4782608695652174
 40
0.4782608695652174
 40
0.4782608695652174
 40
0.4782608695652174
 40
0.5217391304347826
 40
0.5217391304347826
 40
0.5217391304347826
 40
0.5217391304347826
 40
0.5652173913043478
 40
0.5652173913043478
 40
0.5652173913043478
 40
0.5652173913043478
 40
0.6086956521739131
 40
0.6086956521739131
 40
0.6086956521739131
 40
0.6086956521739131
 40
0.6521739130434783
 40
0.6521739130434783
 40
0.6521739130434783
 40
0.6521739130434783
 40
0.6956521739130435
 40
0.6956521739130435
 40
0.6956521739130435
 40
0.6956521739130435
 40
0.7391304347826086
 40
0.7391304347826086
 40
0.7391304347826086
 40
0.7391304347826086
 40
0.782608695652174
 40
0.782608695652174
 40
0.782608695652174
 40
0.782608695652174
 40
0.8260869565217391
 40
0.8260869565217391
 40
0.8260869565217391
 40
0.8260869565217391
 40
0.8695652173913043
 40
0.8695652173913043
 40
0.8695652173913043
 40
0.8695652173913043
 40
0.9130434782608695
 40
0.9130434782608695
 40
0.9130434782608695
 40
0.9130434782608695
 40
1.0
 40
1.0
 40
1.0
 40
1.0
 10
24.9441
 20
8.0297
 30
0.0
 10
24.9441
 20
8.0297
 30
0.0
 10
25.1826
 20
8.0297
 30
0.0
 10
25.1826
 20
8.0297
 30
0.0
 10
25.1826
 20
8.0297
 30
0.0
 10
25.1826
 20
8.0297
 30
0.0
 10
25.1826
 20
6.6944
 30
0.0
 10
25.1826
 20
6.6944
 30
0.0
 10
25.1826
 20
6.6944
 30
0.0
 10
25.1229
 20
6.6924
 30
0.0
 10
25.0655
 20
6.7018
 30
0.0
 10
25.0105
 20
6.723
 30
0.0
 10
25.0105
 20
6.723
 30
0.0
 10
24.9192
 20
6.7569
 30
0.0
 10
24.8299
 20
6.8114
 30
0.0
 10
24.7413
 20
6.8862
 30
0.0
 10
24.7413
 20
6.8862
 30
0.0
 10
24.6534
 20
6.9614
 30
0.0
 10
24.5513
 20
7.0697
 30
0.0
 10
24.4356
 20
7.2108
 30
0.0
 10
24.4356
 20
7.2108
 30
0.0
 10
24.2555
 20
7.4304
 30
0.0
 10
24.1129
 20
7.5792
 30
0.0
 10
24.0076
 20
7.6562
 30
0.0
 10
24.0076
 20
7.6562
 30
0.0
 10
23.9026
 20
7.7334
 30
0.0
 10
23.803
 20
7.7719
 30
0.0
 10
23.7093
 20
7.7719
 30
0.0
 10
23.7093
 20
7.7719
 30
0.0
 10
23.611
 20
7.7719
 30
0.0
 10
23.5282
 20
7.7367
 30
0.0
 10
23.4605
 20
7.6667
 30
0.0
 10
23.4605
 20
7.6667
 30
0.0
 10
23.3933
 20
7.596
 30
0.0
 10
23.3593
 20
7.5043
 30
0.0
 10
23.3593
 20
7.3914
 30
0.0
 10
23.3593
 20
7.3914
 30
0.0
 10
23.3593
 20
7.272
 30
0.0
 10
23.3951
 20
7.1764
 30
0.0
 10
23.4671
 20
7.105
 30
0.0
 10
23.4671
 20
7.105
 30
0.0
 10
23.5386
 20
7.033
 30
0.0
 10
23.6379
 20
6.9968
 30
0.0
 10
23.7643
 20
6.9958
 30
0.0
 10
23.7643
 20
6.9958
 30
0.0
 10
23.7643
 20
6.9958
 30
0.0
 10
23.7384
 20
6.7409
 30
0.0
 10
23.7384
 20
6.7409
 30
0.0
 10
23.7384
 20
6.7409
 30
0.0
 10
23.548
 20
6.7582
 30
0.0
 10
23.4031
 20
6.8242
 30
0.0
 10
23.3034
 20
6.9379
 30
0.0
 10
23.3034
 20
6.9379
 30
0.0
 10
23.2036
 20
7.0518
 30
0.0
 10
23.1538
 20
7.2051
 30
0.0
 10
23.1538
 20
7.3971
 30
0.0
 10
23.1538
 20
7.3971
 30
0.0
 10
23.1538
 20
7.5909
 30
0.0
 10
23.208
 20
7.7443
 30
0.0
 10
23.3152
 20
7.8571
 30
0.0
 10
23.3152
 20
7.8571
 30
0.0
 10
23.4229
 20
7.9704
 30
0.0
 10
23.556
 20
8.027
 30
0.0
 10
23.7149
 20
8.027
 30
0.0
 10
23.7149
 20
8.027
 30
0.0
 10
23.7959
 20
8.027
 30
0.0
 10
23.8754
 20
8.0104
 30
0.0
 10
23.9534
 20
7.9771
 30
0.0
 10
23.9534
 20
7.9771
 30
0.0
 10
24.0315
 20
7.9442
 30
0.0
 10
24.1139
 20
7.8891
 30
0.0
 10
24.2
 20
7.8124
 30
0.0
 10
24.2
 20
7.8124
 30
0.0
 10
24.2866
 20
7.7358
 30
0.0
 10
24.405
 20
7.6083
 30
0.0
 10
24.5556
 20
7.43
 30
0.0
 10
24.5556
 20
7.43
 30
0.0
 10
24.6807
 20
7.2814
 30
0.0
 10
24.7653
 20
7.1858
 30
0.0
 10
24.81
 20
7.1435
 30
0.0
 10
24.81
 20
7.1435
 30
0.0
 10
24.8543
 20
7.1012
 30
0.0
 10
24.8989
 20
7.0664
 30
0.0
 10
24.9441
 20
7.0386
 30
0.0
 10
24.9441
 20
7.0386
 30
0.0
 10
24.9441
 20
7.0386
 30
0.0
 10
24.9441
 20
8.0297
 30
0.0
 10
24.9441
 20
8.0297
 30
0.0
  0
SPLINE
  5
A9
330
1F
100
AcDbEntity
  8
ROUND
 62
   250
100
AcDbSpline
210
0.0
220
0.0
230
1.0
 70
    11
 71
     3
 72
    92
 73
    88
 74
     0
 42
0.0000000001
 43
0.0000000001
 40
0.0
 40
0.0
 40
0.0
 40
0.0
 40
0.0434782608695652
 40
0.0434782608695652
 40
0.0434782608695652
 40
0.0434782608695652
 40
0.0869565217391304
 40
0.0869565217391304
 40
0.0869565217391304
 40
0.0869565217391304
 40
0.1304347826086956
 40
0.1304347826086956
 40
0.1304347826086956
 40
0.1304347826086956
 40
0.1739130434782609
 40
0.1739130434782609
 40
0.1739130434782609
 40
0.1739130434782609
 40
0.2173913043478261
 40
0.2173913043478261
 40
0.2173913043478261
 40
0.2173913043478261
 40
0.2608695652173913
 40
0.2608695652173913
 40
0.2608695652173913
 40
0.2608695652173913
 40
0.3043478260869565
 40
0.3043478260869565
 40
0.3043478260869565
 40
0.3043478260869565
 40
0.3478260869565217
 40
0.3478260869565217
 40
0.3478260869565217
 40
0.3478260869565217
 40
0.391304347826087
 40
0.391304347826087
 40
0.391304347826087
 40
0.391304347826087
 40
0.4347826086956522
 40
0.4347826086956522
 40
0.4347826086956522
 40
0.4347826086956522
 40
0.4782608695652174
 40
0.4782608695652174
 40
0.4782608695652174
 40
0.4782608695652174
 40
0.5217391304347826
 40
0.5217391304347826
 40
0.5217391304347826
 40
0.5217391304347826
 40
0.5652173913043478
 40
0.5652173913043478
 40
0.5652173913043478
 40
0.5652173913043478
 40
0.6086956521739131
 40
0.6086956521739131
 40
0.6086956521739131
 40
0.6086956521739131
 40
0.6521739130434783
 40
0.6521739130434783
 40
0.6521739130434783
 40
0.6521739130434783
 40
0.6956521739130435
 40
0.6956521739130435
 40
0.6956521739130435
 40
0.6956521739130435
 40
0.7391304347826086
 40
0.7391304347826086
 40
0.7391304347826086
 40
0.7391304347826086
 40
0.782608695652174
 40
0.782608695652174
 40
0.782608695652174
 40
0.782608695652174
 40
0.8260869565217391
 40
0.8260869565217391
 40
0.8260869565217391
 40
0.8260869565217391
 40
0.8695652173913043
 40
0.8695652173913043
 40
0.8695652173913043
 40
0.8695652173913043
 40
0.9130434782608695
 40
0.9130434782608695
 40
0.9130434782608695
 40
0.9130434782608695
 40
1.0
 40
1.0
 40
1.0
 40
1.0
 10
24.7155
 20
8.3326
 30
0.0
 10
24.7155
 20
8.3326
 30
0.0
 10
24.6934
 20
8.5712
 30
0.0
 10
24.6934
 20
8.5712
 30
0.0
 10
24.6934
 20
8.5712
 30
0.0
 10
24.8053
 20
8.5913
 30
0.0
 10
24.8867
 20
8.63
 30
0.0
 10
24.9375
 20
8.6869
 30
0.0
 10
24.9375
 20
8.6869
 30
0.0
 10
24.9879
 20
8.7437
 30
0.0
 10
25.0132
 20
8.8167
 30
0.0
 10
25.0132
 20
8.9061
 30
0.0
 10
25.0132
 20
8.9061
 30
0.0
 10
25.0132
 20
8.9823
 30
0.0
 10
24.9958
 20
9.0491
 30
0.0
 10
24.9606
 20
9.1064
 30
0.0
 10
24.9606
 20
9.1064
 30
0.0
 10
24.9257
 20
9.1639
 30
0.0
 10
24.8792
 20
9.2109
 30
0.0
 10
24.8208
 20
9.2476
 30
0.0
 10
24.8208
 20
9.2476
 30
0.0
 10
24.7626
 20
9.2848
 30
0.0
 10
24.6835
 20
9.3154
 30
0.0
 10
24.5847
 20
9.3403
 30
0.0
 10
24.5847
 20
9.3403
 30
0.0
 10
24.4855
 20
9.3647
 30
0.0
 10
24.3844
 20
9.3774
 30
0.0
 10
24.2813
 20
9.3774
 30
0.0
 10
24.2813
 20
9.3774
 30
0.0
 10
24.2705
 20
9.3774
 30
0.0
 10
24.2535
 20
9.3769
 30
0.0
 10
24.232
 20
9.3759
 30
0.0
 10
24.232
 20
9.3759
 30
0.0
 10
24.3105
 20
9.3261
 30
0.0
 10
24.375
 20
9.2584
 30
0.0
 10
24.4238
 20
9.1727
 30
0.0
 10
24.4238
 20
9.1727
 30
0.0
 10
24.4732
 20
9.0867
 30
0.0
 10
24.4977
 20
8.9936
 30
0.0
 10
24.4977
 20
8.8938
 30
0.0
 10
24.4977
 20
8.8938
 30
0.0
 10
24.4977
 20
8.7264
 30
0.0
 10
24.437
 20
8.5848
 30
0.0
 10
24.3157
 20
8.4691
 30
0.0
 10
24.3157
 20
8.4691
 30
0.0
 10
24.1944
 20
8.3534
 30
0.0
 10
24.0349
 20
8.2955
 30
0.0
 10
23.8364
 20
8.2955
 30
0.0
 10
23.8364
 20
8.2955
 30
0.0
 10
23.6312
 20
8.2955
 30
0.0
 10
23.4667
 20
8.3557
 30
0.0
 10
23.3414
 20
8.4766
 30
0.0
 10
23.3414
 20
8.4766
 30
0.0
 10
23.2163
 20
8.5975
 30
0.0
 10
23.1538
 20
8.7489
 30
0.0
 10
23.1538
 20
8.931
 30
0.0
 10
23.1538
 20
8.931
 30
0.0
 10
23.1538
 20
9.0623
 30
0.0
 10
23.1895
 20
9.1821
 30
0.0
 10
23.2601
 20
9.2913
 30
0.0
 10
23.2601
 20
9.2913
 30
0.0
 10
23.3307
 20
9.4
 30
0.0
 10
23.4318
 20
9.4828
 30
0.0
 10
23.5625
 20
9.5392
 30
0.0
 10
23.5625
 20
9.5392
 30
0.0
 10
23.6934
 20
9.5956
 30
0.0
 10
23.8829
 20
9.6238
 30
0.0
 10
24.1313
 20
9.6238
 30
0.0
 10
24.1313
 20
9.6238
 30
0.0
 10
24.3891
 20
9.6238
 30
0.0
 10
24.5946
 20
9.5961
 30
0.0
 10
24.748
 20
9.5401
 30
0.0
 10
24.748
 20
9.5401
 30
0.0
 10
24.9009
 20
9.4837
 30
0.0
 10
25.017
 20
9.4005
 30
0.0
 10
25.0969
 20
9.2899
 30
0.0
 10
25.0969
 20
9.2899
 30
0.0
 10
25.177
 20
9.1789
 30
0.0
 10
25.2169
 20
9.0496
 30
0.0
 10
25.2169
 20
8.9004
 30
0.0
 10
25.2169
 20
8.9004
 30
0.0
 10
25.2169
 20
8.7424
 30
0.0
 10
25.1732
 20
8.6135
 30
0.0
 10
25.0852
 20
8.5133
 30
0.0
 10
25.0852
 20
8.5133
 30
0.0
 10
24.9977
 20
8.413
 30
0.0
 10
24.8745
 20
8.3528
 30
0.0
 10
24.7155
 20
8.3326
 30
0.0
  0
SPLINE
  5
AA
330
1F
100
AcDbEntity
  8
ROUND
 62
   250
100
AcDbSpline
210
0.0
220
0.0
230
1.0
 70
    11
 71
     3
 72
    36
 73
    32
 74
     0
 42
0.0000000001
 43
0.0000000001
 40
0.0
 40
0.0
 40
0.0
 40
0.0
 40
0.1111111111111111
 40
0.1111111111111111
 40
0.1111111111111111
 40
0.1111111111111111
 40
0.2222222222222222
 40
0.2222222222222222
 40
0.2222222222222222
 40
0.2222222222222222
 40
0.3333333333333333
 40
0.3333333333333333
 40
0.3333333333333333
 40
0.3333333333333333
 40
0.4444444444444444
 40
0.4444444444444444
 40
0.4444444444444444
 40
0.4444444444444444
 40
0.5555555555555556
 40
0.5555555555555556
 40
0.5555555555555556
 40
0.5555555555555556
 40
0.6666666666666666
 40
0.6666666666666666
 40
0.6666666666666666
 40
0.6666666666666666
 40
0.7777777777777778
 40
0.7777777777777778
 40
0.7777777777777778
 40
0.7777777777777778
 40
1.0
 40
1.0
 40
1.0
 40
1.0
 10
23.8236
 20
9.3483
 30
0.0
 10
23.6816
 20
9.3483
 30
0.0
 10
23.5683
 20
9.3106
 30
0.0
 10
23.485
 20
9.2349
 30
0.0
 10
23.485
 20
9.2349
 30
0.0
 10
23.4012
 20
9.1586
 30
0.0
 10
23.3593
 20
9.0679
 30
0.0
 10
23.3593
 20
8.961
 30
0.0
 10
23.3593
 20
8.961
 30
0.0
 10
23.3593
 20
8.8511
 30
0.0
 10
23.4045
 20
8.7551
 30
0.0
 10
23.4944
 20
8.6732
 30
0.0
 10
23.4944
 20
8.6732
 30
0.0
 10
23.5847
 20
8.5913
 30
0.0
 10
23.7014
 20
8.5504
 30
0.0
 10
23.8444
 20
8.5504
 30
0.0
 10
23.8444
 20
8.5504
 30
0.0
 10
23.9733
 20
8.5504
 30
0.0
 10
24.0776
 20
8.5895
 30
0.0
 10
24.1581
 20
8.6671
 30
0.0
 10
24.1581
 20
8.6671
 30
0.0
 10
24.2385
 20
8.7448
 30
0.0
 10
24.2785
 20
8.8402
 30
0.0
 10
24.2785
 20
8.954
 30
0.0
 10
24.2785
 20
8.954
 30
0.0
 10
24.2785
 20
9.0693
 30
0.0
 10
24.2385
 20
9.1633
 30
0.0
 10
24.1581
 20
9.2373
 30
0.0
 10
24.1581
 20
9.2373
 30
0.0
 10
24.0776
 20
9.3116
 30
0.0
 10
23.9662
 20
9.3483
 30
0.0
 10
23.8236
 20
9.3483
 30
0.0
  0
SPLINE
  5
AB
330
1F
100
AcDbEntity
  8
ROUND
 62
   250
100
AcDbSpline
210
0.0
220
0.0
230
1.0
 70
    11
 71
     3
 72
    52
 73
    48
 74
     0
 42
0.0000000001
 43
0.0000000001
 40
0.0
 40
0.0
 40
0.0
 40
0.0
 40
0.0769230769230769
 40
0.0769230769230769
 40
0.0769230769230769
 40
0.0769230769230769
 40
0.1538461538461539
 40
0.1538461538461539
 40
0.1538461538461539
 40
0.1538461538461539
 40
0.2307692307692308
 40
0.2307692307692308
 40
0.2307692307692308
 40
0.2307692307692308
 40
0.3076923076923077
 40
0.3076923076923077
 40
0.3076923076923077
 40
0.3076923076923077
 40
0.3846153846153846
 40
0.3846153846153846
 40
0.3846153846153846
 40
0.3846153846153846
 40
0.4615384615384616
 40
0.4615384615384616
 40
0.4615384615384616
 40
0.4615384615384616
 40
0.5384615384615384
 40
0.5384615384615384
 40
0.5384615384615384
 40
0.5384615384615384
 40
0.6153846153846154
 40
0.6153846153846154
 40
0.6153846153846154
 40
0.6153846153846154
 40
0.6923076923076923
 40
0.6923076923076923
 40
0.6923076923076923
 40
0.6923076923076923
 40
0.7692307692307693
 40
0.7692307692307693
 40
0.7692307692307693
 40
0.7692307692307693
 40
0.8461538461538461
 40
0.8461538461538461
 40
0.8461538461538461
 40
0.8461538461538461
 40
1.0
 40
1.0
 40
1.0
 40
1.0
 10
24.1863
 20
9.8652
 30
0.0
 10
23.9474
 20
9.8652
 30
0.0
 10
23.7549
 20
9.8896
 30
0.0
 10
23.6095
 20
9.939
 30
0.0
 10
23.6095
 20
9.939
 30
0.0
 10
23.4638
 20
9.9879
 30
0.0
 10
23.3514
 20
10.0613
 30
0.0
 10
23.2723
 20
10.1582
 30
0.0
 10
23.2723
 20
10.1582
 30
0.0
 10
23.1933
 20
10.2551
 30
0.0
 10
23.1538
 20
10.377
 30
0.0
 10
23.1538
 20
10.5236
 30
0.0
 10
23.1538
 20
10.5236
 30
0.0
 10
23.1538
 20
10.6323
 30
0.0
 10
23.176
 20
10.7274
 30
0.0
 10
23.2197
 20
10.8093
 30
0.0
 10
23.2197
 20
10.8093
 30
0.0
 10
23.2629
 20
10.891
 30
0.0
 10
23.326
 20
10.9584
 30
0.0
 10
23.4083
 20
11.012
 30
0.0
 10
23.4083
 20
11.012
 30
0.0
 10
23.4906
 20
11.0651
 30
0.0
 10
23.5907
 20
11.107
 30
0.0
 10
23.7088
 20
11.1371
 30
0.0
 10
23.7088
 20
11.1371
 30
0.0
 10
23.827
 20
11.1676
 30
0.0
 10
23.9859
 20
11.1828
 30
0.0
 10
24.1863
 20
11.1828
 30
0.0
 10
24.1863
 20
11.1828
 30
0.0
 10
24.4234
 20
11.1828
 30
0.0
 10
24.6144
 20
11.1582
 30
0.0
 10
24.7602
 20
11.1098
 30
0.0
 10
24.7602
 20
11.1098
 30
0.0
 10
24.906
 20
11.0609
 30
0.0
 10
25.0184
 20
10.9879
 30
0.0
 10
25.098
 20
10.891
 30
0.0
 10
25.098
 20
10.891
 30
0.0
 10
25.1774
 20
10.7941
 30
0.0
 10
25.2169
 20
10.6719
 30
0.0
 10
25.2169
 20
10.5236
 30
0.0
 10
25.2169
 20
10.5236
 30
0.0
 10
25.2169
 20
10.3289
 30
0.0
 10
25.1473
 20
10.1761
 30
0.0
 10
25.0076
 20
10.0651
 30
0.0
 10
25.0076
 20
10.0651
 30
0.0
 10
24.8396
 20
9.9319
 30
0.0
 10
24.5654
 20
9.8652
 30
0.0
 10
24.1863
 20
9.8652
 30
0.0
  0
SPLINE
  5
AC
330
1F
100
AcDbEntity
  8
ROUND
 62
   250
100
AcDbSpline
210
0.0
220
0.0
230
1.0
 70
    11
 71
     3
 72
    36
 73
    32
 74
     0
 42
0.0000000001
 43
0.0000000001
 40
0.0
 40
0.0
 40
0.0
 40
0.0
 40
0.1111111111111111
 40
0.1111111111111111
 40
0.1111111111111111
 40
0.1111111111111111
 40
0.2222222222222222
 40
0.2222222222222222
 40
0.2222222222222222
 40
0.2222222222222222
 40
0.3333333333333333
 40
0.3333333333333333
 40
0.3333333333333333
 40
0.3333333333333333
 40
0.4444444444444444
 40
0.4444444444444444
 40
0.4444444444444444
 40
0.4444444444444444
 40
0.5555555555555556
 40
0.5555555555555556
 40
0.5555555555555556
 40
0.5555555555555556
 40
0.6666666666666666
 40
0.6666666666666666
 40
0.6666666666666666
 40
0.6666666666666666
 40
0.7777777777777778
 40
0.7777777777777778
 40
0.7777777777777778
 40
0.7777777777777778
 40
1.0
 40
1.0
 40
1.0
 40
1.0
 10
24.1863
 20
10.1201
 30
0.0
 10
24.518
 20
10.1201
 30
0.0
 10
24.7386
 20
10.1591
 30
0.0
 10
24.8487
 20
10.2367
 30
0.0
 10
24.8487
 20
10.2367
 30
0.0
 10
24.9582
 20
10.3144
 30
0.0
 10
25.0132
 20
10.4099
 30
0.0
 10
25.0132
 20
10.5236
 30
0.0
 10
25.0132
 20
10.5236
 30
0.0
 10
25.0132
 20
10.6381
 30
0.0
 10
24.9577
 20
10.7335
 30
0.0
 10
24.8476
 20
10.8111
 30
0.0
 10
24.8476
 20
10.8111
 30
0.0
 10
24.7377
 20
10.8887
 30
0.0
 10
24.5169
 20
10.9277
 30
0.0
 10
24.1863
 20
10.9277
 30
0.0
 10
24.1863
 20
10.9277
 30
0.0
 10
23.8538
 20
10.9277
 30
0.0
 10
23.6327
 20
10.8887
 30
0.0
 10
23.5235
 20
10.8111
 30
0.0
 10
23.5235
 20
10.8111
 30
0.0
 10
23.4139
 20
10.7335
 30
0.0
 10
23.3593
 20
10.637
 30
0.0
 10
23.3593
 20
10.5213
 30
0.0
 10
23.3593
 20
10.5213
 30
0.0
 10
23.3593
 20
10.407
 30
0.0
 10
23.4078
 20
10.3163
 30
0.0
 10
23.5043
 20
10.2481
 30
0.0
 10
23.5043
 20
10.2481
 30
0.0
 10
23.627
 20
10.1629
 30
0.0
 10
23.8547
 20
10.1201
 30
0.0
 10
24.1863
 20
10.1201
 30
0.0
  0
SPLINE
  5
AD
330
1F
100
AcDbEntity
  8
ROUND
 62
   250
100
AcDbSpline
210
0.0
220
0.0
230
1.0
 70
    11
 71
     3
 72
    40
 73
    36
 74
     0
 42
0.0000000001
 43
0.0000000001
 40
0.0
 40
0.0
 40
0.0
 40
0.0
 40
0.1
 40
0.1
 40
0.1
 40
0.1
 40
0.2
 40
0.2
 40
0.2
 40
0.2
 40
0.3
 40
0.3
 40
0.3
 40
0.3
 40
0.4
 40
0.4
 40
0.4
 40
0.4
 40
0.5
 40
0.5
 40
0.5
 40
0.5
 40
0.6
 40
0.6
 40
0.6
 40
0.6
 40
0.7
 40
0.7
 40
0.7
 40
0.7
 40
0.8
 40
0.8
 40
0.8
 40
0.8
 40
1.0
 40
1.0
 40
1.0
 40
1.0
 10
24.984
 20
-16.4239
 30
0.0
 10
24.984
 20
-16.4239
 30
0.0
 10
24.984
 20
-16.6718
 30
0.0
 10
24.984
 20
-16.6718
 30
0.0
 10
24.984
 20
-16.6718
 30
0.0
 10
24.984
 20
-16.6718
 30
0.0
 10
23.4035
 20
-16.6718
 30
0.0
 10
23.4035
 20
-16.6718
 30
0.0
 10
23.4035
 20
-16.6718
 30
0.0
 10
23.4604
 20
-16.7316
 30
0.0
 10
23.5173
 20
-16.8095
 30
0.0
 10
23.5742
 20
-16.9064
 30
0.0
 10
23.5742
 20
-16.9064
 30
0.0
 10
23.6311
 20
-17.0039
 30
0.0
 10
23.674
 20
-17.0908
 30
0.0
 10
23.7022
 20
-17.168
 30
0.0
 10
23.7022
 20
-17.168
 30
0.0
 10
23.7022
 20
-17.168
 30
0.0
 10
23.4628
 20
-17.168
 30
0.0
 10
23.4628
 20
-17.168
 30
0.0
 10
23.4628
 20
-17.168
 30
0.0
 10
23.3974
 20
-17.0292
 30
0.0
 10
23.3184
 20
-16.9079
 30
0.0
 10
23.2256
 20
-16.8039
 30
0.0
 10
23.2256
 20
-16.8039
 30
0.0
 10
23.1325
 20
-16.7005
 30
0.0
 10
23.0427
 20
-16.6266
 30
0.0
 10
22.9552
 20
-16.5833
 30
0.0
 10
22.9552
 20
-16.5833
 30
0.0
 10
22.9552
 20
-16.5833
 30
0.0
 10
22.9552
 20
-16.4239
 30
0.0
 10
22.9552
 20
-16.4239
 30
0.0
 10
22.9552
 20
-16.4239
 30
0.0
 10
22.9552
 20
-16.4239
 30
0.0
 10
24.984
 20
-16.4239
 30
0.0
 10
24.984
 20
-16.4239
 30
0.0
  0
SPLINE
  5
AE
330
1F
100
AcDbEntity
  8
ROUND
 62
   250
100
AcDbSpline
210
0.0
220
0.0
230
1.0
 70
    11
 71
     3
 72
    48
 73
    44
 74
     0
 42
0.0000000001
 43
0.0000000001
 40
0.0
 40
0.0
 40
0.0
 40
0.0
 40
0.0833333333333333
 40
0.0833333333333333
 40
0.0833333333333333
 40
0.0833333333333333
 40
0.1666666666666667
 40
0.1666666666666667
 40
0.1666666666666667
 40
0.1666666666666667
 40
0.25
 40
0.25
 40
0.25
 40
0.25
 40
0.3333333333333333
 40
0.3333333333333333
 40
0.3333333333333333
 40
0.3333333333333333
 40
0.4166666666666667
 40
0.4166666666666667
 40
0.4166666666666667
 40
0.4166666666666667
 40
0.5
 40
0.5
 40
0.5
 40
0.5
 40
0.5833333333333334
 40
0.5833333333333334
 40
0.5833333333333334
 40
0.5833333333333334
 40
0.6666666666666666
 40
0.6666666666666666
 40
0.6666666666666666
 40
0.6666666666666666
 40
0.75
 40
0.75
 40
0.75
 40
0.75
 40
0.8333333333333334
 40
0.8333333333333334
 40
0.8333333333333334
 40
0.8333333333333334
 40
1.0
 40
1.0
 40
1.0
 40
1.0
 10
24.984
 20
-14.9934
 30
0.0
 10
24.984
 20
-14.9934
 30
0.0
 10
24.5004
 20
-14.9934
 30
0.0
 10
24.5004
 20
-14.9934
 30
0.0
 10
24.5004
 20
-14.9934
 30
0.0
 10
24.5004
 20
-14.9934
 30
0.0
 10
24.5004
 20
-15.8698
 30
0.0
 10
24.5004
 20
-15.8698
 30
0.0
 10
24.5004
 20
-15.8698
 30
0.0
 10
24.5004
 20
-15.8698
 30
0.0
 10
24.2728
 20
-15.8698
 30
0.0
 10
24.2728
 20
-15.8698
 30
0.0
 10
24.2728
 20
-15.8698
 30
0.0
 10
24.2728
 20
-15.8698
 30
0.0
 10
22.9636
 20
-14.9479
 30
0.0
 10
22.9636
 20
-14.9479
 30
0.0
 10
22.9636
 20
-14.9479
 30
0.0
 10
22.9636
 20
-14.9479
 30
0.0
 10
22.9636
 20
-14.745
 30
0.0
 10
22.9636
 20
-14.745
 30
0.0
 10
22.9636
 20
-14.745
 30
0.0
 10
22.9636
 20
-14.745
 30
0.0
 10
24.2728
 20
-14.745
 30
0.0
 10
24.2728
 20
-14.745
 30
0.0
 10
24.2728
 20
-14.745
 30
0.0
 10
24.2728
 20
-14.745
 30
0.0
 10
24.2728
 20
-14.4722
 30
0.0
 10
24.2728
 20
-14.4722
 30
0.0
 10
24.2728
 20
-14.4722
 30
0.0
 10
24.2728
 20
-14.4722
 30
0.0
 10
24.5004
 20
-14.4722
 30
0.0
 10
24.5004
 20
-14.4722
 30
0.0
 10
24.5004
 20
-14.4722
 30
0.0
 10
24.5004
 20
-14.4722
 30
0.0
 10
24.5004
 20
-14.745
 30
0.0
 10
24.5004
 20
-14.745
 30
0.0
 10
24.5004
 20
-14.745
 30
0.0
 10
24.5004
 20
-14.745
 30
0.0
 10
24.984
 20
-14.745
 30
0.0
 10
24.984
 20
-14.745
 30
0.0
 10
24.984
 20
-14.745
 30
0.0
 10
24.984
 20
-14.745
 30
0.0
 10
24.984
 20
-14.9934
 30
0.0
 10
24.984
 20
-14.9934
 30
0.0
  0
SPLINE
  5
AF
330
1F
100
AcDbEntity
  8
ROUND
 62
   250
100
AcDbSpline
210
0.0
220
0.0
230
1.0
 70
    11
 71
     3
 72
    16
 73
    12
 74
     0
 42
0.0000000001
 43
0.0000000001
 40
0.0
 40
0.0
 40
0.0
 40
0.0
 40
0.25
 40
0.25
 40
0.25
 40
0.25
 40
0.5
 40
0.5
 40
0.5
 40
0.5
 40
1.0
 40
1.0
 40
1.0
 40
1.0
 10
24.2728
 20
-14.9934
 30
0.0
 10
24.2728
 20
-14.9934
 30
0.0
 10
23.3621
 20
-14.9934
 30
0.0
 10
23.3621
 20
-14.9934
 30
0.0
 10
23.3621
 20
-14.9934
 30
0.0
 10
23.3621
 20
-14.9934
 30
0.0
 10
24.2728
 20
-15.6257
 30
0.0
 10
24.2728
 20
-15.6257
 30
0.0
 10
24.2728
 20
-15.6257
 30
0.0
 10
24.2728
 20
-15.6257
 30
0.0
 10
24.2728
 20
-14.9934
 30
0.0
 10
24.2728
 20
-14.9934
 30
0.0
  0
SPLINE
  5
B0
330
1F
100
AcDbEntity
  8
ROUND
 62
   250
100
AcDbSpline
210
0.0
220
0.0
230
1.0
 70
    11
 71
     3
 72
    92
 73
    88
 74
     0
 42
0.0000000001
 43
0.0000000001
 40
0.0
 40
0.0
 40
0.0
 40
0.0
 40
0.0434782608695652
 40
0.0434782608695652
 40
0.0434782608695652
 40
0.0434782608695652
 40
0.0869565217391304
 40
0.0869565217391304
 40
0.0869565217391304
 40
0.0869565217391304
 40
0.1304347826086956
 40
0.1304347826086956
 40
0.1304347826086956
 40
0.1304347826086956
 40
0.1739130434782609
 40
0.1739130434782609
 40
0.1739130434782609
 40
0.1739130434782609
 40
0.2173913043478261
 40
0.2173913043478261
 40
0.2173913043478261
 40
0.2173913043478261
 40
0.2608695652173913
 40
0.2608695652173913
 40
0.2608695652173913
 40
0.2608695652173913
 40
0.3043478260869565
 40
0.3043478260869565
 40
0.3043478260869565
 40
0.3043478260869565
 40
0.3478260869565217
 40
0.3478260869565217
 40
0.3478260869565217
 40
0.3478260869565217
 40
0.391304347826087
 40
0.391304347826087
 40
0.391304347826087
 40
0.391304347826087
 40
0.4347826086956522
 40
0.4347826086956522
 40
0.4347826086956522
 40
0.4347826086956522
 40
0.4782608695652174
 40
0.4782608695652174
 40
0.4782608695652174
 40
0.4782608695652174
 40
0.5217391304347826
 40
0.5217391304347826
 40
0.5217391304347826
 40
0.5217391304347826
 40
0.5652173913043478
 40
0.5652173913043478
 40
0.5652173913043478
 40
0.5652173913043478
 40
0.6086956521739131
 40
0.6086956521739131
 40
0.6086956521739131
 40
0.6086956521739131
 40
0.6521739130434783
 40
0.6521739130434783
 40
0.6521739130434783
 40
0.6521739130434783
 40
0.6956521739130435
 40
0.6956521739130435
 40
0.6956521739130435
 40
0.6956521739130435
 40
0.7391304347826086
 40
0.7391304347826086
 40
0.7391304347826086
 40
0.7391304347826086
 40
0.782608695652174
 40
0.782608695652174
 40
0.782608695652174
 40
0.782608695652174
 40
0.8260869565217391
 40
0.8260869565217391
 40
0.8260869565217391
 40
0.8260869565217391
 40
0.8695652173913043
 40
0.8695652173913043
 40
0.8695652173913043
 40
0.8695652173913043
 40
0.9130434782608695
 40
0.9130434782608695
 40
0.9130434782608695
 40
0.9130434782608695
 40
1.0
 40
1.0
 40
1.0
 40
1.0
 10
24.4548
 20
-14.2187
 30
0.0
 10
24.4548
 20
-14.2187
 30
0.0
 10
24.4327
 20
-13.9582
 30
0.0
 10
24.4327
 20
-13.9582
 30
0.0
 10
24.4327
 20
-13.9582
 30
0.0
 10
24.5597
 20
-13.9389
 30
0.0
 10
24.6548
 20
-13.8942
 30
0.0
 10
24.7188
 20
-13.8241
 30
0.0
 10
24.7188
 20
-13.8241
 30
0.0
 10
24.7826
 20
-13.7535
 30
0.0
 10
24.8146
 20
-13.6689
 30
0.0
 10
24.8146
 20
-13.5697
 30
0.0
 10
24.8146
 20
-13.5697
 30
0.0
 10
24.8146
 20
-13.4502
 30
0.0
 10
24.7696
 20
-13.3489
 30
0.0
 10
24.6797
 20
-13.2667
 30
0.0
 10
24.6797
 20
-13.2667
 30
0.0
 10
24.5893
 20
-13.1839
 30
0.0
 10
24.4698
 20
-13.1425
 30
0.0
 10
24.3212
 20
-13.1425
 30
0.0
 10
24.3212
 20
-13.1425
 30
0.0
 10
24.1796
 20
-13.1425
 30
0.0
 10
24.0681
 20
-13.182
 30
0.0
 10
23.9864
 20
-13.2614
 30
0.0
 10
23.9864
 20
-13.2614
 30
0.0
 10
23.9045
 20
-13.341
 30
0.0
 10
23.8635
 20
-13.4449
 30
0.0
 10
23.8635
 20
-13.5738
 30
0.0
 10
23.8635
 20
-13.5738
 30
0.0
 10
23.8635
 20
-13.6538
 30
0.0
 10
23.8819
 20
-13.7257
 30
0.0
 10
23.9181
 20
-13.7902
 30
0.0
 10
23.9181
 20
-13.7902
 30
0.0
 10
23.9544
 20
-13.8546
 30
0.0
 10
24.0014
 20
-13.905
 30
0.0
 10
24.0592
 20
-13.9417
 30
0.0
 10
24.0592
 20
-13.9417
 30
0.0
 10
24.0592
 20
-13.9417
 30
0.0
 10
24.0291
 20
-14.1746
 30
0.0
 10
24.0291
 20
-14.1746
 30
0.0
 10
24.0291
 20
-14.1746
 30
0.0
 10
24.0291
 20
-14.1746
 30
0.0
 10
22.9915
 20
-13.9788
 30
0.0
 10
22.9915
 20
-13.9788
 30
0.0
 10
22.9915
 20
-13.9788
 30
0.0
 10
22.9915
 20
-13.9788
 30
0.0
 10
22.9915
 20
-12.9741
 30
0.0
 10
22.9915
 20
-12.9741
 30
0.0
 10
22.9915
 20
-12.9741
 30
0.0
 10
22.9915
 20
-12.9741
 30
0.0
 10
23.2285
 20
-12.9741
 30
0.0
 10
23.2285
 20
-12.9741
 30
0.0
 10
23.2285
 20
-12.9741
 30
0.0
 10
23.2285
 20
-12.9741
 30
0.0
 10
23.2285
 20
-13.7803
 30
0.0
 10
23.2285
 20
-13.7803
 30
0.0
 10
23.2285
 20
-13.7803
 30
0.0
 10
23.2285
 20
-13.7803
 30
0.0
 10
23.7713
 20
-13.8895
 30
0.0
 10
23.7713
 20
-13.8895
 30
0.0
 10
23.7713
 20
-13.8895
 30
0.0
 10
23.6866
 20
-13.7682
 30
0.0
 10
23.6443
 20
-13.6406
 30
0.0
 10
23.6443
 20
-13.5075
 30
0.0
 10
23.6443
 20
-13.5075
 30
0.0
 10
23.6443
 20
-13.3311
 30
0.0
 10
23.7054
 20
-13.1824
 30
0.0
 10
23.8278
 20
-13.0611
 30
0.0
 10
23.8278
 20
-13.0611
 30
0.0
 10
23.9501
 20
-12.9398
 30
0.0
 10
24.1072
 20
-12.8791
 30
0.0
 10
24.2991
 20
-12.8791
 30
0.0
 10
24.2991
 20
-12.8791
 30
0.0
 10
24.4821
 20
-12.8791
 30
0.0
 10
24.6401
 20
-12.9327
 30
0.0
 10
24.7732
 20
-13.039
 30
0.0
 10
24.7732
 20
-13.039
 30
0.0
 10
24.9365
 20
-13.1689
 30
0.0
 10
25.0183
 20
-13.3457
 30
0.0
 10
25.0183
 20
-13.5697
 30
0.0
 10
25.0183
 20
-13.5697
 30
0.0
 10
25.0183
 20
-13.7535
 30
0.0
 10
24.967
 20
-13.9036
 30
0.0
 10
24.8641
 20
-14.0198
 30
0.0
 10
24.8641
 20
-14.0198
 30
0.0
 10
24.7611
 20
-14.1359
 30
0.0
 10
24.6246
 20
-14.2023
 30
0.0
 10
24.4548
 20
-14.2187
 30
0.0
  0
SPLINE
  5
B1
330
1F
100
AcDbEntity
  8
ROUND
  6
NEW_LINE5
 62
   250
100
AcDbSpline
210
0.0
220
0.0
230
1.0
 70
    24
 71
     3
 72
     8
 73
     4
 74
     0
 42
0.0000000001
 43
0.0000000001
 40
0.0
 40
0.0
 40
0.0
 40
0.0
 40
1.0
 40
1.0
 40
1.0
 40
1.0
 10
-12.6393
 20
-2.9496
 30
0.0
 10
-12.6393
 20
-2.9496
 30
0.0
 10
-11.5061
 20
-2.8505
 30
0.0
 10
-11.5061
 20
-2.8505
 30
0.0
  0
SPLINE
  5
B3
330
1F
100
AcDbEntity
  8
ROUND
  6
NEW_LINE6
 62
   250
100
AcDbSpline
210
0.0
220
0.0
230
1.0
 70
    24
 71
     3
 72
     8
 73
     4
 74
     0
 42
0.0000000001
 43
0.0000000001
 40
0.0
 40
0.0
 40
0.0
 40
0.0
 40
1.0
 40
1.0
 40
1.0
 40
1.0
 10
-9.5973
 20
-1.3727
 30
0.0
 10
-9.5973
 20
-1.3727
 30
0.0
 10
-10.7305
 20
-1.4718
 30
0.0
 10
-10.7305
 20
-1.4718
 30
0.0
  0
SPLINE
  5
B5
330
1F
100
AcDbEntity
  8
ROUND
  6
NEW_LINE7
 62
   250
100
AcDbSpline
210
0.0
220
0.0
230
1.0
 70
     8
 71
     3
 72
    16
 73
    12
 74
     0
 42
0.0000000001
 43
0.0000000001
 40
0.0
 40
0.0
 40
0.0
 40
0.0
 40
0.25
 40
0.25
 40
0.25
 40
0.25
 40
0.5
 40
0.5
 40
0.5
 40
0.5
 40
1.0
 40
1.0
 40
1.0
 40
1.0
 10
-11.9499
 20
-2.9226
 30
0.0
 10
-11.9499
 20
-2.9226
 30
0.0
 10
-11.7154
 20
-2.0116
 30
0.0
 10
-11.7154
 20
-2.0116
 30
0.0
 10
-11.7154
 20
-2.0116
 30
0.0
 10
-11.7154
 20
-2.0116
 30
0.0
 10
-11.1784
 20
-3.7886
 30
0.0
 10
-11.1784
 20
-3.7886
 30
0.0
 10
-11.1784
 20
-3.7886
 30
0.0
 10
-11.1784
 20
-3.7886
 30
0.0
 10
-10.9439
 20
-2.7652
 30
0.0
 10
-10.9439
 20
-2.7652
 30
0.0
  0
SPLINE
  5
B7
330
1F
100
AcDbEntity
  8
ROUND
  6
NEW_LINE8
 62
   250
100
AcDbSpline
210
0.0
220
0.0
230
1.0
 70
     8
 71
     3
 72
    16
 73
    12
 74
     0
 42
0.0000000001
 43
0.0000000001
 40
0.0
 40
0.0
 40
0.0
 40
0.0
 40
0.25
 40
0.25
 40
0.25
 40
0.25
 40
0.5
 40
0.5
 40
0.5
 40
0.5
 40
1.0
 40
1.0
 40
1.0
 40
1.0
 10
-10.2867
 20
-1.3997
 30
0.0
 10
-10.2867
 20
-1.3997
 30
0.0
 10
-10.5212
 20
-2.3107
 30
0.0
 10
-10.5212
 20
-2.3107
 30
0.0
 10
-10.5212
 20
-2.3107
 30
0.0
 10
-10.5212
 20
-2.3107
 30
0.0
 10
-11.0582
 20
-0.5337
 30
0.0
 10
-11.0582
 20
-0.5337
 30
0.0
 10
-11.0582
 20
-0.5337
 30
0.0
 10
-11.0582
 20
-0.5337
 30
0.0
 10
-11.2927
 20
-1.5571
 30
0.0
 10
-11.2927
 20
-1.5571
 30
0.0
  0
SPLINE
  5
B9
330
1F
100
AcDbEntity
  8
ROUND
  6
NEW_LINE9
 62
   250
100
AcDbSpline
210
0.0
220
0.0
230
1.0
 70
    24
 71
     3
 72
     8
 73
     4
 74
     0
 42
0.0000000001
 43
0.0000000001
 40
0.0
 40
0.0
 40
0.0
 40
0.0
 40
1.0
 40
1.0
 40
1.0
 40
1.0
 10
-10.9707
 20
-2.7937
 30
0.0
 10
-10.9707
 20
-2.7937
 30
0.0
 10
-9.5482
 20
-2.6693
 30
0.0
 10
-9.5482
 20
-2.6693
 30
0.0
  0
SPLINE
  5
BB
330
1F
100
AcDbEntity
  8
ROUND
  6
NEW_LINE10
 62
   250
100
AcDbSpline
210
0.0
220
0.0
230
1.0
 70
    24
 71
     3
 72
     8
 73
     4
 74
     0
 42
0.0000000001
 43
0.0000000001
 40
0.0
 40
0.0
 40
0.0
 40
0.0
 40
1.0
 40
1.0
 40
1.0
 40
1.0
 10
-11.2659
 20
-1.5286
 30
0.0
 10
-11.2659
 20
-1.5286
 30
0.0
 10
-12.6884
 20
-1.653
 30
0.0
 10
-12.6884
 20
-1.653
 30
0.0
  0
SPLINE
  5
BD
330
1F
100
AcDbEntity
  8
ROUND
  6
NEW_LINE11
 62
   250
100
AcDbSpline
210
0.0
220
0.0
230
1.0
 70
    24
 71
     3
 72
     8
 73
     4
 74
     0
 42
0.0000000001
 43
0.0000000001
 40
0.0
 40
0.0
 40
0.0
 40
0.0
 40
1.0
 40
1.0
 40
1.0
 40
1.0
 10
2.8929
 20
-6.098
 30
0.0
 10
2.8929
 20
-6.098
 30
0.0
 10
2.8929
 20
-16.6404
 30
0.0
 10
2.8929
 20
-16.6404
 30
0.0
  0
SPLINE
  5
BF
330
1F
100
AcDbEntity
  8
ROUND
  6
NEW_LINE12
 62
   250
100
AcDbSpline
210
0.0
220
0.0
230
1.0
 70
    24
 71
     3
 72
     8
 73
     4
 74
     0
 42
0.0000000001
 43
0.0000000001
 40
0.0
 40
0.0
 40
0.0
 40
0.0
 40
1.0
 40
1.0
 40
1.0
 40
1.0
 10
21.7908
 20
-21.2912
 30
0.0
 10
21.7908
 20
-21.2912
 30
0.0
 10
7.7533
 20
-21.2912
 30
0.0
 10
7.7533
 20
-21.2912
 30
0.0
  0
ENDSEC
  0
SECTION
  2
OBJECTS
  0
DICTIONARY
  5
C
330
0
100
AcDbDictionary
  3
ACAD_GROUP
350
D
  3
ACAD_LAYOUT
350
1A
  3
ACAD_MATERIAL
350
3B
  3
ACAD_MLEADERSTYLE
350
E3
  3
ACAD_MLINESTYLE
350
17
  3
ACAD_PLOTSETTINGS
350
19
  3
ACAD_VISUALSTYLE
350
2A
  3
ACDBHEADERROUNDTRIPXREC
350
C1
  3
ACDBVARIABLEDICTIONARY
350
E1
  0
DICTIONARY
  5
D
102
{ACAD_REACTORS
330
C
102
}
330
C
100
AcDbDictionary
  0
DICTIONARY
  5
1A
102
{ACAD_REACTORS
330
C
102
}
330
C
100
AcDbDictionary
  0
DICTIONARY
  5
3B
102
{ACAD_REACTORS
330
C
102
}
330
C
100
AcDbDictionary
  3
BYBLOCK
350
3D
  3
BYLAYER
350
3C
  3
GLOBAL
350
3E
  0
DICTIONARY
  5
E3
102
{ACAD_REACTORS
330
C
102
}
330
C
100
AcDbDictionary
  0
DICTIONARY
  5
17
102
{ACAD_REACTORS
330
C
102
}
330
C
100
AcDbDictionary
  3
STANDARD
350
18
  0
DICTIONARY
  5
19
102
{ACAD_REACTORS
330
C
102
}
330
C
100
AcDbDictionary
  0
DICTIONARY
  5
2A
102
{ACAD_REACTORS
330
C
102
}
330
C
100
AcDbDictionary
  3
2DWIREFRAME
350
2F
  3
3D_HIDDEN
350
31
  3
3DWIREFRAME
350
30
  3
BASIC
350
32
  3
BRIGHTEN
350
36
  3
COLORCHANGE
350
3A
  3
CONCEPTUAL
350
34
  3
DIM
350
35
  3
FACEPATTERN
350
39
  3
FLAT
350
2B
  3
FLATWITHEDGES
350
2C
  3
GOURAUD
350
2D
  3
GOURAUDWITHEDGES
350
2E
  3
LINEPATTERN
350
38
  3
REALISTIC
350
33
  3
THICKEN
350
37
  0
DICTIONARY
  5
C1
102
{ACAD_REACTORS
330
C
102
}
330
C
100
AcDbDictionary
  3
CEPSNTYPE
350
CA
  3
DIMSTYLEDATA
350
E0
  3
FINGERPRINTGUID
350
CB
  3
HYPERLINKBASE
350
C4
  3
INSUNITS
350
C9
  3
LAYOUTDICT
350
C6
  3
LWETCUNION
350
C8
  3
PLOTSETDICT
350
C7
  3
PSVPSCALE
350
CD
  3
PUCSBASE
350
D0
  3
PUCSORGBACK
350
D6
  3
PUCSORGBOTTOM
350
D2
  3
PUCSORGFRONT
350
D5
  3
PUCSORGLEFT
350
D3
  3
PUCSORGRIGHT
350
D4
  3
PUCSORGTOP
350
D1
  3
PUCSORTHOREF
350
CE
  3
PUCSORTHOVIEW
350
CF
  3
STYLESHEET
350
C5
  3
TSTACKALIGN
350
C2
  3
TSTACKSIZE
350
C3
  3
UCSBASE
350
D9
  3
UCSORGBACK
350
DF
  3
UCSORGBOTTOM
350
DB
  3
UCSORGFRONT
350
DE
  3
UCSORGLEFT
350
DC
  3
UCSORGRIGHT
350
DD
  3
UCSORGTOP
350
DA
  3
UCSORTHOREF
350
D7
  3
UCSORTHOVIEW
350
D8
  3
VERSIONGUID
350
CC
  0
DICTIONARY
  5
E1
102
{ACAD_REACTORS
330
C
102
}
330
C
100
AcDbDictionary
  3
DIMASSOC
350
E4
  3
HIDETEXT
350
E5
  0
MATERIAL
  5
3D
102
{ACAD_REACTORS
330
3B
102
}
102
{ACAD_XDICTIONARY
360
E8
102
}
330
3B
100
AcDbMaterial
  1
ByBlock
  0
MATERIAL
  5
3C
102
{ACAD_REACTORS
330
3B
102
}
102
{ACAD_XDICTIONARY
360
E6
102
}
330
3B
100
AcDbMaterial
  1
ByLayer
  0
MATERIAL
  5
3E
102
{ACAD_REACTORS
330
3B
102
}
102
{ACAD_XDICTIONARY
360
EA
102
}
330
3B
100
AcDbMaterial
  1
Global
  0
MLINESTYLE
  5
18
102
{ACAD_REACTORS
330
17
102
}
330
17
100
AcDbMlineStyle
  2
Standard
 70
     0
  3

 62
   256
 51
90.0
 52
90.0
 71
     2
 49
0.5
 62
   256
  6
BYLAYER
 49
-0.5
 62
   256
  6
BYLAYER
  0
ACAD_PROXY_OBJECT
  5
2F
102
{ACAD_REACTORS
330
2A
102
}
330
2A
100
AcDbProxyObject
 90
      499
 91
      501
 93
      436
310
42CC9915DA5C99599C985B595049028333333333333E3BF0000000000000FB0107901411070040501600405405064090741402480A0340
1001
ACAD
1000
AcDbSavedByObjectVersion
1070
     0
  0
ACAD_PROXY_OBJECT
  5
31
102
{ACAD_REACTORS
330
2A
102
}
330
2A
100
AcDbProxyObject
 90
      499
 91
      501
 93
      500
310
424CD108121A5919195B90640502408333333333333E3BF0000000000000FB01079024090700405020000000000001110200405405064090740C02480A0340
1001
ACAD
1000
AcDbSavedByObjectVersion
1070
     0
  0
ACAD_PROXY_OBJECT
  5
30
102
{ACAD_REACTORS
330
2A
102
}
330
2A
100
AcDbProxyObject
 90
      499
 91
      501
 93
      436
310
42CCD915DA5C99599C985B595059028333333333333E3BF0000000000000FB0107901411070040501600405405064090741402480A0340
1001
ACAD
1000
AcDbSavedByObjectVersion
1070
     0
  0
ACAD_PROXY_OBJECT
  5
32
102
{ACAD_REACTORS
330
2A
102
}
330
2A
100
AcDbProxyObject
 90
      499
 91
      501
 93
      388
310
4150985CDA58D07406404333333333333E3BF0000000000000FB0107A41107004050150841D405064090741402480A0350
1001
ACAD
1000
AcDbSavedByObjectVersion
1070
     0
  0
ACAD_PROXY_OBJECT
  5
36
102
{ACAD_REACTORS
330
2A
102
}
330
2A
100
AcDbProxyObject
 90
      499
 91
      501
 93
      428
310
42109C9A59DA1D195B90C409028333333333333E3BF0000000000000FB010790141107004050150841D405064090741402480A029950
1001
ACAD
1000
AcDbSavedByObjectVersion
1070
     0
  0
ACAD_PROXY_OBJECT
  5
3A
102
{ACAD_REACTORS
330
2A
102
}
330
2A
100
AcDbProxyObject
 90
      499
 91
      501
 93
      452
310
42D0DBDB1BDC90DA185B99D95104090240C333333333333E3BF0000000000000FB0108901411070040501508421405064090741402480A0350
1001
ACAD
1000
AcDbSavedByObjectVersion
1070
     0
  0
ACAD_PROXY_OBJECT
  5
34
102
{ACAD_REACTORS
330
2A
102
}
330
2A
100
AcDbProxyObject
 90
      499
 91
      501
 93
      500
310
4290DBDB98D95C1D1D585B10940D028333333333333E3BF0000000000000FB0107902409070040501000000000000111010841D405064090740C02480A0340
1001
ACAD
1000
AcDbSavedByObjectVersion
1070
     0
  0
ACAD_PROXY_OBJECT
  5
35
102
{ACAD_REACTORS
330
2A
102
}
330
2A
100
AcDbProxyObject
 90
      499
 91
      501
 93
      412
310
40D11A5B50B409028333333333333E3BF0000000000000FB010790141107004050150841D405064090741402480A02677FFFFFD0
1001
ACAD
1000
AcDbSavedByObjectVersion
1070
     0
  0
ACAD_PROXY_OBJECT
  5
39
102
{ACAD_REACTORS
330
2A
102
}
330
2A
100
AcDbProxyObject
 90
      499
 91
      501
 93
      444
310
42D19858D95C185D1D195C9B90F409028333333333333E3BF0000000000000FB010790141107004050150841D405064090741402480A0350
1001
ACAD
1000
AcDbSavedByObjectVersion
1070
     0
  0
ACAD_PROXY_OBJECT
  5
2B
102
{ACAD_REACTORS
330
2A
102
}
330
2A
100
AcDbProxyObject
 90
      499
 91
      501
 93
      388
310
41119B185D240901404333333333333E3BF0000000000000F9010740A41107004050150841D405064090741402480A1B50
1001
ACAD
1000
AcDbSavedByObjectVersion
1070
     0
  0
ACAD_PROXY_OBJECT
  5
2C
102
{ACAD_REACTORS
330
2A
102
}
330
2A
100
AcDbProxyObject
 90
      499
 91
      501
 93
      476
310
43519B185D15DA5D1A115919D95CD0140901404333333333333E3BF0000000000000F9010740901411070040501600405405064090741402480A1B50
1001
ACAD
1000
AcDbSavedByObjectVersion
1070
     0
  0
ACAD_PROXY_OBJECT
  5
2D
102
{ACAD_REACTORS
330
2A
102
}
330
2A
100
AcDbProxyObject
 90
      499
 91
      501
 93
      412
310
41D1DBDD5C985D5910240902404333333333333E3BF0000000000000F9010740A411070040501641D405064090741402480A1B50
1001
ACAD
1000
AcDbSavedByObjectVersion
1070
     0
  0
ACAD_PROXY_OBJECT
  5
2E
102
{ACAD_REACTORS
330
2A
102
}
330
2A
100
AcDbProxyObject
 90
      499
 91
      501
 93
      500
310
4411DBDD5C985D5915DA5D1A115919D95CD0340902404333333333333E3BF0000000000000F9010740901411070040501600405405064090741402480A1B50
1001
ACAD
1000
AcDbSavedByObjectVersion
1070
     0
  0
ACAD_PROXY_OBJECT
  5
38
102
{ACAD_REACTORS
330
2A
102
}
330
2A
100
AcDbProxyObject
 90
      499
 91
      501
 93
      444
310
42D31A5B995C185D1D195C9B90E409028333333333333E3BF0000000000000FB010790141107004050750841D405064090741402483A0350
1001
ACAD
1000
AcDbSavedByObjectVersion
1070
     0
  0
ACAD_PROXY_OBJECT
  5
33
102
{ACAD_REACTORS
330
2A
102
}
330
2A
100
AcDbProxyObject
 90
      499
 91
      501
 93
      420
310
425499585B1A5CDD1A58D08409028333333333333E3BF0000000000000FB01079019070040501508421405064090741402480A1B40
1001
ACAD
1000
AcDbSavedByObjectVersion
1070
     0
  0
ACAD_PROXY_OBJECT
  5
37
102
{ACAD_REACTORS
330
2A
102
}
330
2A
100
AcDbProxyObject
 90
      499
 91
      501
 93
      412
310
41D51A1A58DAD95B90D409028333333333333E3BF0000000000000FB010790141107004050150C41D405064090741402480A0350
1001
ACAD
1000
AcDbSavedByObjectVersion
1070
     0
  0
XRECORD
  5
CA
102
{ACAD_REACTORS
330
C1
102
}
330
C1
100
AcDbXrecord
 90
        0
  0
XRECORD
  5
E0
102
{ACAD_REACTORS
330
C1
102
}
330
C1
100
AcDbXrecord
1000
DSTYLE
1002
{
1070
   340
340
11
1002
}
  0
XRECORD
  5
CB
102
{ACAD_REACTORS
330
C1
102
}
330
C1
100
AcDbXrecord
  1
{82E3DF73-77DC-4ECF-BA92-97954EC0C2EE}
  0
XRECORD
  5
C4
102
{ACAD_REACTORS
330
C1
102
}
330
C1
100
AcDbXrecord
  1

  0
XRECORD
  5
C9
102
{ACAD_REACTORS
330
C1
102
}
330
C1
100
AcDbXrecord
 90
        4
  0
XRECORD
  5
C6
102
{ACAD_REACTORS
330
C1
102
}
330
C1
100
AcDbXrecord
340
1A
  0
XRECORD
  5
C8
102
{ACAD_REACTORS
330
C1
102
}
330
C1
100
AcDbXrecord
 90
    10781
  0
XRECORD
  5
C7
102
{ACAD_REACTORS
330
C1
102
}
330
C1
100
AcDbXrecord
340
19
  0
XRECORD
  5
CD
102
{ACAD_REACTORS
330
C1
102
}
330
C1
100
AcDbXrecord
 40
0.0
  0
XRECORD
  5
D0
102
{ACAD_REACTORS
330
C1
102
}
330
C1
100
AcDbXrecord
340
0
  0
XRECORD
  5
D6
102
{ACAD_REACTORS
330
C1
102
}
330
C1
100
AcDbXrecord
 10
0.0
 20
0.0
 30
0.0
  0
XRECORD
  5
D2
102
{ACAD_REACTORS
330
C1
102
}
330
C1
100
AcDbXrecord
 10
0.0
 20
0.0
 30
0.0
  0
XRECORD
  5
D5
102
{ACAD_REACTORS
330
C1
102
}
330
C1
100
AcDbXrecord
 10
0.0
 20
0.0
 30
0.0
  0
XRECORD
  5
D3
102
{ACAD_REACTORS
330
C1
102
}
330
C1
100
AcDbXrecord
 10
0.0
 20
0.0
 30
0.0
  0
XRECORD
  5
D4
102
{ACAD_REACTORS
330
C1
102
}
330
C1
100
AcDbXrecord
 10
0.0
 20
0.0
 30
0.0
  0
XRECORD
  5
D1
102
{ACAD_REACTORS
330
C1
102
}
330
C1
100
AcDbXrecord
 10
0.0
 20
0.0
 30
0.0
  0
XRECORD
  5
CE
102
{ACAD_REACTORS
330
C1
102
}
330
C1
100
AcDbXrecord
340
0
  0
XRECORD
  5
CF
102
{ACAD_REACTORS
330
C1
102
}
330
C1
100
AcDbXrecord
 70
     0
  0
XRECORD
  5
C5
102
{ACAD_REACTORS
330
C1
102
}
330
C1
100
AcDbXrecord
  1

  0
XRECORD
  5
C2
102
{ACAD_REACTORS
330
C1
102
}
330
C1
100
AcDbXrecord
 90
        1
  0
XRECORD
  5
C3
102
{ACAD_REACTORS
330
C1
102
}
330
C1
100
AcDbXrecord
 90
       70
  0
XRECORD
  5
D9
102
{ACAD_REACTORS
330
C1
102
}
330
C1
100
AcDbXrecord
340
0
  0
XRECORD
  5
DF
102
{ACAD_REACTORS
330
C1
102
}
330
C1
100
AcDbXrecord
 10
0.0
 20
0.0
 30
0.0
  0
XRECORD
  5
DB
102
{ACAD_REACTORS
330
C1
102
}
330
C1
100
AcDbXrecord
 10
0.0
 20
0.0
 30
0.0
  0
XRECORD
  5
DE
102
{ACAD_REACTORS
330
C1
102
}
330
C1
100
AcDbXrecord
 10
0.0
 20
0.0
 30
0.0
  0
XRECORD
  5
DC
102
{ACAD_REACTORS
330
C1
102
}
330
C1
100
AcDbXrecord
 10
0.0
 20
0.0
 30
0.0
  0
XRECORD
  5
DD
102
{ACAD_REACTORS
330
C1
102
}
330
C1
100
AcDbXrecord
 10
0.0
 20
0.0
 30
0.0
  0
XRECORD
  5
DA
102
{ACAD_REACTORS
330
C1
102
}
330
C1
100
AcDbXrecord
 10
0.0
 20
0.0
 30
0.0
  0
XRECORD
  5
D7
102
{ACAD_REACTORS
330
C1
102
}
330
C1
100
AcDbXrecord
340
0
  0
XRECORD
  5
D8
102
{ACAD_REACTORS
330
C1
102
}
330
C1
100
AcDbXrecord
 70
     0
  0
XRECORD
  5
CC
102
{ACAD_REACTORS
330
C1
102
}
330
C1
100
AcDbXrecord
  1
{FAEB1C32-E019-11D5-929B-00C0DF256EC4}
  0
DICTIONARYVAR
  5
E4
102
{ACAD_REACTORS
330
E1
102
}
330
E1
100
DictionaryVariables
280
     0
  1
2
  0
DICTIONARYVAR
  5
E5
102
{ACAD_REACTORS
330
E1
102
}
330
E1
100
DictionaryVariables
280
     0
  1
1
  0
DICTIONARY
  5
E8
330
3D
100
AcDbDictionary
280
     1
  3
ACAD_XREC_ROUNDTRIP
360
E9
  0
DICTIONARY
  5
E6
330
3C
100
AcDbDictionary
280
     1
  3
ACAD_XREC_ROUNDTRIP
360
E7
  0
DICTIONARY
  5
EA
330
3E
100
AcDbDictionary
280
     1
  3
ACAD_XREC_ROUNDTRIP
360
EB
  0
XRECORD
  5
E9
102
{ACAD_REACTORS
330
E8
102
}
330
E8
100
AcDbXrecord
102
MATERIAL
148
0.0
149
0.0
149
0.0
 93
        0
 94
      127
282
     0
 72
     1
 77
     1
171
     1
175
     1
179
     1
273
     0
  0
XRECORD
  5
E7
102
{ACAD_REACTORS
330
E6
102
}
330
E6
100
AcDbXrecord
102
MATERIAL
148
0.0
149
0.0
149
0.0
 93
        0
 94
      127
282
     0
 72
     1
 77
     1
171
     1
175
     1
179
     1
273
     0
  0
XRECORD
  5
EB
102
{ACAD_REACTORS
330
EA
102
}
330
EA
100
AcDbXrecord
102
MATERIAL
148
0.0
149
0.0
149
0.0
 93
        0
 94
      127
282
     0
 72
     1
 77
     1
171
     1
175
     1
179
     1
273
     0
  0
ENDSEC
  0
EOF
