  0
SECTION
  2
HEADER
  9
$ACADVER
  1
AC1014
  9
$ACADMAINTVER
 70
     9
  9
$DWGCODEPAGE
  3
ANSI_1250
  9
$INSBASE
 10
0.0
 20
0.0
 30
0.0
  9
$EXTMIN
 10
-43.7252
 20
-36.096
 30
0.0
  9
$EXTMAX
 10
43.7256
 20
35.9552
 30
0.0
  9
$LIMMIN
 10
0.0
 20
0.0
  9
$LIMMAX
 10
12.0
 20
9.0
  9
$ORTHOMODE
 70
     0
  9
$REGENMODE
 70
     1
  9
$FILLMODE
 70
     1
  9
$QTEXTMODE
 70
     0
  9
$MIRRTEXT
 70
     1
  9
$DRAGMODE
 70
     2
  9
$LTSCALE
 40
1.0
  9
$OSMODE
 70
    37
  9
$ATTMODE
 70
     1
  9
$TEXTSIZE
 40
0.2
  9
$TRACEWID
 40
0.05
  9
$TEXTSTYLE
  7
STANDARD
  9
$CLAYER
  8
0
  9
$CELTYPE
  6
BYLAYER
  9
$CECOLOR
 62
   256
  9
$CELTSCALE
 40
1.0
  9
$DELOBJ
 70
     1
  9
$DISPSILH
 70
     0
  9
$DIMSCALE
 40
1.0
  9
$DIMASZ
 40
0.18
  9
$DIMEXO
 40
0.0625
  9
$DIMDLI
 40
0.38
  9
$DIMRND
 40
0.0
  9
$DIMDLE
 40
0.0
  9
$DIMEXE
 40
0.18
  9
$DIMTP
 40
0.0
  9
$DIMTM
 40
0.0
  9
$DIMTXT
 40
0.18
  9
$DIMCEN
 40
0.09
  9
$DIMTSZ
 40
0.0
  9
$DIMTOL
 70
     0
  9
$DIMLIM
 70
     0
  9
$DIMTIH
 70
     1
  9
$DIMTOH
 70
     1
  9
$DIMSE1
 70
     0
  9
$DIMSE2
 70
     0
  9
$DIMTAD
 70
     0
  9
$DIMZIN
 70
     0
  9
$DIMBLK
  1

  9
$DIMASO
 70
     1
  9
$DIMSHO
 70
     1
  9
$DIMPOST
  1

  9
$DIMAPOST
  1

  9
$DIMALT
 70
     0
  9
$DIMALTD
 70
     2
  9
$DIMALTF
 40
25.4
  9
$DIMLFAC
 40
1.0
  9
$DIMTOFL
 70
     0
  9
$DIMTVP
 40
0.0
  9
$DIMTIX
 70
     0
  9
$DIMSOXD
 70
     0
  9
$DIMSAH
 70
     0
  9
$DIMBLK1
  1

  9
$DIMBLK2
  1

  9
$DIMSTYLE
  2
STANDARD
  9
$DIMCLRD
 70
     0
  9
$DIMCLRE
 70
     0
  9
$DIMCLRT
 70
     0
  9
$DIMTFAC
 40
1.0
  9
$DIMGAP
 40
0.09
  9
$DIMJUST
 70
     0
  9
$DIMSD1
 70
     0
  9
$DIMSD2
 70
     0
  9
$DIMTOLJ
 70
     1
  9
$DIMTZIN
 70
     0
  9
$DIMALTZ
 70
     0
  9
$DIMALTTZ
 70
     0
  9
$DIMFIT
 70
     3
  9
$DIMUPT
 70
     0
  9
$DIMUNIT
 70
     2
  9
$DIMDEC
 70
     4
  9
$DIMTDEC
 70
     4
  9
$DIMALTU
 70
     2
  9
$DIMALTTD
 70
     2
  9
$DIMTXSTY
  7
STANDARD
  9
$DIMAUNIT
 70
     0
  9
$LUNITS
 70
     2
  9
$LUPREC
 70
     4
  9
$SKETCHINC
 40
0.1
  9
$FILLETRAD
 40
0.5
  9
$AUNITS
 70
     0
  9
$AUPREC
 70
     0
  9
$MENU
  1
.
  9
$ELEVATION
 40
0.0
  9
$PELEVATION
 40
0.0
  9
$THICKNESS
 40
0.0
  9
$LIMCHECK
 70
     0
  9
$CHAMFERA
 40
0.5
  9
$CHAMFERB
 40
0.5
  9
$CHAMFERC
 40
1.0
  9
$CHAMFERD
 40
0.0
  9
$SKPOLY
 70
     0
  9
$TDCREATE
 40
2456266.379842477
  9
$TDUPDATE
 40
2456266.379842489
  9
$TDINDWG
 40
0.0000000116
  9
$TDUSRTIMER
 40
0.0000000116
  9
$USRTIMER
 70
     1
  9
$ANGBASE
 50
0.0
  9
$ANGDIR
 70
     0
  9
$PDMODE
 70
     0
  9
$PDSIZE
 40
0.0
  9
$PLINEWID
 40
0.0
  9
$COORDS
 70
     1
  9
$SPLFRAME
 70
     0
  9
$SPLINETYPE
 70
     6
  9
$SPLINESEGS
 70
     8
  9
$ATTDIA
 70
     0
  9
$ATTREQ
 70
     1
  9
$HANDLING
 70
     1
  9
$HANDSEED
  5
17F
  9
$SURFTAB1
 70
     6
  9
$SURFTAB2
 70
     6
  9
$SURFTYPE
 70
     6
  9
$SURFU
 70
     6
  9
$SURFV
 70
     6
  9
$UCSNAME
  2

  9
$UCSORG
 10
0.0
 20
0.0
 30
0.0
  9
$UCSXDIR
 10
1.0
 20
0.0
 30
0.0
  9
$UCSYDIR
 10
0.0
 20
1.0
 30
0.0
  9
$PUCSNAME
  2

  9
$PUCSORG
 10
0.0
 20
0.0
 30
0.0
  9
$PUCSXDIR
 10
1.0
 20
0.0
 30
0.0
  9
$PUCSYDIR
 10
0.0
 20
1.0
 30
0.0
  9
$USERI1
 70
     0
  9
$USERI2
 70
     0
  9
$USERI3
 70
     0
  9
$USERI4
 70
     0
  9
$USERI5
 70
     0
  9
$USERR1
 40
0.0
  9
$USERR2
 40
0.0
  9
$USERR3
 40
0.0
  9
$USERR4
 40
0.0
  9
$USERR5
 40
0.0
  9
$WORLDVIEW
 70
     1
  9
$SHADEDGE
 70
     3
  9
$SHADEDIF
 70
    70
  9
$TILEMODE
 70
     1
  9
$MAXACTVP
 70
    64
  9
$PINSBASE
 10
0.0
 20
0.0
 30
0.0
  9
$PLIMCHECK
 70
     0
  9
$PEXTMIN
 10
1.000000000000000E+20
 20
1.000000000000000E+20
 30
1.000000000000000E+20
  9
$PEXTMAX
 10
-1.000000000000000E+20
 20
-1.000000000000000E+20
 30
-1.000000000000000E+20
  9
$PLIMMIN
 10
0.0
 20
0.0
  9
$PLIMMAX
 10
12.0
 20
9.0
  9
$UNITMODE
 70
     0
  9
$VISRETAIN
 70
     1
  9
$PLINEGEN
 70
     0
  9
$PSLTSCALE
 70
     1
  9
$TREEDEPTH
 70
  3020
  9
$PICKSTYLE
 70
     1
  9
$CMLSTYLE
  2
STANDARD
  9
$CMLJUST
 70
     0
  9
$CMLSCALE
 40
1.0
  9
$PROXYGRAPHICS
 70
     1
  9
$MEASUREMENT
 70
     0
  0
ENDSEC
  0
SECTION
  2
CLASSES
  0
CLASS
  1
ACDBDICTIONARYWDFLT
  2
AcDbDictionaryWithDefault
  3
ObjectDBX Classes
 90
        0
280
     0
281
     0
  0
CLASS
  1
VISUALSTYLE
  2
AcDbVisualStyle
  3
ObjectDBX Classes
 90
     4095
280
     0
281
     0
  0
CLASS
  1
MATERIAL
  2
AcDbMaterial
  3
ObjectDBX Classes
 90
     1153
280
     0
281
     0
  0
CLASS
  1
DICTIONARYVAR
  2
AcDbDictionaryVar
  3
ObjectDBX Classes
 90
        0
280
     0
281
     0
  0
CLASS
  1
XRECORD
  2
AcDbXrecord
  3
AutoCAD 2000
 90
        0
280
     0
281
     0
  0
CLASS
  1
LWPOLYLINE
  2
AcDbPolyline
  3
AutoCAD 2000
 90
        0
280
     0
281
     1
  0
CLASS
  1
HATCH
  2
AcDbHatch
  3
AutoCAD 2000
 90
        0
280
     0
281
     1
  0
CLASS
  1
ACDBPLACEHOLDER
  2
AcDbPlaceHolder
  3
ObjectDBX Classes
 90
        0
280
     0
281
     0
  0
CLASS
  1
LAYOUT
  2
AcDbLayout
  3
ObjectDBX Classes
 90
        0
280
     0
281
     0
  0
ENDSEC
  0
SECTION
  2
TABLES
  0
TABLE
  2
VPORT
  5
8
330
0
100
AcDbSymbolTable
 70
     1
  0
VPORT
  5
29
330
8
100
AcDbSymbolTableRecord
100
AcDbViewportTableRecord
  2
*ACTIVE
 70
     0
 10
0.0
 20
0.0
 11
1.0
 21
1.0
 12
10.42990654205607
 22
4.5
 13
0.0
 23
0.0
 14
0.5
 24
0.5
 15
0.5
 25
0.5
 16
0.0
 26
0.0
 36
1.0
 17
0.0
 27
0.0
 37
0.0
 40
9.0
 41
1.972972972850329
 42
50.0
 43
0.0
 44
0.0
 50
0.0
 51
0.0
 71
     0
 72
   100
 73
     1
 74
     3
 75
     0
 76
     0
 77
     0
 78
     0
  0
ENDTAB
  0
TABLE
  2
LTYPE
  5
5
330
0
100
AcDbSymbolTable
 70
     6
  0
LTYPE
  5
14
330
5
100
AcDbSymbolTableRecord
100
AcDbLinetypeTableRecord
  2
BYBLOCK
 70
     0
  3

 72
    65
 73
     0
 40
0.0
  0
LTYPE
  5
15
330
5
100
AcDbSymbolTableRecord
100
AcDbLinetypeTableRecord
  2
BYLAYER
 70
     0
  3

 72
    65
 73
     0
 40
0.0
  0
LTYPE
  5
16
330
5
100
AcDbSymbolTableRecord
100
AcDbLinetypeTableRecord
  2
CONTINUOUS
 70
     0
  3
Solid line
 72
    65
 73
     0
 40
0.0
  0
LTYPE
  5
F5
330
5
100
AcDbSymbolTableRecord
100
AcDbLinetypeTableRecord
  2
NEW_LINE1
 70
     0
  3

 72
    65
 73
     4
 40
1.2
 49
0.5
 74
     4
 75
     0
340
0
 46
1.0
 50
0.0
 44
0.0
 45
0.0
 49
-0.3
 74
     4
 75
     0
340
0
 46
1.0
 50
0.0
 44
0.0
 45
0.0
 49
0.1
 74
     4
 75
     0
340
0
 46
1.0
 50
0.0
 44
0.0
 45
0.0
 49
-0.3
 74
     4
 75
     0
340
0
 46
1.0
 50
0.0
 44
0.0
 45
0.0
  0
LTYPE
  5
F7
330
5
100
AcDbSymbolTableRecord
100
AcDbLinetypeTableRecord
  2
NEW_LINE2
 70
     0
  3

 72
    65
 73
     4
 40
1.2
 49
0.5
 74
     4
 75
     0
340
0
 46
1.0
 50
0.0
 44
0.0
 45
0.0
 49
-0.3
 74
     4
 75
     0
340
0
 46
1.0
 50
0.0
 44
0.0
 45
0.0
 49
0.1
 74
     4
 75
     0
340
0
 46
1.0
 50
0.0
 44
0.0
 45
0.0
 49
-0.3
 74
     4
 75
     0
340
0
 46
1.0
 50
0.0
 44
0.0
 45
0.0
  0
LTYPE
  5
F9
330
5
100
AcDbSymbolTableRecord
100
AcDbLinetypeTableRecord
  2
NEW_LINE3
 70
     0
  3

 72
    65
 73
     4
 40
1.2
 49
0.5
 74
     4
 75
     0
340
0
 46
1.0
 50
0.0
 44
0.0
 45
0.0
 49
-0.3
 74
     4
 75
     0
340
0
 46
1.0
 50
0.0
 44
0.0
 45
0.0
 49
0.1
 74
     4
 75
     0
340
0
 46
1.0
 50
0.0
 44
0.0
 45
0.0
 49
-0.3
 74
     4
 75
     0
340
0
 46
1.0
 50
0.0
 44
0.0
 45
0.0
  0
LTYPE
  5
114
330
5
100
AcDbSymbolTableRecord
100
AcDbLinetypeTableRecord
  2
NEW_LINE4
 70
     0
  3

 72
    65
 73
     4
 40
1.2
 49
0.5
 74
     4
 75
     0
340
0
 46
1.0
 50
0.0
 44
0.0
 45
0.0
 49
-0.3
 74
     4
 75
     0
340
0
 46
1.0
 50
0.0
 44
0.0
 45
0.0
 49
0.1
 74
     4
 75
     0
340
0
 46
1.0
 50
0.0
 44
0.0
 45
0.0
 49
-0.3
 74
     4
 75
     0
340
0
 46
1.0
 50
0.0
 44
0.0
 45
0.0
  0
LTYPE
  5
116
330
5
100
AcDbSymbolTableRecord
100
AcDbLinetypeTableRecord
  2
NEW_LINE5
 70
     0
  3

 72
    65
 73
     4
 40
1.2
 49
0.5
 74
     4
 75
     0
340
0
 46
1.0
 50
0.0
 44
0.0
 45
0.0
 49
-0.3
 74
     4
 75
     0
340
0
 46
1.0
 50
0.0
 44
0.0
 45
0.0
 49
0.1
 74
     4
 75
     0
340
0
 46
1.0
 50
0.0
 44
0.0
 45
0.0
 49
-0.3
 74
     4
 75
     0
340
0
 46
1.0
 50
0.0
 44
0.0
 45
0.0
  0
ENDTAB
  0
TABLE
  2
LAYER
  5
2
330
0
100
AcDbSymbolTable
 70
     2
  0
LAYER
  5
10
330
2
100
AcDbSymbolTableRecord
100
AcDbLayerTableRecord
  2
0
 70
     0
 62
     7
  6
CONTINUOUS
  0
LAYER
  5
40
330
2
100
AcDbSymbolTableRecord
100
AcDbLayerTableRecord
  2
DEFAULT_1
 70
     0
 62
     7
  6
CONTINUOUS
  0
ENDTAB
  0
TABLE
  2
STYLE
  5
3
330
0
100
AcDbSymbolTable
 70
     1
  0
STYLE
  5
11
330
3
100
AcDbSymbolTableRecord
100
AcDbTextStyleTableRecord
  2
STANDARD
 70
     0
 40
0.0
 41
1.0
 50
0.0
 71
     0
 42
0.2
  3
txt
  4

  0
ENDTAB
  0
TABLE
  2
VIEW
  5
6
330
0
100
AcDbSymbolTable
 70
     0
  0
ENDTAB
  0
TABLE
  2
UCS
  5
7
330
0
100
AcDbSymbolTable
 70
     0
  0
ENDTAB
  0
TABLE
  2
APPID
  5
9
330
0
100
AcDbSymbolTable
 70
     2
  0
APPID
  5
12
330
9
100
AcDbSymbolTableRecord
100
AcDbRegAppTableRecord
  2
ACAD
 70
     0
  0
APPID
  5
3F
330
9
100
AcDbSymbolTableRecord
100
AcDbRegAppTableRecord
  2
ODA
 70
     0
  0
ENDTAB
  0
TABLE
  2
DIMSTYLE
  5
A
330
0
100
AcDbSymbolTable
 70
     1
  0
DIMSTYLE
105
27
330
A
100
AcDbSymbolTableRecord
100
AcDbDimStyleTableRecord
  2
STANDARD
 70
     0
  3

  4

  5

  6

  7

 40
1.0
 41
0.18
 42
0.0625
 43
0.38
 44
0.18
 45
0.0
 46
0.0
 47
0.0
 48
0.0
140
0.18
141
0.09
142
0.0
143
25.4
144
1.0
145
0.0
146
1.0
147
0.09
 71
     0
 72
     0
 73
     1
 74
     1
 75
     0
 76
     0
 77
     0
 78
     0
170
     0
171
     2
172
     0
173
     0
174
     0
175
     0
176
     0
177
     0
178
     0
270
     2
271
     4
272
     4
273
     2
274
     2
340
11
275
     0
280
     0
281
     0
282
     0
283
     1
284
     0
285
     0
286
     0
287
     3
288
     0
  0
ENDTAB
  0
TABLE
  2
BLOCK_RECORD
  5
1
330
0
100
AcDbSymbolTable
 70
     1
  0
BLOCK_RECORD
  5
1F
330
1
100
AcDbSymbolTableRecord
100
AcDbBlockTableRecord
  2
*MODEL_SPACE
  0
BLOCK_RECORD
  5
1B
330
1
100
AcDbSymbolTableRecord
100
AcDbBlockTableRecord
  2
*PAPER_SPACE
  0
ENDTAB
  0
ENDSEC
  0
SECTION
  2
BLOCKS
  0
BLOCK
  5
20
330
1F
100
AcDbEntity
  8
0
100
AcDbBlockBegin
  2
*MODEL_SPACE
 70
     0
 10
0.0
 20
0.0
 30
0.0
  3
*MODEL_SPACE
  1

  0
ENDBLK
  5
21
330
1F
100
AcDbEntity
  8
0
100
AcDbBlockEnd
  0
BLOCK
  5
1C
330
1B
100
AcDbEntity
 67
     1
  8
0
100
AcDbBlockBegin
  2
*PAPER_SPACE
 70
     0
 10
0.0
 20
0.0
 30
0.0
  3
*PAPER_SPACE
  1

  0
ENDBLK
  5
1D
330
1B
100
AcDbEntity
 67
     1
  8
0
100
AcDbBlockEnd
  0
ENDSEC
  0
SECTION
  2
ENTITIES
  0
SPLINE
  5
41
330
1F
100
AcDbEntity
  8
DEFAULT_1
 62
   250
100
AcDbSpline
210
0.0
220
0.0
230
1.0
 70
    24
 71
     3
 72
     8
 73
     4
 74
     0
 42
0.0000000001
 43
0.0000000001
 40
0.0
 40
0.0
 40
0.0
 40
0.0
 40
1.0
 40
1.0
 40
1.0
 40
1.0
 10
-28.6912
 20
5.3185
 30
0.0
 10
-28.6912
 20
5.3185
 30
0.0
 10
-12.398
 20
5.3185
 30
0.0
 10
-12.398
 20
5.3185
 30
0.0
  0
SPLINE
  5
42
330
1F
100
AcDbEntity
  8
DEFAULT_1
 62
   250
100
AcDbSpline
210
0.0
220
0.0
230
1.0
 70
    24
 71
     3
 72
     8
 73
     4
 74
     0
 42
0.0000000001
 43
0.0000000001
 40
0.0
 40
0.0
 40
0.0
 40
0.0
 40
1.0
 40
1.0
 40
1.0
 40
1.0
 10
-25.1091
 20
25.4109
 30
0.0
 10
-25.1091
 20
25.4109
 30
0.0
 10
-25.1091
 20
33.8303
 30
0.0
 10
-25.1091
 20
33.8303
 30
0.0
  0
SPLINE
  5
43
330
1F
100
AcDbEntity
  8
DEFAULT_1
 62
   250
100
AcDbSpline
210
0.0
220
0.0
230
1.0
 70
    24
 71
     3
 72
     8
 73
     4
 74
     0
 42
0.0000000001
 43
0.0000000001
 40
0.0
 40
0.0
 40
0.0
 40
0.0
 40
1.0
 40
1.0
 40
1.0
 40
1.0
 10
-15.9608
 20
25.4218
 30
0.0
 10
-15.9608
 20
25.4218
 30
0.0
 10
-15.9608
 20
33.6919
 30
0.0
 10
-15.9608
 20
33.6919
 30
0.0
  0
SPLINE
  5
44
330
1F
100
AcDbEntity
  8
DEFAULT_1
 62
   250
100
AcDbSpline
210
0.0
220
0.0
230
1.0
 70
    24
 71
     3
 72
     8
 73
     4
 74
     0
 42
0.0000000001
 43
0.0000000001
 40
0.0
 40
0.0
 40
0.0
 40
0.0
 40
1.0
 40
1.0
 40
1.0
 40
1.0
 10
-28.4677
 20
33.1859
 30
0.0
 10
-28.4677
 20
33.1859
 30
0.0
 10
-20.5263
 20
33.1859
 30
0.0
 10
-20.5263
 20
33.1859
 30
0.0
  0
SPLINE
  5
45
330
1F
100
AcDbEntity
  8
DEFAULT_1
 62
   250
100
AcDbSpline
210
0.0
220
0.0
230
1.0
 70
    24
 71
     3
 72
     8
 73
     4
 74
     0
 42
0.0000000001
 43
0.0000000001
 40
0.0
 40
0.0
 40
0.0
 40
0.0
 40
1.0
 40
1.0
 40
1.0
 40
1.0
 10
-12.3333
 20
33.1859
 30
0.0
 10
-12.3333
 20
33.1859
 30
0.0
 10
-20.5263
 20
33.1859
 30
0.0
 10
-20.5263
 20
33.1859
 30
0.0
  0
SPLINE
  5
46
330
1F
100
AcDbEntity
  8
DEFAULT_1
 62
   250
100
AcDbSpline
210
0.0
220
0.0
230
1.0
 70
    24
 71
     3
 72
     8
 73
     4
 74
     0
 42
0.0000000001
 43
0.0000000001
 40
0.0
 40
0.0
 40
0.0
 40
0.0
 40
1.0
 40
1.0
 40
1.0
 40
1.0
 10
-17.3369
 20
-35.9549
 30
0.0
 10
-17.3369
 20
-35.9549
 30
0.0
 10
-42.0068
 20
-35.9549
 30
0.0
 10
-42.0068
 20
-35.9549
 30
0.0
  0
SPLINE
  5
47
330
1F
100
AcDbEntity
  8
DEFAULT_1
 62
   250
100
AcDbSpline
210
0.0
220
0.0
230
1.0
 70
    24
 71
     3
 72
     8
 73
     4
 74
     0
 42
0.0000000001
 43
0.0000000001
 40
0.0
 40
0.0
 40
0.0
 40
0.0
 40
1.0
 40
1.0
 40
1.0
 40
1.0
 10
-11.3102
 20
-13.3248
 30
0.0
 10
-11.3102
 20
-13.3248
 30
0.0
 10
-42.0761
 20
-13.3248
 30
0.0
 10
-42.0761
 20
-13.3248
 30
0.0
  0
SPLINE
  5
48
330
1F
100
AcDbEntity
  8
DEFAULT_1
 62
   250
100
AcDbSpline
210
0.0
220
0.0
230
1.0
 70
    24
 71
     3
 72
     8
 73
     4
 74
     0
 42
0.0000000001
 43
0.0000000001
 40
0.0
 40
0.0
 40
0.0
 40
0.0
 40
1.0
 40
1.0
 40
1.0
 40
1.0
 10
-41.174
 20
-13.3248
 30
0.0
 10
-41.174
 20
-13.3248
 30
0.0
 10
-41.174
 20
-35.0232
 30
0.0
 10
-41.174
 20
-35.0232
 30
0.0
  0
SPLINE
  5
49
330
1F
100
AcDbEntity
  8
DEFAULT_1
 62
   250
100
AcDbSpline
210
0.0
220
0.0
230
1.0
 70
    24
 71
     3
 72
     8
 73
     4
 74
     0
 42
0.0000000001
 43
0.0000000001
 40
0.0
 40
0.0
 40
0.0
 40
0.0
 40
1.0
 40
1.0
 40
1.0
 40
1.0
 10
-25.6306
 20
25.3494
 30
0.0
 10
-25.6306
 20
25.3494
 30
0.0
 10
-41.7055
 20
25.3494
 30
0.0
 10
-41.7055
 20
25.3494
 30
0.0
  0
SPLINE
  5
4A
330
1F
100
AcDbEntity
  8
DEFAULT_1
 62
   250
100
AcDbSpline
210
0.0
220
0.0
230
1.0
 70
    24
 71
     3
 72
     8
 73
     4
 74
     0
 42
0.0000000001
 43
0.0000000001
 40
0.0
 40
0.0
 40
0.0
 40
0.0
 40
1.0
 40
1.0
 40
1.0
 40
1.0
 10
-41.1588
 20
-13.3248
 30
0.0
 10
-41.1588
 20
-13.3248
 30
0.0
 10
-41.1588
 20
25.0224
 30
0.0
 10
-41.1588
 20
25.0224
 30
0.0
  0
SPLINE
  5
4B
330
1F
100
AcDbEntity
  8
DEFAULT_1
 62
   250
100
AcDbSpline
210
0.0
220
0.0
230
1.0
 70
    24
 71
     3
 72
     8
 73
     4
 74
     0
 42
0.0000000001
 43
0.0000000001
 40
0.0
 40
0.0
 40
0.0
 40
0.0
 40
1.0
 40
1.0
 40
1.0
 40
1.0
 10
42.0999
 20
-8.0483
 30
0.0
 10
42.0999
 20
-8.0483
 30
0.0
 10
42.0999
 20
0.6353
 30
0.0
 10
42.0999
 20
0.6353
 30
0.0
  0
SPLINE
  5
4C
330
1F
100
AcDbEntity
  8
DEFAULT_1
 62
   250
100
AcDbSpline
210
0.0
220
0.0
230
1.0
 70
    24
 71
     3
 72
     8
 73
     4
 74
     0
 42
0.0000000001
 43
0.0000000001
 40
0.0
 40
0.0
 40
0.0
 40
0.0
 40
1.0
 40
1.0
 40
1.0
 40
1.0
 10
-20.5261
 20
-0.0848
 30
0.0
 10
-20.5261
 20
-0.0848
 30
0.0
 10
41.0076
 20
-0.0848
 30
0.0
 10
41.0076
 20
-0.0848
 30
0.0
  0
SPLINE
  5
4D
330
1F
100
AcDbEntity
  8
DEFAULT_1
 62
   250
100
AcDbSpline
210
0.0
220
0.0
230
1.0
 70
    24
 71
     3
 72
     8
 73
     4
 74
     0
 42
0.0000000001
 43
0.0000000001
 40
0.0
 40
0.0
 40
0.0
 40
0.0
 40
1.0
 40
1.0
 40
1.0
 40
1.0
 10
-8.5816
 20
-10.912
 30
0.0
 10
-8.5816
 20
-10.912
 30
0.0
 10
-8.5816
 20
-4.4337
 30
0.0
 10
-8.5816
 20
-4.4337
 30
0.0
  0
SPLINE
  5
4E
330
1F
100
AcDbEntity
  8
DEFAULT_1
 62
   250
100
AcDbSpline
210
0.0
220
0.0
230
1.0
 70
    24
 71
     3
 72
     8
 73
     4
 74
     0
 42
0.0000000001
 43
0.0000000001
 40
0.0
 40
0.0
 40
0.0
 40
0.0
 40
1.0
 40
1.0
 40
1.0
 40
1.0
 10
-23.6748
 20
-5.1308
 30
0.0
 10
-23.6748
 20
-5.1308
 30
0.0
 10
-5.0311
 20
-5.1308
 30
0.0
 10
-5.0311
 20
-5.1308
 30
0.0
  0
SPLINE
  5
4F
330
1F
100
AcDbEntity
  8
DEFAULT_1
 62
   250
100
AcDbSpline
210
0.0
220
0.0
230
1.0
 70
    24
 71
     3
 72
     8
 73
     4
 74
     0
 42
0.0000000001
 43
0.0000000001
 40
0.0
 40
0.0
 40
0.0
 40
0.0
 40
1.0
 40
1.0
 40
1.0
 40
1.0
 10
-24.5415
 20
-27.2964
 30
0.0
 10
-24.5415
 20
-27.2964
 30
0.0
 10
-24.9539
 20
-26.8341
 30
0.0
 10
-24.9539
 20
-26.8341
 30
0.0
  0
SPLINE
  5
50
330
1F
100
AcDbEntity
  8
DEFAULT_1
 62
   250
100
AcDbSpline
210
0.0
220
0.0
230
1.0
 70
    24
 71
     3
 72
     8
 73
     4
 74
     0
 42
0.0000000001
 43
0.0000000001
 40
0.0
 40
0.0
 40
0.0
 40
0.0
 40
1.0
 40
1.0
 40
1.0
 40
1.0
 10
-17.3369
 20
-35.9549
 30
0.0
 10
-17.3369
 20
-35.9549
 30
0.0
 10
-11.771
 20
-35.9549
 30
0.0
 10
-11.771
 20
-35.9549
 30
0.0
  0
SPLINE
  5
51
330
1F
100
AcDbEntity
  8
DEFAULT_1
 62
   250
100
AcDbSpline
210
0.0
220
0.0
230
1.0
 70
    24
 71
     3
 72
     8
 73
     4
 74
     0
 42
0.0000000001
 43
0.0000000001
 40
0.0
 40
0.0
 40
0.0
 40
0.0
 40
1.0
 40
1.0
 40
1.0
 40
1.0
 10
-13.0092
 20
-26.8341
 30
0.0
 10
-13.0092
 20
-26.8341
 30
0.0
 10
-12.5968
 20
-27.2964
 30
0.0
 10
-12.5968
 20
-27.2964
 30
0.0
  0
SPLINE
  5
52
330
1F
100
AcDbEntity
  8
DEFAULT_1
 62
   250
100
AcDbSpline
210
0.0
220
0.0
230
1.0
 70
    24
 71
     3
 72
     8
 73
     4
 74
     0
 42
0.0000000001
 43
0.0000000001
 40
0.0
 40
0.0
 40
0.0
 40
0.0
 40
1.0
 40
1.0
 40
1.0
 40
1.0
 10
-25.9378
 20
-15.7543
 30
0.0
 10
-25.9378
 20
-15.7543
 30
0.0
 10
-25.9378
 20
-18.274
 30
0.0
 10
-25.9378
 20
-18.274
 30
0.0
  0
SPLINE
  5
53
330
1F
100
AcDbEntity
  8
DEFAULT_1
 62
   250
100
AcDbSpline
210
0.0
220
0.0
230
1.0
 70
    24
 71
     3
 72
     8
 73
     4
 74
     0
 42
0.0000000001
 43
0.0000000001
 40
0.0
 40
0.0
 40
0.0
 40
0.0
 40
1.0
 40
1.0
 40
1.0
 40
1.0
 10
-25.9378
 20
22.6436
 30
0.0
 10
-25.9378
 20
22.6436
 30
0.0
 10
-25.9378
 20
25.3133
 30
0.0
 10
-25.9378
 20
25.3133
 30
0.0
  0
SPLINE
  5
54
330
1F
100
AcDbEntity
  8
DEFAULT_1
 62
   250
100
AcDbSpline
210
0.0
220
0.0
230
1.0
 70
    24
 71
     3
 72
     8
 73
     4
 74
     0
 42
0.0000000001
 43
0.0000000001
 40
0.0
 40
0.0
 40
0.0
 40
0.0
 40
1.0
 40
1.0
 40
1.0
 40
1.0
 10
-25.8394
 20
-15.5191
 30
0.0
 10
-25.8394
 20
-15.5191
 30
0.0
 10
-25.8394
 20
-15.9127
 30
0.0
 10
-25.8394
 20
-15.9127
 30
0.0
  0
SPLINE
  5
55
330
1F
100
AcDbEntity
  8
DEFAULT_1
 62
   250
100
AcDbSpline
210
0.0
220
0.0
230
1.0
 70
    24
 71
     3
 72
     8
 73
     4
 74
     0
 42
0.0000000001
 43
0.0000000001
 40
0.0
 40
0.0
 40
0.0
 40
0.0
 40
1.0
 40
1.0
 40
1.0
 40
1.0
 10
-25.8394
 20
22.5583
 30
0.0
 10
-25.8394
 20
22.5583
 30
0.0
 10
-25.8394
 20
22.9519
 30
0.0
 10
-25.8394
 20
22.9519
 30
0.0
  0
SPLINE
  5
56
330
1F
100
AcDbEntity
  8
DEFAULT_1
 62
   250
100
AcDbSpline
210
0.0
220
0.0
230
1.0
 70
    24
 71
     3
 72
     8
 73
     4
 74
     0
 42
0.0000000001
 43
0.0000000001
 40
0.0
 40
0.0
 40
0.0
 40
0.0
 40
1.0
 40
1.0
 40
1.0
 40
1.0
 10
-25.19
 20
-18.8265
 30
0.0
 10
-25.19
 20
-18.8265
 30
0.0
 10
-25.19
 20
-18.274
 30
0.0
 10
-25.19
 20
-18.274
 30
0.0
  0
SPLINE
  5
57
330
1F
100
AcDbEntity
  8
DEFAULT_1
 62
   250
100
AcDbSpline
210
0.0
220
0.0
230
1.0
 70
    24
 71
     3
 72
     8
 73
     4
 74
     0
 42
0.0000000001
 43
0.0000000001
 40
0.0
 40
0.0
 40
0.0
 40
0.0
 40
1.0
 40
1.0
 40
1.0
 40
1.0
 10
-24.9539
 20
-26.8341
 30
0.0
 10
-24.9539
 20
-26.8341
 30
0.0
 10
-24.9539
 20
-18.8201
 30
0.0
 10
-24.9539
 20
-18.8201
 30
0.0
  0
SPLINE
  5
58
330
1F
100
AcDbEntity
  8
DEFAULT_1
 62
   250
100
AcDbSpline
210
0.0
220
0.0
230
1.0
 70
    24
 71
     3
 72
     8
 73
     4
 74
     0
 42
0.0000000001
 43
0.0000000001
 40
0.0
 40
0.0
 40
0.0
 40
0.0
 40
1.0
 40
1.0
 40
1.0
 40
1.0
 10
-12.3784
 20
-27.2964
 30
0.0
 10
-12.3784
 20
-27.2964
 30
0.0
 10
-12.6259
 20
-27.2964
 30
0.0
 10
-12.6259
 20
-27.2964
 30
0.0
  0
SPLINE
  5
59
330
1F
100
AcDbEntity
  8
DEFAULT_1
 62
   250
100
AcDbSpline
210
0.0
220
0.0
230
1.0
 70
    24
 71
     3
 72
     8
 73
     4
 74
     0
 42
0.0000000001
 43
0.0000000001
 40
0.0
 40
0.0
 40
0.0
 40
0.0
 40
1.0
 40
1.0
 40
1.0
 40
1.0
 10
-16.4819
 20
-27.2964
 30
0.0
 10
-16.4819
 20
-27.2964
 30
0.0
 10
-16.7295
 20
-27.2964
 30
0.0
 10
-16.7295
 20
-27.2964
 30
0.0
  0
SPLINE
  5
5A
330
1F
100
AcDbEntity
  8
DEFAULT_1
 62
   250
100
AcDbSpline
210
0.0
220
0.0
230
1.0
 70
    24
 71
     3
 72
     8
 73
     4
 74
     0
 42
0.0000000001
 43
0.0000000001
 40
0.0
 40
0.0
 40
0.0
 40
0.0
 40
1.0
 40
1.0
 40
1.0
 40
1.0
 10
-24.621
 20
24.7229
 30
0.0
 10
-24.621
 20
24.7229
 30
0.0
 10
-24.621
 20
23.3455
 30
0.0
 10
-24.621
 20
23.3455
 30
0.0
  0
SPLINE
  5
5B
330
1F
100
AcDbEntity
  8
DEFAULT_1
 62
   250
100
AcDbSpline
210
0.0
220
0.0
230
1.0
 70
    24
 71
     3
 72
     8
 73
     4
 74
     0
 42
0.0000000001
 43
0.0000000001
 40
0.0
 40
0.0
 40
0.0
 40
0.0
 40
1.0
 40
1.0
 40
1.0
 40
1.0
 10
-24.621
 20
-17.6837
 30
0.0
 10
-24.621
 20
-17.6837
 30
0.0
 10
-24.621
 20
-16.3062
 30
0.0
 10
-24.621
 20
-16.3062
 30
0.0
  0
SPLINE
  5
5C
330
1F
100
AcDbEntity
  8
DEFAULT_1
 62
   250
100
AcDbSpline
210
0.0
220
0.0
230
1.0
 70
    24
 71
     3
 72
     8
 73
     4
 74
     0
 42
0.0000000001
 43
0.0000000001
 40
0.0
 40
0.0
 40
0.0
 40
0.0
 40
1.0
 40
1.0
 40
1.0
 40
1.0
 10
-24.0644
 20
24.7229
 30
0.0
 10
-24.0644
 20
24.7229
 30
0.0
 10
-24.0644
 20
23.3455
 30
0.0
 10
-24.0644
 20
23.3455
 30
0.0
  0
SPLINE
  5
5D
330
1F
100
AcDbEntity
  8
DEFAULT_1
 62
   250
100
AcDbSpline
210
0.0
220
0.0
230
1.0
 70
    24
 71
     3
 72
     8
 73
     4
 74
     0
 42
0.0000000001
 43
0.0000000001
 40
0.0
 40
0.0
 40
0.0
 40
0.0
 40
1.0
 40
1.0
 40
1.0
 40
1.0
 10
-24.0644
 20
-17.6837
 30
0.0
 10
-24.0644
 20
-17.6837
 30
0.0
 10
-24.0644
 20
-16.3062
 30
0.0
 10
-24.0644
 20
-16.3062
 30
0.0
  0
SPLINE
  5
5E
330
1F
100
AcDbEntity
  8
DEFAULT_1
 62
   250
100
AcDbSpline
210
0.0
220
0.0
230
1.0
 70
    24
 71
     3
 72
     8
 73
     4
 74
     0
 42
0.0000000001
 43
0.0000000001
 40
0.0
 40
0.0
 40
0.0
 40
0.0
 40
1.0
 40
1.0
 40
1.0
 40
1.0
 10
-3.9178
 20
-24.7299
 30
0.0
 10
-3.9178
 20
-24.7299
 30
0.0
 10
-13.2453
 20
-24.7299
 30
0.0
 10
-13.2453
 20
-24.7299
 30
0.0
  0
SPLINE
  5
5F
330
1F
100
AcDbEntity
  8
DEFAULT_1
 62
   250
100
AcDbSpline
210
0.0
220
0.0
230
1.0
 70
    24
 71
     3
 72
     8
 73
     4
 74
     0
 42
0.0000000001
 43
0.0000000001
 40
0.0
 40
0.0
 40
0.0
 40
0.0
 40
1.0
 40
1.0
 40
1.0
 40
1.0
 10
-13.9931
 20
-24.1775
 30
0.0
 10
-13.9931
 20
-24.1775
 30
0.0
 10
-3.1701
 20
-24.1775
 30
0.0
 10
-3.1701
 20
-24.1775
 30
0.0
  0
SPLINE
  5
60
330
1F
100
AcDbEntity
  8
DEFAULT_1
 62
   250
100
AcDbSpline
210
0.0
220
0.0
230
1.0
 70
    24
 71
     3
 72
     8
 73
     4
 74
     0
 42
0.0000000001
 43
0.0000000001
 40
0.0
 40
0.0
 40
0.0
 40
0.0
 40
1.0
 40
1.0
 40
1.0
 40
1.0
 10
-13.9788
 20
-23.5872
 30
0.0
 10
-13.9788
 20
-23.5872
 30
0.0
 10
-12.6763
 20
-23.5872
 30
0.0
 10
-12.6763
 20
-23.5872
 30
0.0
  0
SPLINE
  5
61
330
1F
100
AcDbEntity
  8
DEFAULT_1
 62
   250
100
AcDbSpline
210
0.0
220
0.0
230
1.0
 70
    24
 71
     3
 72
     8
 73
     4
 74
     0
 42
0.0000000001
 43
0.0000000001
 40
0.0
 40
0.0
 40
0.0
 40
0.0
 40
1.0
 40
1.0
 40
1.0
 40
1.0
 10
-12.1196
 20
-23.5872
 30
0.0
 10
-12.1196
 20
-23.5872
 30
0.0
 10
-8.9751
 20
-23.5872
 30
0.0
 10
-8.9751
 20
-23.5872
 30
0.0
  0
SPLINE
  5
62
330
1F
100
AcDbEntity
  8
DEFAULT_1
 62
   250
100
AcDbSpline
210
0.0
220
0.0
230
1.0
 70
    24
 71
     3
 72
     8
 73
     4
 74
     0
 42
0.0000000001
 43
0.0000000001
 40
0.0
 40
0.0
 40
0.0
 40
0.0
 40
1.0
 40
1.0
 40
1.0
 40
1.0
 10
-8.188
 20
-23.5872
 30
0.0
 10
-8.188
 20
-23.5872
 30
0.0
 10
-5.0435
 20
-23.5872
 30
0.0
 10
-5.0435
 20
-23.5872
 30
0.0
  0
SPLINE
  5
63
330
1F
100
AcDbEntity
  8
DEFAULT_1
 62
   250
100
AcDbSpline
210
0.0
220
0.0
230
1.0
 70
    24
 71
     3
 72
     8
 73
     4
 74
     0
 42
0.0000000001
 43
0.0000000001
 40
0.0
 40
0.0
 40
0.0
 40
0.0
 40
1.0
 40
1.0
 40
1.0
 40
1.0
 10
-4.4869
 20
-23.5872
 30
0.0
 10
-4.4869
 20
-23.5872
 30
0.0
 10
-3.1844
 20
-23.5872
 30
0.0
 10
-3.1844
 20
-23.5872
 30
0.0
  0
SPLINE
  5
64
330
1F
100
AcDbEntity
  8
DEFAULT_1
 62
   250
100
AcDbSpline
210
0.0
220
0.0
230
1.0
 70
    24
 71
     3
 72
     8
 73
     4
 74
     0
 42
0.0000000001
 43
0.0000000001
 40
0.0
 40
0.0
 40
0.0
 40
0.0
 40
1.0
 40
1.0
 40
1.0
 40
1.0
 10
-20.9198
 20
24.7229
 30
0.0
 10
-20.9198
 20
24.7229
 30
0.0
 10
-20.9198
 20
23.3455
 30
0.0
 10
-20.9198
 20
23.3455
 30
0.0
  0
SPLINE
  5
65
330
1F
100
AcDbEntity
  8
DEFAULT_1
 62
   250
100
AcDbSpline
210
0.0
220
0.0
230
1.0
 70
    24
 71
     3
 72
     8
 73
     4
 74
     0
 42
0.0000000001
 43
0.0000000001
 40
0.0
 40
0.0
 40
0.0
 40
0.0
 40
1.0
 40
1.0
 40
1.0
 40
1.0
 10
-20.9198
 20
-17.6837
 30
0.0
 10
-20.9198
 20
-17.6837
 30
0.0
 10
-20.9198
 20
-16.3062
 30
0.0
 10
-20.9198
 20
-16.3062
 30
0.0
  0
SPLINE
  5
66
330
1F
100
AcDbEntity
  8
DEFAULT_1
 62
   250
100
AcDbSpline
210
0.0
220
0.0
230
1.0
 70
    24
 71
     3
 72
     8
 73
     4
 74
     0
 42
0.0000000001
 43
0.0000000001
 40
0.0
 40
0.0
 40
0.0
 40
0.0
 40
1.0
 40
1.0
 40
1.0
 40
1.0
 10
-20.1327
 20
24.7229
 30
0.0
 10
-20.1327
 20
24.7229
 30
0.0
 10
-20.1327
 20
23.3455
 30
0.0
 10
-20.1327
 20
23.3455
 30
0.0
  0
SPLINE
  5
67
330
1F
100
AcDbEntity
  8
DEFAULT_1
 62
   250
100
AcDbSpline
210
0.0
220
0.0
230
1.0
 70
    24
 71
     3
 72
     8
 73
     4
 74
     0
 42
0.0000000001
 43
0.0000000001
 40
0.0
 40
0.0
 40
0.0
 40
0.0
 40
1.0
 40
1.0
 40
1.0
 40
1.0
 10
-20.1327
 20
-17.6837
 30
0.0
 10
-20.1327
 20
-17.6837
 30
0.0
 10
-20.1327
 20
-16.3062
 30
0.0
 10
-20.1327
 20
-16.3062
 30
0.0
  0
SPLINE
  5
68
330
1F
100
AcDbEntity
  8
DEFAULT_1
 62
   250
100
AcDbSpline
210
0.0
220
0.0
230
1.0
 70
    24
 71
     3
 72
     8
 73
     4
 74
     0
 42
0.0000000001
 43
0.0000000001
 40
0.0
 40
0.0
 40
0.0
 40
0.0
 40
1.0
 40
1.0
 40
1.0
 40
1.0
 10
-3.662
 20
-21.029
 30
0.0
 10
-3.662
 20
-21.029
 30
0.0
 10
-13.5011
 20
-21.029
 30
0.0
 10
-13.5011
 20
-21.029
 30
0.0
  0
SPLINE
  5
69
330
1F
100
AcDbEntity
  8
DEFAULT_1
 62
   250
100
AcDbSpline
210
0.0
220
0.0
230
1.0
 70
    24
 71
     3
 72
     8
 73
     4
 74
     0
 42
0.0000000001
 43
0.0000000001
 40
0.0
 40
0.0
 40
0.0
 40
0.0
 40
1.0
 40
1.0
 40
1.0
 40
1.0
 10
-16.9881
 20
24.7229
 30
0.0
 10
-16.9881
 20
24.7229
 30
0.0
 10
-16.9881
 20
23.3455
 30
0.0
 10
-16.9881
 20
23.3455
 30
0.0
  0
SPLINE
  5
6A
330
1F
100
AcDbEntity
  8
DEFAULT_1
 62
   250
100
AcDbSpline
210
0.0
220
0.0
230
1.0
 70
    24
 71
     3
 72
     8
 73
     4
 74
     0
 42
0.0000000001
 43
0.0000000001
 40
0.0
 40
0.0
 40
0.0
 40
0.0
 40
1.0
 40
1.0
 40
1.0
 40
1.0
 10
-16.9881
 20
-17.6837
 30
0.0
 10
-16.9881
 20
-17.6837
 30
0.0
 10
-16.9881
 20
-16.3062
 30
0.0
 10
-16.9881
 20
-16.3062
 30
0.0
  0
SPLINE
  5
6B
330
1F
100
AcDbEntity
  8
DEFAULT_1
 62
   250
100
AcDbSpline
210
0.0
220
0.0
230
1.0
 70
    24
 71
     3
 72
     8
 73
     4
 74
     0
 42
0.0000000001
 43
0.0000000001
 40
0.0
 40
0.0
 40
0.0
 40
0.0
 40
1.0
 40
1.0
 40
1.0
 40
1.0
 10
-16.4316
 20
24.7229
 30
0.0
 10
-16.4316
 20
24.7229
 30
0.0
 10
-16.4316
 20
23.3455
 30
0.0
 10
-16.4316
 20
23.3455
 30
0.0
  0
SPLINE
  5
6C
330
1F
100
AcDbEntity
  8
DEFAULT_1
 62
   250
100
AcDbSpline
210
0.0
220
0.0
230
1.0
 70
    24
 71
     3
 72
     8
 73
     4
 74
     0
 42
0.0000000001
 43
0.0000000001
 40
0.0
 40
0.0
 40
0.0
 40
0.0
 40
1.0
 40
1.0
 40
1.0
 40
1.0
 10
-16.4316
 20
-17.6837
 30
0.0
 10
-16.4316
 20
-17.6837
 30
0.0
 10
-16.4316
 20
-16.3062
 30
0.0
 10
-16.4316
 20
-16.3062
 30
0.0
  0
SPLINE
  5
6D
330
1F
100
AcDbEntity
  8
DEFAULT_1
 62
   250
100
AcDbSpline
210
0.0
220
0.0
230
1.0
 70
    24
 71
     3
 72
     8
 73
     4
 74
     0
 42
0.0000000001
 43
0.0000000001
 40
0.0
 40
0.0
 40
0.0
 40
0.0
 40
1.0
 40
1.0
 40
1.0
 40
1.0
 10
-16.0987
 20
-26.8341
 30
0.0
 10
-16.0987
 20
-26.8341
 30
0.0
 10
-16.0987
 20
-18.8428
 30
0.0
 10
-16.0987
 20
-18.8428
 30
0.0
  0
SPLINE
  5
6E
330
1F
100
AcDbEntity
  8
DEFAULT_1
 62
   250
100
AcDbSpline
210
0.0
220
0.0
230
1.0
 70
    24
 71
     3
 72
     8
 73
     4
 74
     0
 42
0.0000000001
 43
0.0000000001
 40
0.0
 40
0.0
 40
0.0
 40
0.0
 40
1.0
 40
1.0
 40
1.0
 40
1.0
 10
-15.8625
 20
-18.8265
 30
0.0
 10
-15.8625
 20
-18.8265
 30
0.0
 10
-15.8625
 20
-18.274
 30
0.0
 10
-15.8625
 20
-18.274
 30
0.0
  0
SPLINE
  5
6F
330
1F
100
AcDbEntity
  8
DEFAULT_1
 62
   250
100
AcDbSpline
210
0.0
220
0.0
230
1.0
 70
    24
 71
     3
 72
     8
 73
     4
 74
     0
 42
0.0000000001
 43
0.0000000001
 40
0.0
 40
0.0
 40
0.0
 40
0.0
 40
1.0
 40
1.0
 40
1.0
 40
1.0
 10
-15.2131
 20
-15.5191
 30
0.0
 10
-15.2131
 20
-15.5191
 30
0.0
 10
-15.2131
 20
-15.9127
 30
0.0
 10
-15.2131
 20
-15.9127
 30
0.0
  0
SPLINE
  5
70
330
1F
100
AcDbEntity
  8
DEFAULT_1
 62
   250
100
AcDbSpline
210
0.0
220
0.0
230
1.0
 70
    24
 71
     3
 72
     8
 73
     4
 74
     0
 42
0.0000000001
 43
0.0000000001
 40
0.0
 40
0.0
 40
0.0
 40
0.0
 40
1.0
 40
1.0
 40
1.0
 40
1.0
 10
-15.2131
 20
22.5583
 30
0.0
 10
-15.2131
 20
22.5583
 30
0.0
 10
-15.2131
 20
22.9519
 30
0.0
 10
-15.2131
 20
22.9519
 30
0.0
  0
SPLINE
  5
71
330
1F
100
AcDbEntity
  8
DEFAULT_1
 62
   250
100
AcDbSpline
210
0.0
220
0.0
230
1.0
 70
    24
 71
     3
 72
     8
 73
     4
 74
     0
 42
0.0000000001
 43
0.0000000001
 40
0.0
 40
0.0
 40
0.0
 40
0.0
 40
1.0
 40
1.0
 40
1.0
 40
1.0
 10
-15.1147
 20
-15.7941
 30
0.0
 10
-15.1147
 20
-15.7941
 30
0.0
 10
-15.1147
 20
-18.274
 30
0.0
 10
-15.1147
 20
-18.274
 30
0.0
  0
SPLINE
  5
72
330
1F
100
AcDbEntity
  8
DEFAULT_1
 62
   250
100
AcDbSpline
210
0.0
220
0.0
230
1.0
 70
    24
 71
     3
 72
     8
 73
     4
 74
     0
 42
0.0000000001
 43
0.0000000001
 40
0.0
 40
0.0
 40
0.0
 40
0.0
 40
1.0
 40
1.0
 40
1.0
 40
1.0
 10
-15.1147
 20
22.665
 30
0.0
 10
-15.1147
 20
22.665
 30
0.0
 10
-15.1147
 20
25.3133
 30
0.0
 10
-15.1147
 20
25.3133
 30
0.0
  0
SPLINE
  5
73
330
1F
100
AcDbEntity
  8
DEFAULT_1
 62
   250
100
AcDbSpline
210
0.0
220
0.0
230
1.0
 70
    24
 71
     3
 72
     8
 73
     4
 74
     0
 42
0.0000000001
 43
0.0000000001
 40
0.0
 40
0.0
 40
0.0
 40
0.0
 40
1.0
 40
1.0
 40
1.0
 40
1.0
 10
-13.9931
 20
-21.5216
 30
0.0
 10
-13.9931
 20
-21.5216
 30
0.0
 10
-13.9931
 20
-24.1775
 30
0.0
 10
-13.9931
 20
-24.1775
 30
0.0
  0
SPLINE
  5
74
330
1F
100
AcDbEntity
  8
DEFAULT_1
 62
   250
100
AcDbSpline
210
0.0
220
0.0
230
1.0
 70
    24
 71
     3
 72
     8
 73
     4
 74
     0
 42
0.0000000001
 43
0.0000000001
 40
0.0
 40
0.0
 40
0.0
 40
0.0
 40
1.0
 40
1.0
 40
1.0
 40
1.0
 10
-25.19
 20
-18.8265
 30
0.0
 10
-25.19
 20
-18.8265
 30
0.0
 10
-15.8625
 20
-18.8265
 30
0.0
 10
-15.8625
 20
-18.8265
 30
0.0
  0
SPLINE
  5
75
330
1F
100
AcDbEntity
  8
DEFAULT_1
 62
   250
100
AcDbSpline
210
0.0
220
0.0
230
1.0
 70
    24
 71
     3
 72
     8
 73
     4
 74
     0
 42
0.0000000001
 43
0.0000000001
 40
0.0
 40
0.0
 40
0.0
 40
0.0
 40
1.0
 40
1.0
 40
1.0
 40
1.0
 10
-25.9378
 20
-18.274
 30
0.0
 10
-25.9378
 20
-18.274
 30
0.0
 10
-15.1147
 20
-18.274
 30
0.0
 10
-15.1147
 20
-18.274
 30
0.0
  0
SPLINE
  5
76
330
1F
100
AcDbEntity
  8
DEFAULT_1
 62
   250
100
AcDbSpline
210
0.0
220
0.0
230
1.0
 70
    24
 71
     3
 72
     8
 73
     4
 74
     0
 42
0.0000000001
 43
0.0000000001
 40
0.0
 40
0.0
 40
0.0
 40
0.0
 40
1.0
 40
1.0
 40
1.0
 40
1.0
 10
-25.9235
 20
-17.6837
 30
0.0
 10
-25.9235
 20
-17.6837
 30
0.0
 10
-24.621
 20
-17.6837
 30
0.0
 10
-24.621
 20
-17.6837
 30
0.0
  0
SPLINE
  5
77
330
1F
100
AcDbEntity
  8
DEFAULT_1
 62
   250
100
AcDbSpline
210
0.0
220
0.0
230
1.0
 70
    24
 71
     3
 72
     8
 73
     4
 74
     0
 42
0.0000000001
 43
0.0000000001
 40
0.0
 40
0.0
 40
0.0
 40
0.0
 40
1.0
 40
1.0
 40
1.0
 40
1.0
 10
-24.0644
 20
-17.6837
 30
0.0
 10
-24.0644
 20
-17.6837
 30
0.0
 10
-20.9198
 20
-17.6837
 30
0.0
 10
-20.9198
 20
-17.6837
 30
0.0
  0
SPLINE
  5
78
330
1F
100
AcDbEntity
  8
DEFAULT_1
 62
   250
100
AcDbSpline
210
0.0
220
0.0
230
1.0
 70
    24
 71
     3
 72
     8
 73
     4
 74
     0
 42
0.0000000001
 43
0.0000000001
 40
0.0
 40
0.0
 40
0.0
 40
0.0
 40
1.0
 40
1.0
 40
1.0
 40
1.0
 10
-20.1327
 20
-17.6837
 30
0.0
 10
-20.1327
 20
-17.6837
 30
0.0
 10
-16.9881
 20
-17.6837
 30
0.0
 10
-16.9881
 20
-17.6837
 30
0.0
  0
SPLINE
  5
79
330
1F
100
AcDbEntity
  8
DEFAULT_1
 62
   250
100
AcDbSpline
210
0.0
220
0.0
230
1.0
 70
    24
 71
     3
 72
     8
 73
     4
 74
     0
 42
0.0000000001
 43
0.0000000001
 40
0.0
 40
0.0
 40
0.0
 40
0.0
 40
1.0
 40
1.0
 40
1.0
 40
1.0
 10
-16.4316
 20
-17.6837
 30
0.0
 10
-16.4316
 20
-17.6837
 30
0.0
 10
-15.1291
 20
-17.6837
 30
0.0
 10
-15.1291
 20
-17.6837
 30
0.0
  0
SPLINE
  5
7A
330
1F
100
AcDbEntity
  8
DEFAULT_1
 62
   250
100
AcDbSpline
210
0.0
220
0.0
230
1.0
 70
    24
 71
     3
 72
     8
 73
     4
 74
     0
 42
0.0000000001
 43
0.0000000001
 40
0.0
 40
0.0
 40
0.0
 40
0.0
 40
1.0
 40
1.0
 40
1.0
 40
1.0
 10
-13.8947
 20
-21.4226
 30
0.0
 10
-13.8947
 20
-21.4226
 30
0.0
 10
-13.8947
 20
-21.8161
 30
0.0
 10
-13.8947
 20
-21.8161
 30
0.0
  0
SPLINE
  5
7B
330
1F
100
AcDbEntity
  8
DEFAULT_1
 62
   250
100
AcDbSpline
210
0.0
220
0.0
230
1.0
 70
    24
 71
     3
 72
     8
 73
     4
 74
     0
 42
0.0000000001
 43
0.0000000001
 40
0.0
 40
0.0
 40
0.0
 40
0.0
 40
1.0
 40
1.0
 40
1.0
 40
1.0
 10
-13.2453
 20
-24.1775
 30
0.0
 10
-13.2453
 20
-24.1775
 30
0.0
 10
-13.2453
 20
-24.7299
 30
0.0
 10
-13.2453
 20
-24.7299
 30
0.0
  0
SPLINE
  5
7C
330
1F
100
AcDbEntity
  8
DEFAULT_1
 62
   250
100
AcDbSpline
210
0.0
220
0.0
230
1.0
 70
    24
 71
     3
 72
     8
 73
     4
 74
     0
 42
0.0000000001
 43
0.0000000001
 40
0.0
 40
0.0
 40
0.0
 40
0.0
 40
1.0
 40
1.0
 40
1.0
 40
1.0
 10
-13.0092
 20
-24.7354
 30
0.0
 10
-13.0092
 20
-24.7354
 30
0.0
 10
-13.0092
 20
-26.8341
 30
0.0
 10
-13.0092
 20
-26.8341
 30
0.0
  0
SPLINE
  5
7D
330
1F
100
AcDbEntity
  8
DEFAULT_1
 62
   250
100
AcDbSpline
210
0.0
220
0.0
230
1.0
 70
    24
 71
     3
 72
     8
 73
     4
 74
     0
 42
0.0000000001
 43
0.0000000001
 40
0.0
 40
0.0
 40
0.0
 40
0.0
 40
1.0
 40
1.0
 40
1.0
 40
1.0
 10
-12.6763
 20
-23.5872
 30
0.0
 10
-12.6763
 20
-23.5872
 30
0.0
 10
-12.6763
 20
-22.2097
 30
0.0
 10
-12.6763
 20
-22.2097
 30
0.0
  0
SPLINE
  5
7E
330
1F
100
AcDbEntity
  8
DEFAULT_1
 62
   250
100
AcDbSpline
210
0.0
220
0.0
230
1.0
 70
    24
 71
     3
 72
     8
 73
     4
 74
     0
 42
0.0000000001
 43
0.0000000001
 40
0.0
 40
0.0
 40
0.0
 40
0.0
 40
1.0
 40
1.0
 40
1.0
 40
1.0
 10
-12.1196
 20
-23.5872
 30
0.0
 10
-12.1196
 20
-23.5872
 30
0.0
 10
-12.1196
 20
-22.2097
 30
0.0
 10
-12.1196
 20
-22.2097
 30
0.0
  0
SPLINE
  5
7F
330
1F
100
AcDbEntity
  8
DEFAULT_1
 62
   250
100
AcDbSpline
210
0.0
220
0.0
230
1.0
 70
    24
 71
     3
 72
     8
 73
     4
 74
     0
 42
0.0000000001
 43
0.0000000001
 40
0.0
 40
0.0
 40
0.0
 40
0.0
 40
1.0
 40
1.0
 40
1.0
 40
1.0
 10
-15.6067
 20
-15.1255
 30
0.0
 10
-15.6067
 20
-15.1255
 30
0.0
 10
-25.4458
 20
-15.1255
 30
0.0
 10
-25.4458
 20
-15.1255
 30
0.0
  0
SPLINE
  5
80
330
1F
100
AcDbEntity
  8
DEFAULT_1
 62
   250
100
AcDbSpline
210
0.0
220
0.0
230
1.0
 70
    24
 71
     3
 72
     8
 73
     4
 74
     0
 42
0.0000000001
 43
0.0000000001
 40
0.0
 40
0.0
 40
0.0
 40
0.0
 40
1.0
 40
1.0
 40
1.0
 40
1.0
 10
-8.9751
 20
-23.5872
 30
0.0
 10
-8.9751
 20
-23.5872
 30
0.0
 10
-8.9751
 20
-22.2097
 30
0.0
 10
-8.9751
 20
-22.2097
 30
0.0
  0
SPLINE
  5
81
330
1F
100
AcDbEntity
  8
DEFAULT_1
 62
   250
100
AcDbSpline
210
0.0
220
0.0
230
1.0
 70
    24
 71
     3
 72
     8
 73
     4
 74
     0
 42
0.0000000001
 43
0.0000000001
 40
0.0
 40
0.0
 40
0.0
 40
0.0
 40
1.0
 40
1.0
 40
1.0
 40
1.0
 10
-8.188
 20
-23.5872
 30
0.0
 10
-8.188
 20
-23.5872
 30
0.0
 10
-8.188
 20
-22.2097
 30
0.0
 10
-8.188
 20
-22.2097
 30
0.0
  0
SPLINE
  5
82
330
1F
100
AcDbEntity
  8
DEFAULT_1
 62
   250
100
AcDbSpline
210
0.0
220
0.0
230
1.0
 70
    24
 71
     3
 72
     8
 73
     4
 74
     0
 42
0.0000000001
 43
0.0000000001
 40
0.0
 40
0.0
 40
0.0
 40
0.0
 40
1.0
 40
1.0
 40
1.0
 40
1.0
 10
-5.0435
 20
-23.5872
 30
0.0
 10
-5.0435
 20
-23.5872
 30
0.0
 10
-5.0435
 20
-22.2097
 30
0.0
 10
-5.0435
 20
-22.2097
 30
0.0
  0
SPLINE
  5
83
330
1F
100
AcDbEntity
  8
DEFAULT_1
 62
   250
100
AcDbSpline
210
0.0
220
0.0
230
1.0
 70
    24
 71
     3
 72
     8
 73
     4
 74
     0
 42
0.0000000001
 43
0.0000000001
 40
0.0
 40
0.0
 40
0.0
 40
0.0
 40
1.0
 40
1.0
 40
1.0
 40
1.0
 10
-4.4869
 20
-23.5872
 30
0.0
 10
-4.4869
 20
-23.5872
 30
0.0
 10
-4.4869
 20
-22.2097
 30
0.0
 10
-4.4869
 20
-22.2097
 30
0.0
  0
SPLINE
  5
84
330
1F
100
AcDbEntity
  8
DEFAULT_1
 62
   250
100
AcDbSpline
210
0.0
220
0.0
230
1.0
 70
    24
 71
     3
 72
     8
 73
     4
 74
     0
 42
0.0000000001
 43
0.0000000001
 40
0.0
 40
0.0
 40
0.0
 40
0.0
 40
1.0
 40
1.0
 40
1.0
 40
1.0
 10
-4.154
 20
-24.7193
 30
0.0
 10
-4.154
 20
-24.7193
 30
0.0
 10
-4.154
 20
-26.8341
 30
0.0
 10
-4.154
 20
-26.8341
 30
0.0
  0
SPLINE
  5
85
330
1F
100
AcDbEntity
  8
DEFAULT_1
 62
   250
100
AcDbSpline
210
0.0
220
0.0
230
1.0
 70
    24
 71
     3
 72
     8
 73
     4
 74
     0
 42
0.0000000001
 43
0.0000000001
 40
0.0
 40
0.0
 40
0.0
 40
0.0
 40
1.0
 40
1.0
 40
1.0
 40
1.0
 10
-3.9178
 20
-24.1775
 30
0.0
 10
-3.9178
 20
-24.1775
 30
0.0
 10
-3.9178
 20
-24.7299
 30
0.0
 10
-3.9178
 20
-24.7299
 30
0.0
  0
SPLINE
  5
86
330
1F
100
AcDbEntity
  8
DEFAULT_1
 62
   250
100
AcDbSpline
210
0.0
220
0.0
230
1.0
 70
    24
 71
     3
 72
     8
 73
     4
 74
     0
 42
0.0000000001
 43
0.0000000001
 40
0.0
 40
0.0
 40
0.0
 40
0.0
 40
1.0
 40
1.0
 40
1.0
 40
1.0
 10
-3.2684
 20
-21.4226
 30
0.0
 10
-3.2684
 20
-21.4226
 30
0.0
 10
-3.2684
 20
-21.8161
 30
0.0
 10
-3.2684
 20
-21.8161
 30
0.0
  0
SPLINE
  5
87
330
1F
100
AcDbEntity
  8
DEFAULT_1
 62
   250
100
AcDbSpline
210
0.0
220
0.0
230
1.0
 70
    24
 71
     3
 72
     8
 73
     4
 74
     0
 42
0.0000000001
 43
0.0000000001
 40
0.0
 40
0.0
 40
0.0
 40
0.0
 40
1.0
 40
1.0
 40
1.0
 40
1.0
 10
-3.1701
 20
-21.4408
 30
0.0
 10
-3.1701
 20
-21.4408
 30
0.0
 10
-3.1701
 20
-24.1775
 30
0.0
 10
-3.1701
 20
-24.1775
 30
0.0
  0
SPLINE
  5
88
330
1F
100
AcDbEntity
  8
DEFAULT_1
 62
   250
100
AcDbSpline
210
0.0
220
0.0
230
1.0
 70
    24
 71
     3
 72
     8
 73
     4
 74
     0
 42
0.0000000001
 43
0.0000000001
 40
0.0
 40
0.0
 40
0.0
 40
0.0
 40
1.0
 40
1.0
 40
1.0
 40
1.0
 10
-16.511
 20
-27.2964
 30
0.0
 10
-16.511
 20
-27.2964
 30
0.0
 10
-16.0987
 20
-26.8341
 30
0.0
 10
-16.0987
 20
-26.8341
 30
0.0
  0
SPLINE
  5
89
330
1F
100
AcDbEntity
  8
DEFAULT_1
 62
   250
100
AcDbSpline
210
0.0
220
0.0
230
1.0
 70
    24
 71
     3
 72
     8
 73
     4
 74
     0
 42
0.0000000001
 43
0.0000000001
 40
0.0
 40
0.0
 40
0.0
 40
0.0
 40
1.0
 40
1.0
 40
1.0
 40
1.0
 10
-4.154
 20
-26.8341
 30
0.0
 10
-4.154
 20
-26.8341
 30
0.0
 10
-4.5663
 20
-27.2964
 30
0.0
 10
-4.5663
 20
-27.2964
 30
0.0
  0
SPLINE
  5
8A
330
1F
100
AcDbEntity
  8
DEFAULT_1
 62
   250
100
AcDbSpline
210
0.0
220
0.0
230
1.0
 70
    24
 71
     3
 72
     8
 73
     4
 74
     0
 42
0.0000000001
 43
0.0000000001
 40
0.0
 40
0.0
 40
0.0
 40
0.0
 40
1.0
 40
1.0
 40
1.0
 40
1.0
 10
-25.4458
 20
22.1648
 30
0.0
 10
-25.4458
 20
22.1648
 30
0.0
 10
-15.6067
 20
22.1648
 30
0.0
 10
-15.6067
 20
22.1648
 30
0.0
  0
SPLINE
  5
8B
330
1F
100
AcDbEntity
  8
DEFAULT_1
 62
   250
100
AcDbSpline
210
0.0
220
0.0
230
1.0
 70
    24
 71
     3
 72
     8
 73
     4
 74
     0
 42
0.0000000001
 43
0.0000000001
 40
0.0
 40
0.0
 40
0.0
 40
0.0
 40
1.0
 40
1.0
 40
1.0
 40
1.0
 10
-15.1291
 20
24.7229
 30
0.0
 10
-15.1291
 20
24.7229
 30
0.0
 10
-16.4316
 20
24.7229
 30
0.0
 10
-16.4316
 20
24.7229
 30
0.0
  0
SPLINE
  5
8C
330
1F
100
AcDbEntity
  8
DEFAULT_1
 62
   250
100
AcDbSpline
210
0.0
220
0.0
230
1.0
 70
    24
 71
     3
 72
     8
 73
     4
 74
     0
 42
0.0000000001
 43
0.0000000001
 40
0.0
 40
0.0
 40
0.0
 40
0.0
 40
1.0
 40
1.0
 40
1.0
 40
1.0
 10
-16.9881
 20
24.7229
 30
0.0
 10
-16.9881
 20
24.7229
 30
0.0
 10
-20.1327
 20
24.7229
 30
0.0
 10
-20.1327
 20
24.7229
 30
0.0
  0
SPLINE
  5
8D
330
1F
100
AcDbEntity
  8
DEFAULT_1
 62
   250
100
AcDbSpline
210
0.0
220
0.0
230
1.0
 70
    24
 71
     3
 72
     8
 73
     4
 74
     0
 42
0.0000000001
 43
0.0000000001
 40
0.0
 40
0.0
 40
0.0
 40
0.0
 40
1.0
 40
1.0
 40
1.0
 40
1.0
 10
-20.9198
 20
24.7229
 30
0.0
 10
-20.9198
 20
24.7229
 30
0.0
 10
-24.0644
 20
24.7229
 30
0.0
 10
-24.0644
 20
24.7229
 30
0.0
  0
SPLINE
  5
8E
330
1F
100
AcDbEntity
  8
DEFAULT_1
 62
   250
100
AcDbSpline
210
0.0
220
0.0
230
1.0
 70
    24
 71
     3
 72
     8
 73
     4
 74
     0
 42
0.0000000001
 43
0.0000000001
 40
0.0
 40
0.0
 40
0.0
 40
0.0
 40
1.0
 40
1.0
 40
1.0
 40
1.0
 10
-24.621
 20
24.7229
 30
0.0
 10
-24.621
 20
24.7229
 30
0.0
 10
-25.9235
 20
24.7229
 30
0.0
 10
-25.9235
 20
24.7229
 30
0.0
  0
SPLINE
  5
8F
330
1F
100
AcDbEntity
  8
DEFAULT_1
 62
   250
100
AcDbSpline
210
0.0
220
0.0
230
1.0
 70
    24
 71
     3
 72
     8
 73
     4
 74
     0
 42
0.0000000001
 43
0.0000000001
 40
0.0
 40
0.0
 40
0.0
 40
0.0
 40
1.0
 40
1.0
 40
1.0
 40
1.0
 10
-15.1147
 20
25.3133
 30
0.0
 10
-15.1147
 20
25.3133
 30
0.0
 10
-25.9378
 20
25.3133
 30
0.0
 10
-25.9378
 20
25.3133
 30
0.0
  0
SPLINE
  5
90
330
1F
100
AcDbEntity
  8
DEFAULT_1
 62
   250
100
AcDbSpline
210
0.0
220
0.0
230
1.0
 70
     8
 71
     3
 72
    12
 73
     8
 74
     0
 42
0.0000000001
 43
0.0000000001
 40
0.0
 40
0.0
 40
0.0
 40
0.0
 40
0.3333333333333333
 40
0.3333333333333333
 40
0.3333333333333333
 40
0.3333333333333333
 40
1.0
 40
1.0
 40
1.0
 40
1.0
 10
-20.1327
 20
-16.3062
 30
0.0
 10
-20.1327
 20
-16.0888
 30
0.0
 10
-20.3089
 20
-15.9127
 30
0.0
 10
-20.5263
 20
-15.9127
 30
0.0
 10
-20.5263
 20
-15.9127
 30
0.0
 10
-20.7436
 20
-15.9127
 30
0.0
 10
-20.9198
 20
-16.0888
 30
0.0
 10
-20.9198
 20
-16.3062
 30
0.0
  0
SPLINE
  5
91
330
1F
100
AcDbEntity
  8
DEFAULT_1
 62
   250
100
AcDbSpline
210
0.0
220
0.0
230
1.0
 70
     8
 71
     3
 72
     8
 73
     4
 74
     0
 42
0.0000000001
 43
0.0000000001
 40
0.0
 40
0.0
 40
0.0
 40
0.0
 40
1.0
 40
1.0
 40
1.0
 40
1.0
 10
-15.2131
 20
-15.5191
 30
0.0
 10
-15.2131
 20
-15.3017
 30
0.0
 10
-15.3893
 20
-15.1255
 30
0.0
 10
-15.6067
 20
-15.1255
 30
0.0
  0
SPLINE
  5
92
330
1F
100
AcDbEntity
  8
DEFAULT_1
 62
   250
100
AcDbSpline
210
0.0
220
0.0
230
1.0
 70
     8
 71
     3
 72
     8
 73
     4
 74
     0
 42
0.0000000001
 43
0.0000000001
 40
0.0
 40
0.0
 40
0.0
 40
0.0
 40
1.0
 40
1.0
 40
1.0
 40
1.0
 10
-25.4458
 20
-15.1255
 30
0.0
 10
-25.6632
 20
-15.1255
 30
0.0
 10
-25.8394
 20
-15.3017
 30
0.0
 10
-25.8394
 20
-15.5191
 30
0.0
  0
SPLINE
  5
93
330
1F
100
AcDbEntity
  8
DEFAULT_1
 62
   250
100
AcDbSpline
210
0.0
220
0.0
230
1.0
 70
     8
 71
     3
 72
    12
 73
     8
 74
     0
 42
0.0000000001
 43
0.0000000001
 40
0.0
 40
0.0
 40
0.0
 40
0.0
 40
0.3333333333333333
 40
0.3333333333333333
 40
0.3333333333333333
 40
0.3333333333333333
 40
1.0
 40
1.0
 40
1.0
 40
1.0
 10
-8.188
 20
-22.2097
 30
0.0
 10
-8.188
 20
-21.9923
 30
0.0
 10
-8.3642
 20
-21.8161
 30
0.0
 10
-8.5816
 20
-21.8161
 30
0.0
 10
-8.5816
 20
-21.8161
 30
0.0
 10
-8.7989
 20
-21.8161
 30
0.0
 10
-8.9751
 20
-21.9923
 30
0.0
 10
-8.9751
 20
-22.2097
 30
0.0
  0
SPLINE
  5
94
330
1F
100
AcDbEntity
  8
DEFAULT_1
 62
   250
100
AcDbSpline
210
0.0
220
0.0
230
1.0
 70
     8
 71
     3
 72
     8
 73
     4
 74
     0
 42
0.0000000001
 43
0.0000000001
 40
0.0
 40
0.0
 40
0.0
 40
0.0
 40
1.0
 40
1.0
 40
1.0
 40
1.0
 10
-3.2684
 20
-21.4226
 30
0.0
 10
-3.2684
 20
-21.2052
 30
0.0
 10
-3.4446
 20
-21.029
 30
0.0
 10
-3.662
 20
-21.029
 30
0.0
  0
SPLINE
  5
95
330
1F
100
AcDbEntity
  8
DEFAULT_1
 62
   250
100
AcDbSpline
210
0.0
220
0.0
230
1.0
 70
     8
 71
     3
 72
     8
 73
     4
 74
     0
 42
0.0000000001
 43
0.0000000001
 40
0.0
 40
0.0
 40
0.0
 40
0.0
 40
1.0
 40
1.0
 40
1.0
 40
1.0
 10
-13.5011
 20
-21.029
 30
0.0
 10
-13.7185
 20
-21.029
 30
0.0
 10
-13.8947
 20
-21.2052
 30
0.0
 10
-13.8947
 20
-21.4226
 30
0.0
  0
SPLINE
  5
96
330
1F
100
AcDbEntity
  8
DEFAULT_1
 62
   250
100
AcDbSpline
210
0.0
220
0.0
230
1.0
 70
     8
 71
     3
 72
    12
 73
     8
 74
     0
 42
0.0000000001
 43
0.0000000001
 40
0.0
 40
0.0
 40
0.0
 40
0.0
 40
0.3333333333333333
 40
0.3333333333333333
 40
0.3333333333333333
 40
0.3333333333333333
 40
1.0
 40
1.0
 40
1.0
 40
1.0
 10
-20.9198
 20
23.3455
 30
0.0
 10
-20.9198
 20
23.1281
 30
0.0
 10
-20.7436
 20
22.9519
 30
0.0
 10
-20.5263
 20
22.9519
 30
0.0
 10
-20.5263
 20
22.9519
 30
0.0
 10
-20.3089
 20
22.9519
 30
0.0
 10
-20.1327
 20
23.1281
 30
0.0
 10
-20.1327
 20
23.3455
 30
0.0
  0
SPLINE
  5
97
330
1F
100
AcDbEntity
  8
DEFAULT_1
 62
   250
100
AcDbSpline
210
0.0
220
0.0
230
1.0
 70
     8
 71
     3
 72
     8
 73
     4
 74
     0
 42
0.0000000001
 43
0.0000000001
 40
0.0
 40
0.0
 40
0.0
 40
0.0
 40
1.0
 40
1.0
 40
1.0
 40
1.0
 10
-25.8394
 20
22.5583
 30
0.0
 10
-25.8394
 20
22.3409
 30
0.0
 10
-25.6632
 20
22.1648
 30
0.0
 10
-25.4458
 20
22.1648
 30
0.0
  0
SPLINE
  5
98
330
1F
100
AcDbEntity
  8
DEFAULT_1
 62
   250
100
AcDbSpline
210
0.0
220
0.0
230
1.0
 70
     8
 71
     3
 72
     8
 73
     4
 74
     0
 42
0.0000000001
 43
0.0000000001
 40
0.0
 40
0.0
 40
0.0
 40
0.0
 40
1.0
 40
1.0
 40
1.0
 40
1.0
 10
-15.6067
 20
22.1648
 30
0.0
 10
-15.3893
 20
22.1648
 30
0.0
 10
-15.2131
 20
22.3409
 30
0.0
 10
-15.2131
 20
22.5583
 30
0.0
  0
SPLINE
  5
99
330
1F
100
AcDbEntity
  8
DEFAULT_1
 62
   250
100
AcDbSpline
210
0.0
220
0.0
230
1.0
 70
     8
 71
     3
 72
    12
 73
     8
 74
     0
 42
0.0000000001
 43
0.0000000001
 40
0.0
 40
0.0
 40
0.0
 40
0.0
 40
0.3333333333333333
 40
0.3333333333333333
 40
0.3333333333333333
 40
0.3333333333333333
 40
1.0
 40
1.0
 40
1.0
 40
1.0
 10
-16.484
 20
-27.2924
 30
0.0
 10
-16.115
 20
-28.0192
 30
0.0
 10
-15.369
 20
-28.4771
 30
0.0
 10
-14.5539
 20
-28.4771
 30
0.0
 10
-14.5539
 20
-28.4771
 30
0.0
 10
-13.7388
 20
-28.4771
 30
0.0
 10
-12.9929
 20
-28.0192
 30
0.0
 10
-12.6238
 20
-27.2924
 30
0.0
  0
SPLINE
  5
9A
330
1F
100
AcDbEntity
  8
DEFAULT_1
 62
   250
100
AcDbSpline
210
0.0
220
0.0
230
1.0
 70
     8
 71
     3
 72
     8
 73
     4
 74
     0
 42
0.0000000001
 43
0.0000000001
 40
0.0
 40
0.0
 40
0.0
 40
0.0
 40
1.0
 40
1.0
 40
1.0
 40
1.0
 10
-24.5415
 20
-27.2964
 30
0.0
 10
-24.1387
 20
-31.3852
 30
0.0
 10
-21.2843
 20
-34.8155
 30
0.0
 10
-17.3369
 20
-35.9549
 30
0.0
  0
SPLINE
  5
9B
330
1F
100
AcDbEntity
  8
DEFAULT_1
 62
   250
100
AcDbSpline
210
0.0
220
0.0
230
1.0
 70
     8
 71
     3
 72
     8
 73
     4
 74
     0
 42
0.0000000001
 43
0.0000000001
 40
0.0
 40
0.0
 40
0.0
 40
0.0
 40
1.0
 40
1.0
 40
1.0
 40
1.0
 10
-11.7728
 20
-35.9554
 30
0.0
 10
-7.8244
 20
-34.8166
 30
0.0
 10
-4.9692
 20
-31.3859
 30
0.0
 10
-4.5663
 20
-27.2964
 30
0.0
  0
SPLINE
  5
9C
330
1F
100
AcDbEntity
  8
DEFAULT_1
 62
   250
100
AcDbSpline
210
0.0
220
0.0
230
1.0
 70
     8
 71
     3
 72
    28
 73
    24
 74
     0
 42
0.0000000001
 43
0.0000000001
 40
0.0
 40
0.0
 40
0.0
 40
0.0
 40
0.1428571428571428
 40
0.1428571428571428
 40
0.1428571428571428
 40
0.1428571428571428
 40
0.2857142857142857
 40
0.2857142857142857
 40
0.2857142857142857
 40
0.2857142857142857
 40
0.4285714285714285
 40
0.4285714285714285
 40
0.4285714285714285
 40
0.4285714285714285
 40
0.5714285714285714
 40
0.5714285714285714
 40
0.5714285714285714
 40
0.5714285714285714
 40
0.7142857142857143
 40
0.7142857142857143
 40
0.7142857142857143
 40
0.7142857142857143
 40
1.0
 40
1.0
 40
1.0
 40
1.0
 10
-24.3528
 20
-15.9127
 30
0.0
 10
-24.3528
 20
-15.9127
 30
0.0
 10
-24.4241
 20
-15.926
 30
0.0
 10
-24.4241
 20
-15.926
 30
0.0
 10
-24.4241
 20
-15.926
 30
0.0
 10
-24.4241
 20
-15.926
 30
0.0
 10
-24.4894
 20
-15.9653
 30
0.0
 10
-24.4894
 20
-15.9653
 30
0.0
 10
-24.4894
 20
-15.9653
 30
0.0
 10
-24.4894
 20
-15.9653
 30
0.0
 10
-24.5445
 20
-16.0279
 30
0.0
 10
-24.5445
 20
-16.0279
 30
0.0
 10
-24.5445
 20
-16.0279
 30
0.0
 10
-24.5445
 20
-16.0279
 30
0.0
 10
-24.5862
 20
-16.1095
 30
0.0
 10
-24.5862
 20
-16.1095
 30
0.0
 10
-24.5862
 20
-16.1095
 30
0.0
 10
-24.5862
 20
-16.1095
 30
0.0
 10
-24.6121
 20
-16.2045
 30
0.0
 10
-24.6121
 20
-16.2045
 30
0.0
 10
-24.6121
 20
-16.2045
 30
0.0
 10
-24.6121
 20
-16.2045
 30
0.0
 10
-24.621
 20
-16.3062
 30
0.0
 10
-24.621
 20
-16.3062
 30
0.0
  0
SPLINE
  5
9D
330
1F
100
AcDbEntity
  8
DEFAULT_1
 62
   250
100
AcDbSpline
210
0.0
220
0.0
230
1.0
 70
     8
 71
     3
 72
    28
 73
    24
 74
     0
 42
0.0000000001
 43
0.0000000001
 40
0.0
 40
0.0
 40
0.0
 40
0.0
 40
0.1428571428571428
 40
0.1428571428571428
 40
0.1428571428571428
 40
0.1428571428571428
 40
0.2857142857142857
 40
0.2857142857142857
 40
0.2857142857142857
 40
0.2857142857142857
 40
0.4285714285714285
 40
0.4285714285714285
 40
0.4285714285714285
 40
0.4285714285714285
 40
0.5714285714285714
 40
0.5714285714285714
 40
0.5714285714285714
 40
0.5714285714285714
 40
0.7142857142857143
 40
0.7142857142857143
 40
0.7142857142857143
 40
0.7142857142857143
 40
1.0
 40
1.0
 40
1.0
 40
1.0
 10
-16.6997
 20
-15.9127
 30
0.0
 10
-16.6997
 20
-15.9127
 30
0.0
 10
-16.6285
 20
-15.926
 30
0.0
 10
-16.6285
 20
-15.926
 30
0.0
 10
-16.6285
 20
-15.926
 30
0.0
 10
-16.6285
 20
-15.926
 30
0.0
 10
-16.5632
 20
-15.9653
 30
0.0
 10
-16.5632
 20
-15.9653
 30
0.0
 10
-16.5632
 20
-15.9653
 30
0.0
 10
-16.5632
 20
-15.9653
 30
0.0
 10
-16.508
 20
-16.0279
 30
0.0
 10
-16.508
 20
-16.0279
 30
0.0
 10
-16.508
 20
-16.0279
 30
0.0
 10
-16.508
 20
-16.0279
 30
0.0
 10
-16.4663
 20
-16.1095
 30
0.0
 10
-16.4663
 20
-16.1095
 30
0.0
 10
-16.4663
 20
-16.1095
 30
0.0
 10
-16.4663
 20
-16.1095
 30
0.0
 10
-16.4404
 20
-16.2045
 30
0.0
 10
-16.4404
 20
-16.2045
 30
0.0
 10
-16.4404
 20
-16.2045
 30
0.0
 10
-16.4404
 20
-16.2045
 30
0.0
 10
-16.4316
 20
-16.3062
 30
0.0
 10
-16.4316
 20
-16.3062
 30
0.0
  0
SPLINE
  5
9E
330
1F
100
AcDbEntity
  8
DEFAULT_1
 62
   250
100
AcDbSpline
210
0.0
220
0.0
230
1.0
 70
     8
 71
     3
 72
    28
 73
    24
 74
     0
 42
0.0000000001
 43
0.0000000001
 40
0.0
 40
0.0
 40
0.0
 40
0.0
 40
0.1428571428571428
 40
0.1428571428571428
 40
0.1428571428571428
 40
0.1428571428571428
 40
0.2857142857142857
 40
0.2857142857142857
 40
0.2857142857142857
 40
0.2857142857142857
 40
0.4285714285714285
 40
0.4285714285714285
 40
0.4285714285714285
 40
0.4285714285714285
 40
0.5714285714285714
 40
0.5714285714285714
 40
0.5714285714285714
 40
0.5714285714285714
 40
0.7142857142857143
 40
0.7142857142857143
 40
0.7142857142857143
 40
0.7142857142857143
 40
1.0
 40
1.0
 40
1.0
 40
1.0
 10
-16.9881
 20
-16.3062
 30
0.0
 10
-16.9881
 20
-16.3062
 30
0.0
 10
-16.978
 20
-16.2045
 30
0.0
 10
-16.978
 20
-16.2045
 30
0.0
 10
-16.978
 20
-16.2045
 30
0.0
 10
-16.978
 20
-16.2045
 30
0.0
 10
-16.9484
 20
-16.1095
 30
0.0
 10
-16.9484
 20
-16.1095
 30
0.0
 10
-16.9484
 20
-16.1095
 30
0.0
 10
-16.9484
 20
-16.1095
 30
0.0
 10
-16.9016
 20
-16.0279
 30
0.0
 10
-16.9016
 20
-16.0279
 30
0.0
 10
-16.9016
 20
-16.0279
 30
0.0
 10
-16.9016
 20
-16.0279
 30
0.0
 10
-16.8414
 20
-15.9653
 30
0.0
 10
-16.8414
 20
-15.9653
 30
0.0
 10
-16.8414
 20
-15.9653
 30
0.0
 10
-16.8414
 20
-15.9653
 30
0.0
 10
-16.7724
 20
-15.926
 30
0.0
 10
-16.7724
 20
-15.926
 30
0.0
 10
-16.7724
 20
-15.926
 30
0.0
 10
-16.7724
 20
-15.926
 30
0.0
 10
-16.6997
 20
-15.9127
 30
0.0
 10
-16.6997
 20
-15.9127
 30
0.0
  0
SPLINE
  5
9F
330
1F
100
AcDbEntity
  8
DEFAULT_1
 62
   250
100
AcDbSpline
210
0.0
220
0.0
230
1.0
 70
     8
 71
     3
 72
    28
 73
    24
 74
     0
 42
0.0000000001
 43
0.0000000001
 40
0.0
 40
0.0
 40
0.0
 40
0.0
 40
0.1428571428571428
 40
0.1428571428571428
 40
0.1428571428571428
 40
0.1428571428571428
 40
0.2857142857142857
 40
0.2857142857142857
 40
0.2857142857142857
 40
0.2857142857142857
 40
0.4285714285714285
 40
0.4285714285714285
 40
0.4285714285714285
 40
0.4285714285714285
 40
0.5714285714285714
 40
0.5714285714285714
 40
0.5714285714285714
 40
0.5714285714285714
 40
0.7142857142857143
 40
0.7142857142857143
 40
0.7142857142857143
 40
0.7142857142857143
 40
1.0
 40
1.0
 40
1.0
 40
1.0
 10
-24.0644
 20
-16.3062
 30
0.0
 10
-24.0644
 20
-16.3062
 30
0.0
 10
-24.0745
 20
-16.2045
 30
0.0
 10
-24.0745
 20
-16.2045
 30
0.0
 10
-24.0745
 20
-16.2045
 30
0.0
 10
-24.0745
 20
-16.2045
 30
0.0
 10
-24.1041
 20
-16.1095
 30
0.0
 10
-24.1041
 20
-16.1095
 30
0.0
 10
-24.1041
 20
-16.1095
 30
0.0
 10
-24.1041
 20
-16.1095
 30
0.0
 10
-24.1509
 20
-16.0279
 30
0.0
 10
-24.1509
 20
-16.0279
 30
0.0
 10
-24.1509
 20
-16.0279
 30
0.0
 10
-24.1509
 20
-16.0279
 30
0.0
 10
-24.2112
 20
-15.9653
 30
0.0
 10
-24.2112
 20
-15.9653
 30
0.0
 10
-24.2112
 20
-15.9653
 30
0.0
 10
-24.2112
 20
-15.9653
 30
0.0
 10
-24.2802
 20
-15.926
 30
0.0
 10
-24.2802
 20
-15.926
 30
0.0
 10
-24.2802
 20
-15.926
 30
0.0
 10
-24.2802
 20
-15.926
 30
0.0
 10
-24.3528
 20
-15.9127
 30
0.0
 10
-24.3528
 20
-15.9127
 30
0.0
  0
SPLINE
  5
A0
330
1F
100
AcDbEntity
  8
DEFAULT_1
 62
   250
100
AcDbSpline
210
0.0
220
0.0
230
1.0
 70
     8
 71
     3
 72
    28
 73
    24
 74
     0
 42
0.0000000001
 43
0.0000000001
 40
0.0
 40
0.0
 40
0.0
 40
0.0
 40
0.1428571428571428
 40
0.1428571428571428
 40
0.1428571428571428
 40
0.1428571428571428
 40
0.2857142857142857
 40
0.2857142857142857
 40
0.2857142857142857
 40
0.2857142857142857
 40
0.4285714285714285
 40
0.4285714285714285
 40
0.4285714285714285
 40
0.4285714285714285
 40
0.5714285714285714
 40
0.5714285714285714
 40
0.5714285714285714
 40
0.5714285714285714
 40
0.7142857142857143
 40
0.7142857142857143
 40
0.7142857142857143
 40
0.7142857142857143
 40
1.0
 40
1.0
 40
1.0
 40
1.0
 10
-12.4081
 20
-21.8161
 30
0.0
 10
-12.4081
 20
-21.8161
 30
0.0
 10
-12.4794
 20
-21.8295
 30
0.0
 10
-12.4794
 20
-21.8295
 30
0.0
 10
-12.4794
 20
-21.8295
 30
0.0
 10
-12.4794
 20
-21.8295
 30
0.0
 10
-12.5446
 20
-21.8688
 30
0.0
 10
-12.5446
 20
-21.8688
 30
0.0
 10
-12.5446
 20
-21.8688
 30
0.0
 10
-12.5446
 20
-21.8688
 30
0.0
 10
-12.5998
 20
-21.9314
 30
0.0
 10
-12.5998
 20
-21.9314
 30
0.0
 10
-12.5998
 20
-21.9314
 30
0.0
 10
-12.5998
 20
-21.9314
 30
0.0
 10
-12.6415
 20
-22.013
 30
0.0
 10
-12.6415
 20
-22.013
 30
0.0
 10
-12.6415
 20
-22.013
 30
0.0
 10
-12.6415
 20
-22.013
 30
0.0
 10
-12.6674
 20
-22.1079
 30
0.0
 10
-12.6674
 20
-22.1079
 30
0.0
 10
-12.6674
 20
-22.1079
 30
0.0
 10
-12.6674
 20
-22.1079
 30
0.0
 10
-12.6763
 20
-22.2097
 30
0.0
 10
-12.6763
 20
-22.2097
 30
0.0
  0
SPLINE
  5
A1
330
1F
100
AcDbEntity
  8
DEFAULT_1
 62
   250
100
AcDbSpline
210
0.0
220
0.0
230
1.0
 70
     8
 71
     3
 72
    28
 73
    24
 74
     0
 42
0.0000000001
 43
0.0000000001
 40
0.0
 40
0.0
 40
0.0
 40
0.0
 40
0.1428571428571428
 40
0.1428571428571428
 40
0.1428571428571428
 40
0.1428571428571428
 40
0.2857142857142857
 40
0.2857142857142857
 40
0.2857142857142857
 40
0.2857142857142857
 40
0.4285714285714285
 40
0.4285714285714285
 40
0.4285714285714285
 40
0.4285714285714285
 40
0.5714285714285714
 40
0.5714285714285714
 40
0.5714285714285714
 40
0.5714285714285714
 40
0.7142857142857143
 40
0.7142857142857143
 40
0.7142857142857143
 40
0.7142857142857143
 40
1.0
 40
1.0
 40
1.0
 40
1.0
 10
-4.755
 20
-21.8161
 30
0.0
 10
-4.755
 20
-21.8161
 30
0.0
 10
-4.6838
 20
-21.8295
 30
0.0
 10
-4.6838
 20
-21.8295
 30
0.0
 10
-4.6838
 20
-21.8295
 30
0.0
 10
-4.6838
 20
-21.8295
 30
0.0
 10
-4.6185
 20
-21.8688
 30
0.0
 10
-4.6185
 20
-21.8688
 30
0.0
 10
-4.6185
 20
-21.8688
 30
0.0
 10
-4.6185
 20
-21.8688
 30
0.0
 10
-4.5633
 20
-21.9314
 30
0.0
 10
-4.5633
 20
-21.9314
 30
0.0
 10
-4.5633
 20
-21.9314
 30
0.0
 10
-4.5633
 20
-21.9314
 30
0.0
 10
-4.5216
 20
-22.013
 30
0.0
 10
-4.5216
 20
-22.013
 30
0.0
 10
-4.5216
 20
-22.013
 30
0.0
 10
-4.5216
 20
-22.013
 30
0.0
 10
-4.4956
 20
-22.1079
 30
0.0
 10
-4.4956
 20
-22.1079
 30
0.0
 10
-4.4956
 20
-22.1079
 30
0.0
 10
-4.4956
 20
-22.1079
 30
0.0
 10
-4.4869
 20
-22.2097
 30
0.0
 10
-4.4869
 20
-22.2097
 30
0.0
  0
SPLINE
  5
A2
330
1F
100
AcDbEntity
  8
DEFAULT_1
 62
   250
100
AcDbSpline
210
0.0
220
0.0
230
1.0
 70
     8
 71
     3
 72
    28
 73
    24
 74
     0
 42
0.0000000001
 43
0.0000000001
 40
0.0
 40
0.0
 40
0.0
 40
0.0
 40
0.1428571428571428
 40
0.1428571428571428
 40
0.1428571428571428
 40
0.1428571428571428
 40
0.2857142857142857
 40
0.2857142857142857
 40
0.2857142857142857
 40
0.2857142857142857
 40
0.4285714285714285
 40
0.4285714285714285
 40
0.4285714285714285
 40
0.4285714285714285
 40
0.5714285714285714
 40
0.5714285714285714
 40
0.5714285714285714
 40
0.5714285714285714
 40
0.7142857142857143
 40
0.7142857142857143
 40
0.7142857142857143
 40
0.7142857142857143
 40
1.0
 40
1.0
 40
1.0
 40
1.0
 10
-5.0435
 20
-22.2097
 30
0.0
 10
-5.0435
 20
-22.2097
 30
0.0
 10
-5.0333
 20
-22.1079
 30
0.0
 10
-5.0333
 20
-22.1079
 30
0.0
 10
-5.0333
 20
-22.1079
 30
0.0
 10
-5.0333
 20
-22.1079
 30
0.0
 10
-5.0037
 20
-22.013
 30
0.0
 10
-5.0037
 20
-22.013
 30
0.0
 10
-5.0037
 20
-22.013
 30
0.0
 10
-5.0037
 20
-22.013
 30
0.0
 10
-4.9569
 20
-21.9314
 30
0.0
 10
-4.9569
 20
-21.9314
 30
0.0
 10
-4.9569
 20
-21.9314
 30
0.0
 10
-4.9569
 20
-21.9314
 30
0.0
 10
-4.8967
 20
-21.8688
 30
0.0
 10
-4.8967
 20
-21.8688
 30
0.0
 10
-4.8967
 20
-21.8688
 30
0.0
 10
-4.8967
 20
-21.8688
 30
0.0
 10
-4.8277
 20
-21.8295
 30
0.0
 10
-4.8277
 20
-21.8295
 30
0.0
 10
-4.8277
 20
-21.8295
 30
0.0
 10
-4.8277
 20
-21.8295
 30
0.0
 10
-4.755
 20
-21.8161
 30
0.0
 10
-4.755
 20
-21.8161
 30
0.0
  0
SPLINE
  5
A3
330
1F
100
AcDbEntity
  8
DEFAULT_1
 62
   250
100
AcDbSpline
210
0.0
220
0.0
230
1.0
 70
     8
 71
     3
 72
    28
 73
    24
 74
     0
 42
0.0000000001
 43
0.0000000001
 40
0.0
 40
0.0
 40
0.0
 40
0.0
 40
0.1428571428571428
 40
0.1428571428571428
 40
0.1428571428571428
 40
0.1428571428571428
 40
0.2857142857142857
 40
0.2857142857142857
 40
0.2857142857142857
 40
0.2857142857142857
 40
0.4285714285714285
 40
0.4285714285714285
 40
0.4285714285714285
 40
0.4285714285714285
 40
0.5714285714285714
 40
0.5714285714285714
 40
0.5714285714285714
 40
0.5714285714285714
 40
0.7142857142857143
 40
0.7142857142857143
 40
0.7142857142857143
 40
0.7142857142857143
 40
1.0
 40
1.0
 40
1.0
 40
1.0
 10
-12.1196
 20
-22.2097
 30
0.0
 10
-12.1196
 20
-22.2097
 30
0.0
 10
-12.1298
 20
-22.1079
 30
0.0
 10
-12.1298
 20
-22.1079
 30
0.0
 10
-12.1298
 20
-22.1079
 30
0.0
 10
-12.1298
 20
-22.1079
 30
0.0
 10
-12.1595
 20
-22.013
 30
0.0
 10
-12.1595
 20
-22.013
 30
0.0
 10
-12.1595
 20
-22.013
 30
0.0
 10
-12.1595
 20
-22.013
 30
0.0
 10
-12.2063
 20
-21.9314
 30
0.0
 10
-12.2063
 20
-21.9314
 30
0.0
 10
-12.2063
 20
-21.9314
 30
0.0
 10
-12.2063
 20
-21.9314
 30
0.0
 10
-12.2665
 20
-21.8688
 30
0.0
 10
-12.2665
 20
-21.8688
 30
0.0
 10
-12.2665
 20
-21.8688
 30
0.0
 10
-12.2665
 20
-21.8688
 30
0.0
 10
-12.3355
 20
-21.8295
 30
0.0
 10
-12.3355
 20
-21.8295
 30
0.0
 10
-12.3355
 20
-21.8295
 30
0.0
 10
-12.3355
 20
-21.8295
 30
0.0
 10
-12.4081
 20
-21.8161
 30
0.0
 10
-12.4081
 20
-21.8161
 30
0.0
  0
SPLINE
  5
A4
330
1F
100
AcDbEntity
  8
DEFAULT_1
 62
   250
100
AcDbSpline
210
0.0
220
0.0
230
1.0
 70
     8
 71
     3
 72
    28
 73
    24
 74
     0
 42
0.0000000001
 43
0.0000000001
 40
0.0
 40
0.0
 40
0.0
 40
0.0
 40
0.1428571428571428
 40
0.1428571428571428
 40
0.1428571428571428
 40
0.1428571428571428
 40
0.2857142857142857
 40
0.2857142857142857
 40
0.2857142857142857
 40
0.2857142857142857
 40
0.4285714285714285
 40
0.4285714285714285
 40
0.4285714285714285
 40
0.4285714285714285
 40
0.5714285714285714
 40
0.5714285714285714
 40
0.5714285714285714
 40
0.5714285714285714
 40
0.7142857142857143
 40
0.7142857142857143
 40
0.7142857142857143
 40
0.7142857142857143
 40
1.0
 40
1.0
 40
1.0
 40
1.0
 10
-16.6997
 20
22.9519
 30
0.0
 10
-16.6997
 20
22.9519
 30
0.0
 10
-16.6285
 20
22.9653
 30
0.0
 10
-16.6285
 20
22.9653
 30
0.0
 10
-16.6285
 20
22.9653
 30
0.0
 10
-16.6285
 20
22.9653
 30
0.0
 10
-16.5632
 20
23.0045
 30
0.0
 10
-16.5632
 20
23.0045
 30
0.0
 10
-16.5632
 20
23.0045
 30
0.0
 10
-16.5632
 20
23.0045
 30
0.0
 10
-16.508
 20
23.0671
 30
0.0
 10
-16.508
 20
23.0671
 30
0.0
 10
-16.508
 20
23.0671
 30
0.0
 10
-16.508
 20
23.0671
 30
0.0
 10
-16.4663
 20
23.1488
 30
0.0
 10
-16.4663
 20
23.1488
 30
0.0
 10
-16.4663
 20
23.1488
 30
0.0
 10
-16.4663
 20
23.1488
 30
0.0
 10
-16.4404
 20
23.2437
 30
0.0
 10
-16.4404
 20
23.2437
 30
0.0
 10
-16.4404
 20
23.2437
 30
0.0
 10
-16.4404
 20
23.2437
 30
0.0
 10
-16.4316
 20
23.3455
 30
0.0
 10
-16.4316
 20
23.3455
 30
0.0
  0
SPLINE
  5
A5
330
1F
100
AcDbEntity
  8
DEFAULT_1
 62
   250
100
AcDbSpline
210
0.0
220
0.0
230
1.0
 70
     8
 71
     3
 72
    28
 73
    24
 74
     0
 42
0.0000000001
 43
0.0000000001
 40
0.0
 40
0.0
 40
0.0
 40
0.0
 40
0.1428571428571428
 40
0.1428571428571428
 40
0.1428571428571428
 40
0.1428571428571428
 40
0.2857142857142857
 40
0.2857142857142857
 40
0.2857142857142857
 40
0.2857142857142857
 40
0.4285714285714285
 40
0.4285714285714285
 40
0.4285714285714285
 40
0.4285714285714285
 40
0.5714285714285714
 40
0.5714285714285714
 40
0.5714285714285714
 40
0.5714285714285714
 40
0.7142857142857143
 40
0.7142857142857143
 40
0.7142857142857143
 40
0.7142857142857143
 40
1.0
 40
1.0
 40
1.0
 40
1.0
 10
-24.3528
 20
22.9519
 30
0.0
 10
-24.3528
 20
22.9519
 30
0.0
 10
-24.4241
 20
22.9653
 30
0.0
 10
-24.4241
 20
22.9653
 30
0.0
 10
-24.4241
 20
22.9653
 30
0.0
 10
-24.4241
 20
22.9653
 30
0.0
 10
-24.4894
 20
23.0045
 30
0.0
 10
-24.4894
 20
23.0045
 30
0.0
 10
-24.4894
 20
23.0045
 30
0.0
 10
-24.4894
 20
23.0045
 30
0.0
 10
-24.5445
 20
23.0671
 30
0.0
 10
-24.5445
 20
23.0671
 30
0.0
 10
-24.5445
 20
23.0671
 30
0.0
 10
-24.5445
 20
23.0671
 30
0.0
 10
-24.5862
 20
23.1488
 30
0.0
 10
-24.5862
 20
23.1488
 30
0.0
 10
-24.5862
 20
23.1488
 30
0.0
 10
-24.5862
 20
23.1488
 30
0.0
 10
-24.6121
 20
23.2437
 30
0.0
 10
-24.6121
 20
23.2437
 30
0.0
 10
-24.6121
 20
23.2437
 30
0.0
 10
-24.6121
 20
23.2437
 30
0.0
 10
-24.621
 20
23.3455
 30
0.0
 10
-24.621
 20
23.3455
 30
0.0
  0
SPLINE
  5
A6
330
1F
100
AcDbEntity
  8
DEFAULT_1
 62
   250
100
AcDbSpline
210
0.0
220
0.0
230
1.0
 70
     8
 71
     3
 72
    28
 73
    24
 74
     0
 42
0.0000000001
 43
0.0000000001
 40
0.0
 40
0.0
 40
0.0
 40
0.0
 40
0.1428571428571428
 40
0.1428571428571428
 40
0.1428571428571428
 40
0.1428571428571428
 40
0.2857142857142857
 40
0.2857142857142857
 40
0.2857142857142857
 40
0.2857142857142857
 40
0.4285714285714285
 40
0.4285714285714285
 40
0.4285714285714285
 40
0.4285714285714285
 40
0.5714285714285714
 40
0.5714285714285714
 40
0.5714285714285714
 40
0.5714285714285714
 40
0.7142857142857143
 40
0.7142857142857143
 40
0.7142857142857143
 40
0.7142857142857143
 40
1.0
 40
1.0
 40
1.0
 40
1.0
 10
-24.0644
 20
23.3455
 30
0.0
 10
-24.0644
 20
23.3455
 30
0.0
 10
-24.0745
 20
23.2437
 30
0.0
 10
-24.0745
 20
23.2437
 30
0.0
 10
-24.0745
 20
23.2437
 30
0.0
 10
-24.0745
 20
23.2437
 30
0.0
 10
-24.1041
 20
23.1488
 30
0.0
 10
-24.1041
 20
23.1488
 30
0.0
 10
-24.1041
 20
23.1488
 30
0.0
 10
-24.1041
 20
23.1488
 30
0.0
 10
-24.1509
 20
23.0671
 30
0.0
 10
-24.1509
 20
23.0671
 30
0.0
 10
-24.1509
 20
23.0671
 30
0.0
 10
-24.1509
 20
23.0671
 30
0.0
 10
-24.2112
 20
23.0045
 30
0.0
 10
-24.2112
 20
23.0045
 30
0.0
 10
-24.2112
 20
23.0045
 30
0.0
 10
-24.2112
 20
23.0045
 30
0.0
 10
-24.2802
 20
22.9653
 30
0.0
 10
-24.2802
 20
22.9653
 30
0.0
 10
-24.2802
 20
22.9653
 30
0.0
 10
-24.2802
 20
22.9653
 30
0.0
 10
-24.3528
 20
22.9519
 30
0.0
 10
-24.3528
 20
22.9519
 30
0.0
  0
SPLINE
  5
A7
330
1F
100
AcDbEntity
  8
DEFAULT_1
 62
   250
100
AcDbSpline
210
0.0
220
0.0
230
1.0
 70
     8
 71
     3
 72
    28
 73
    24
 74
     0
 42
0.0000000001
 43
0.0000000001
 40
0.0
 40
0.0
 40
0.0
 40
0.0
 40
0.1428571428571428
 40
0.1428571428571428
 40
0.1428571428571428
 40
0.1428571428571428
 40
0.2857142857142857
 40
0.2857142857142857
 40
0.2857142857142857
 40
0.2857142857142857
 40
0.4285714285714285
 40
0.4285714285714285
 40
0.4285714285714285
 40
0.4285714285714285
 40
0.5714285714285714
 40
0.5714285714285714
 40
0.5714285714285714
 40
0.5714285714285714
 40
0.7142857142857143
 40
0.7142857142857143
 40
0.7142857142857143
 40
0.7142857142857143
 40
1.0
 40
1.0
 40
1.0
 40
1.0
 10
-16.9881
 20
23.3455
 30
0.0
 10
-16.9881
 20
23.3455
 30
0.0
 10
-16.978
 20
23.2437
 30
0.0
 10
-16.978
 20
23.2437
 30
0.0
 10
-16.978
 20
23.2437
 30
0.0
 10
-16.978
 20
23.2437
 30
0.0
 10
-16.9484
 20
23.1488
 30
0.0
 10
-16.9484
 20
23.1488
 30
0.0
 10
-16.9484
 20
23.1488
 30
0.0
 10
-16.9484
 20
23.1488
 30
0.0
 10
-16.9016
 20
23.0671
 30
0.0
 10
-16.9016
 20
23.0671
 30
0.0
 10
-16.9016
 20
23.0671
 30
0.0
 10
-16.9016
 20
23.0671
 30
0.0
 10
-16.8414
 20
23.0045
 30
0.0
 10
-16.8414
 20
23.0045
 30
0.0
 10
-16.8414
 20
23.0045
 30
0.0
 10
-16.8414
 20
23.0045
 30
0.0
 10
-16.7724
 20
22.9653
 30
0.0
 10
-16.7724
 20
22.9653
 30
0.0
 10
-16.7724
 20
22.9653
 30
0.0
 10
-16.7724
 20
22.9653
 30
0.0
 10
-16.6997
 20
22.9519
 30
0.0
 10
-16.6997
 20
22.9519
 30
0.0
  0
SPLINE
  5
A8
330
1F
100
AcDbEntity
  8
DEFAULT_1
 62
   250
100
AcDbSpline
210
0.0
220
0.0
230
1.0
 70
     8
 71
     3
 72
    36
 73
    32
 74
     0
 42
0.0000000001
 43
0.0000000001
 40
0.0
 40
0.0
 40
0.0
 40
0.0
 40
0.1111111111111111
 40
0.1111111111111111
 40
0.1111111111111111
 40
0.1111111111111111
 40
0.2222222222222222
 40
0.2222222222222222
 40
0.2222222222222222
 40
0.2222222222222222
 40
0.3333333333333333
 40
0.3333333333333333
 40
0.3333333333333333
 40
0.3333333333333333
 40
0.4444444444444444
 40
0.4444444444444444
 40
0.4444444444444444
 40
0.4444444444444444
 40
0.5555555555555556
 40
0.5555555555555556
 40
0.5555555555555556
 40
0.5555555555555556
 40
0.6666666666666666
 40
0.6666666666666666
 40
0.6666666666666666
 40
0.6666666666666666
 40
0.7777777777777778
 40
0.7777777777777778
 40
0.7777777777777778
 40
0.7777777777777778
 40
1.0
 40
1.0
 40
1.0
 40
1.0
 10
-20.5591
 20
-27.3855
 30
0.0
 10
-20.5591
 20
-27.3855
 30
0.0
 10
-19.9411
 20
-27.3892
 30
0.0
 10
-19.9411
 20
-27.3892
 30
0.0
 10
-19.9411
 20
-27.3892
 30
0.0
 10
-19.9411
 20
-27.3892
 30
0.0
 10
-19.334
 20
-27.3884
 30
0.0
 10
-19.334
 20
-27.3884
 30
0.0
 10
-19.334
 20
-27.3884
 30
0.0
 10
-19.334
 20
-27.3884
 30
0.0
 10
-18.754
 20
-27.3824
 30
0.0
 10
-18.754
 20
-27.3824
 30
0.0
 10
-18.754
 20
-27.3824
 30
0.0
 10
-18.754
 20
-27.3824
 30
0.0
 10
-18.2156
 20
-27.3711
 30
0.0
 10
-18.2156
 20
-27.3711
 30
0.0
 10
-18.2156
 20
-27.3711
 30
0.0
 10
-18.2156
 20
-27.3711
 30
0.0
 10
-17.7317
 20
-27.355
 30
0.0
 10
-17.7317
 20
-27.355
 30
0.0
 10
-17.7317
 20
-27.355
 30
0.0
 10
-17.7317
 20
-27.355
 30
0.0
 10
-17.3167
 20
-27.3356
 30
0.0
 10
-17.3167
 20
-27.3356
 30
0.0
 10
-17.3167
 20
-27.3356
 30
0.0
 10
-17.3167
 20
-27.3356
 30
0.0
 10
-16.9804
 20
-27.3151
 30
0.0
 10
-16.9804
 20
-27.3151
 30
0.0
 10
-16.9804
 20
-27.3151
 30
0.0
 10
-16.9804
 20
-27.3151
 30
0.0
 10
-16.7295
 20
-27.2964
 30
0.0
 10
-16.7295
 20
-27.2964
 30
0.0
  0
SPLINE
  5
A9
330
1F
100
AcDbEntity
  8
DEFAULT_1
 62
   250
100
AcDbSpline
210
0.0
220
0.0
230
1.0
 70
     8
 71
     3
 72
    36
 73
    32
 74
     0
 42
0.0000000001
 43
0.0000000001
 40
0.0
 40
0.0
 40
0.0
 40
0.0
 40
0.1111111111111111
 40
0.1111111111111111
 40
0.1111111111111111
 40
0.1111111111111111
 40
0.2222222222222222
 40
0.2222222222222222
 40
0.2222222222222222
 40
0.2222222222222222
 40
0.3333333333333333
 40
0.3333333333333333
 40
0.3333333333333333
 40
0.3333333333333333
 40
0.4444444444444444
 40
0.4444444444444444
 40
0.4444444444444444
 40
0.4444444444444444
 40
0.5555555555555556
 40
0.5555555555555556
 40
0.5555555555555556
 40
0.5555555555555556
 40
0.6666666666666666
 40
0.6666666666666666
 40
0.6666666666666666
 40
0.6666666666666666
 40
0.7777777777777778
 40
0.7777777777777778
 40
0.7777777777777778
 40
0.7777777777777778
 40
1.0
 40
1.0
 40
1.0
 40
1.0
 10
-12.3784
 20
-27.2964
 30
0.0
 10
-12.3784
 20
-27.2964
 30
0.0
 10
-12.1275
 20
-27.3151
 30
0.0
 10
-12.1275
 20
-27.3151
 30
0.0
 10
-12.1275
 20
-27.3151
 30
0.0
 10
-12.1275
 20
-27.3151
 30
0.0
 10
-11.791
 20
-27.3356
 30
0.0
 10
-11.791
 20
-27.3356
 30
0.0
 10
-11.791
 20
-27.3356
 30
0.0
 10
-11.791
 20
-27.3356
 30
0.0
 10
-11.3761
 20
-27.355
 30
0.0
 10
-11.3761
 20
-27.355
 30
0.0
 10
-11.3761
 20
-27.355
 30
0.0
 10
-11.3761
 20
-27.355
 30
0.0
 10
-10.8922
 20
-27.3711
 30
0.0
 10
-10.8922
 20
-27.3711
 30
0.0
 10
-10.8922
 20
-27.3711
 30
0.0
 10
-10.8922
 20
-27.3711
 30
0.0
 10
-10.3537
 20
-27.3824
 30
0.0
 10
-10.3537
 20
-27.3824
 30
0.0
 10
-10.3537
 20
-27.3824
 30
0.0
 10
-10.3537
 20
-27.3824
 30
0.0
 10
-9.7738
 20
-27.3884
 30
0.0
 10
-9.7738
 20
-27.3884
 30
0.0
 10
-9.7738
 20
-27.3884
 30
0.0
 10
-9.7738
 20
-27.3884
 30
0.0
 10
-9.1667
 20
-27.3892
 30
0.0
 10
-9.1667
 20
-27.3892
 30
0.0
 10
-9.1667
 20
-27.3892
 30
0.0
 10
-9.1667
 20
-27.3892
 30
0.0
 10
-8.5487
 20
-27.3855
 30
0.0
 10
-8.5487
 20
-27.3855
 30
0.0
  0
SPLINE
  5
AA
330
1F
100
AcDbEntity
  8
DEFAULT_1
 62
   250
100
AcDbSpline
210
0.0
220
0.0
230
1.0
 70
     8
 71
     3
 72
    36
 73
    32
 74
     0
 42
0.0000000001
 43
0.0000000001
 40
0.0
 40
0.0
 40
0.0
 40
0.0
 40
0.1111111111111111
 40
0.1111111111111111
 40
0.1111111111111111
 40
0.1111111111111111
 40
0.2222222222222222
 40
0.2222222222222222
 40
0.2222222222222222
 40
0.2222222222222222
 40
0.3333333333333333
 40
0.3333333333333333
 40
0.3333333333333333
 40
0.3333333333333333
 40
0.4444444444444444
 40
0.4444444444444444
 40
0.4444444444444444
 40
0.4444444444444444
 40
0.5555555555555556
 40
0.5555555555555556
 40
0.5555555555555556
 40
0.5555555555555556
 40
0.6666666666666666
 40
0.6666666666666666
 40
0.6666666666666666
 40
0.6666666666666666
 40
0.7777777777777778
 40
0.7777777777777778
 40
0.7777777777777778
 40
0.7777777777777778
 40
1.0
 40
1.0
 40
1.0
 40
1.0
 10
-8.5487
 20
-27.3855
 30
0.0
 10
-8.5487
 20
-27.3855
 30
0.0
 10
-7.9178
 20
-27.3777
 30
0.0
 10
-7.9178
 20
-27.3777
 30
0.0
 10
-7.9178
 20
-27.3777
 30
0.0
 10
-7.9178
 20
-27.3777
 30
0.0
 10
-7.3055
 20
-27.3672
 30
0.0
 10
-7.3055
 20
-27.3672
 30
0.0
 10
-7.3055
 20
-27.3672
 30
0.0
 10
-7.3055
 20
-27.3672
 30
0.0
 10
-6.7265
 20
-27.3551
 30
0.0
 10
-6.7265
 20
-27.3551
 30
0.0
 10
-6.7265
 20
-27.3551
 30
0.0
 10
-6.7265
 20
-27.3551
 30
0.0
 10
-6.1943
 20
-27.3424
 30
0.0
 10
-6.1943
 20
-27.3424
 30
0.0
 10
-6.1943
 20
-27.3424
 30
0.0
 10
-6.1943
 20
-27.3424
 30
0.0
 10
-5.7213
 20
-27.33
 30
0.0
 10
-5.7213
 20
-27.33
 30
0.0
 10
-5.7213
 20
-27.33
 30
0.0
 10
-5.7213
 20
-27.33
 30
0.0
 10
-5.3185
 20
-27.3188
 30
0.0
 10
-5.3185
 20
-27.3188
 30
0.0
 10
-5.3185
 20
-27.3188
 30
0.0
 10
-5.3185
 20
-27.3188
 30
0.0
 10
-4.9952
 20
-27.3094
 30
0.0
 10
-4.9952
 20
-27.3094
 30
0.0
 10
-4.9952
 20
-27.3094
 30
0.0
 10
-4.9952
 20
-27.3094
 30
0.0
 10
-4.9615
 20
-27.3084
 30
0.0
 10
-4.9615
 20
-27.3084
 30
0.0
  0
SPLINE
  5
AB
330
1F
100
AcDbEntity
  8
DEFAULT_1
 62
   250
100
AcDbSpline
210
0.0
220
0.0
230
1.0
 70
     8
 71
     3
 72
    16
 73
    12
 74
     0
 42
0.0000000001
 43
0.0000000001
 40
0.0
 40
0.0
 40
0.0
 40
0.0
 40
0.25
 40
0.25
 40
0.25
 40
0.25
 40
0.5
 40
0.5
 40
0.5
 40
0.5
 40
1.0
 40
1.0
 40
1.0
 40
1.0
 10
-4.9615
 20
-27.3084
 30
0.0
 10
-4.9615
 20
-27.3084
 30
0.0
 10
-4.7588
 20
-27.3023
 30
0.0
 10
-4.7588
 20
-27.3023
 30
0.0
 10
-4.7588
 20
-27.3023
 30
0.0
 10
-4.7588
 20
-27.3023
 30
0.0
 10
-4.6147
 20
-27.2979
 30
0.0
 10
-4.6147
 20
-27.2979
 30
0.0
 10
-4.6147
 20
-27.2979
 30
0.0
 10
-4.6147
 20
-27.2979
 30
0.0
 10
-4.5663
 20
-27.2964
 30
0.0
 10
-4.5663
 20
-27.2964
 30
0.0
  0
SPLINE
  5
AC
330
1F
100
AcDbEntity
  8
DEFAULT_1
 62
   250
100
AcDbSpline
210
0.0
220
0.0
230
1.0
 70
     8
 71
     3
 72
    16
 73
    12
 74
     0
 42
0.0000000001
 43
0.0000000001
 40
0.0
 40
0.0
 40
0.0
 40
0.0
 40
0.25
 40
0.25
 40
0.25
 40
0.25
 40
0.5
 40
0.5
 40
0.5
 40
0.5
 40
1.0
 40
1.0
 40
1.0
 40
1.0
 10
-24.5415
 20
-27.2964
 30
0.0
 10
-24.5415
 20
-27.2964
 30
0.0
 10
-24.4932
 20
-27.2979
 30
0.0
 10
-24.4932
 20
-27.2979
 30
0.0
 10
-24.4932
 20
-27.2979
 30
0.0
 10
-24.4932
 20
-27.2979
 30
0.0
 10
-24.3491
 20
-27.3023
 30
0.0
 10
-24.3491
 20
-27.3023
 30
0.0
 10
-24.3491
 20
-27.3023
 30
0.0
 10
-24.3491
 20
-27.3023
 30
0.0
 10
-24.1463
 20
-27.3084
 30
0.0
 10
-24.1463
 20
-27.3084
 30
0.0
  0
SPLINE
  5
AD
330
1F
100
AcDbEntity
  8
DEFAULT_1
 62
   250
100
AcDbSpline
210
0.0
220
0.0
230
1.0
 70
     8
 71
     3
 72
    36
 73
    32
 74
     0
 42
0.0000000001
 43
0.0000000001
 40
0.0
 40
0.0
 40
0.0
 40
0.0
 40
0.1111111111111111
 40
0.1111111111111111
 40
0.1111111111111111
 40
0.1111111111111111
 40
0.2222222222222222
 40
0.2222222222222222
 40
0.2222222222222222
 40
0.2222222222222222
 40
0.3333333333333333
 40
0.3333333333333333
 40
0.3333333333333333
 40
0.3333333333333333
 40
0.4444444444444444
 40
0.4444444444444444
 40
0.4444444444444444
 40
0.4444444444444444
 40
0.5555555555555556
 40
0.5555555555555556
 40
0.5555555555555556
 40
0.5555555555555556
 40
0.6666666666666666
 40
0.6666666666666666
 40
0.6666666666666666
 40
0.6666666666666666
 40
0.7777777777777778
 40
0.7777777777777778
 40
0.7777777777777778
 40
0.7777777777777778
 40
1.0
 40
1.0
 40
1.0
 40
1.0
 10
-24.1463
 20
-27.3084
 30
0.0
 10
-24.1463
 20
-27.3084
 30
0.0
 10
-24.1127
 20
-27.3094
 30
0.0
 10
-24.1127
 20
-27.3094
 30
0.0
 10
-24.1127
 20
-27.3094
 30
0.0
 10
-24.1127
 20
-27.3094
 30
0.0
 10
-23.7893
 20
-27.3188
 30
0.0
 10
-23.7893
 20
-27.3188
 30
0.0
 10
-23.7893
 20
-27.3188
 30
0.0
 10
-23.7893
 20
-27.3188
 30
0.0
 10
-23.3865
 20
-27.33
 30
0.0
 10
-23.3865
 20
-27.33
 30
0.0
 10
-23.3865
 20
-27.33
 30
0.0
 10
-23.3865
 20
-27.33
 30
0.0
 10
-22.9136
 20
-27.3424
 30
0.0
 10
-22.9136
 20
-27.3424
 30
0.0
 10
-22.9136
 20
-27.3424
 30
0.0
 10
-22.9136
 20
-27.3424
 30
0.0
 10
-22.3813
 20
-27.3551
 30
0.0
 10
-22.3813
 20
-27.3551
 30
0.0
 10
-22.3813
 20
-27.3551
 30
0.0
 10
-22.3813
 20
-27.3551
 30
0.0
 10
-21.8023
 20
-27.3672
 30
0.0
 10
-21.8023
 20
-27.3672
 30
0.0
 10
-21.8023
 20
-27.3672
 30
0.0
 10
-21.8023
 20
-27.3672
 30
0.0
 10
-21.19
 20
-27.3777
 30
0.0
 10
-21.19
 20
-27.3777
 30
0.0
 10
-21.19
 20
-27.3777
 30
0.0
 10
-21.19
 20
-27.3777
 30
0.0
 10
-20.5591
 20
-27.3855
 30
0.0
 10
-20.5591
 20
-27.3855
 30
0.0
  0
SPLINE
  5
AE
330
1F
100
AcDbEntity
  8
DEFAULT_1
 62
   250
100
AcDbSpline
210
0.0
220
0.0
230
1.0
 70
    24
 71
     3
 72
     8
 73
     4
 74
     0
 42
0.0000000001
 43
0.0000000001
 40
0.0
 40
0.0
 40
0.0
 40
0.0
 40
1.0
 40
1.0
 40
1.0
 40
1.0
 10
-38.1215
 20
13.4153
 30
0.0
 10
-38.1215
 20
13.4153
 30
0.0
 10
-38.062
 20
14.7708
 30
0.0
 10
-38.062
 20
14.7708
 30
0.0
  0
SPLINE
  5
AF
330
1F
100
AcDbEntity
  8
DEFAULT_1
 62
   250
100
AcDbSpline
210
0.0
220
0.0
230
1.0
 70
    24
 71
     3
 72
     8
 73
     4
 74
     0
 42
0.0000000001
 43
0.0000000001
 40
0.0
 40
0.0
 40
0.0
 40
0.0
 40
1.0
 40
1.0
 40
1.0
 40
1.0
 10
-37.8155
 20
14.7542
 30
0.0
 10
-37.8155
 20
14.7542
 30
0.0
 10
-37.745
 20
16.107
 30
0.0
 10
-37.745
 20
16.107
 30
0.0
  0
SPLINE
  5
B0
330
1F
100
AcDbEntity
  8
DEFAULT_1
 62
   250
100
AcDbSpline
210
0.0
220
0.0
230
1.0
 70
    24
 71
     3
 72
     8
 73
     4
 74
     0
 42
0.0000000001
 43
0.0000000001
 40
0.0
 40
0.0
 40
0.0
 40
0.0
 40
1.0
 40
1.0
 40
1.0
 40
1.0
 10
-38.3365
 20
12.0521
 30
0.0
 10
-38.3365
 20
12.0521
 30
0.0
 10
-38.2162
 20
13.4407
 30
0.0
 10
-38.2162
 20
13.4407
 30
0.0
  0
SPLINE
  5
B1
330
1F
100
AcDbEntity
  8
DEFAULT_1
 62
   250
100
AcDbSpline
210
0.0
220
0.0
230
1.0
 70
    24
 71
     3
 72
     8
 73
     4
 74
     0
 42
0.0000000001
 43
0.0000000001
 40
0.0
 40
0.0
 40
0.0
 40
0.0
 40
1.0
 40
1.0
 40
1.0
 40
1.0
 10
-38.6444
 20
10.7139
 30
0.0
 10
-38.6444
 20
10.7139
 30
0.0
 10
-38.4293
 20
12.077
 30
0.0
 10
-38.4293
 20
12.077
 30
0.0
  0
SPLINE
  5
B2
330
1F
100
AcDbEntity
  8
DEFAULT_1
 62
   250
100
AcDbSpline
210
0.0
220
0.0
230
1.0
 70
    24
 71
     3
 72
     8
 73
     4
 74
     0
 42
0.0000000001
 43
0.0000000001
 40
0.0
 40
0.0
 40
0.0
 40
0.0
 40
1.0
 40
1.0
 40
1.0
 40
1.0
 10
-39.0115
 20
9.2405
 30
0.0
 10
-39.0115
 20
9.2405
 30
0.0
 10
-38.6709
 20
10.721
 30
0.0
 10
-38.6709
 20
10.721
 30
0.0
  0
SPLINE
  5
B3
330
1F
100
AcDbEntity
  8
DEFAULT_1
 62
   250
100
AcDbSpline
210
0.0
220
0.0
230
1.0
 70
    24
 71
     3
 72
     8
 73
     4
 74
     0
 42
0.0000000001
 43
0.0000000001
 40
0.0
 40
0.0
 40
0.0
 40
0.0
 40
1.0
 40
1.0
 40
1.0
 40
1.0
 10
-37.4773
 20
16.0844
 30
0.0
 10
-37.4773
 20
16.0844
 30
0.0
 10
-36.6908
 20
19.0197
 30
0.0
 10
-36.6908
 20
19.0197
 30
0.0
  0
SPLINE
  5
B4
330
1F
100
AcDbEntity
  8
DEFAULT_1
 62
   250
100
AcDbSpline
210
0.0
220
0.0
230
1.0
 70
    24
 71
     3
 72
     8
 73
     4
 74
     0
 42
0.0000000001
 43
0.0000000001
 40
0.0
 40
0.0
 40
0.0
 40
0.0
 40
1.0
 40
1.0
 40
1.0
 40
1.0
 10
-39.1715
 20
9.2313
 30
0.0
 10
-39.1715
 20
9.2313
 30
0.0
 10
-39.2477
 20
8.9473
 30
0.0
 10
-39.2477
 20
8.9473
 30
0.0
  0
SPLINE
  5
B5
330
1F
100
AcDbEntity
  8
DEFAULT_1
 62
   250
100
AcDbSpline
210
0.0
220
0.0
230
1.0
 70
    24
 71
     3
 72
     8
 73
     4
 74
     0
 42
0.0000000001
 43
0.0000000001
 40
0.0
 40
0.0
 40
0.0
 40
0.0
 40
1.0
 40
1.0
 40
1.0
 40
1.0
 10
-35.6113
 20
8.2773
 30
0.0
 10
-35.6113
 20
8.2773
 30
0.0
 10
-35.6874
 20
7.9933
 30
0.0
 10
-35.6874
 20
7.9933
 30
0.0
  0
SPLINE
  5
B6
330
1F
100
AcDbEntity
  8
DEFAULT_1
 62
   250
100
AcDbSpline
210
0.0
220
0.0
230
1.0
 70
    24
 71
     3
 72
     8
 73
     4
 74
     0
 42
0.0000000001
 43
0.0000000001
 40
0.0
 40
0.0
 40
0.0
 40
0.0
 40
1.0
 40
1.0
 40
1.0
 40
1.0
 10
-33.6519
 20
15.0594
 30
0.0
 10
-33.6519
 20
15.0594
 30
0.0
 10
-33.449
 20
15.8169
 30
0.0
 10
-33.449
 20
15.8169
 30
0.0
  0
SPLINE
  5
B7
330
1F
100
AcDbEntity
  8
DEFAULT_1
 62
   250
100
AcDbSpline
210
0.0
220
0.0
230
1.0
 70
    24
 71
     3
 72
     8
 73
     4
 74
     0
 42
0.0000000001
 43
0.0000000001
 40
0.0
 40
0.0
 40
0.0
 40
0.0
 40
1.0
 40
1.0
 40
1.0
 40
1.0
 10
-31.2782
 20
19.9036
 30
0.0
 10
-31.2782
 20
19.9036
 30
0.0
 10
-32.4453
 20
15.5479
 30
0.0
 10
-32.4453
 20
15.5479
 30
0.0
  0
SPLINE
  5
B8
330
1F
100
AcDbEntity
  8
DEFAULT_1
 62
   250
100
AcDbSpline
210
0.0
220
0.0
230
1.0
 70
    24
 71
     3
 72
     8
 73
     4
 74
     0
 42
0.0000000001
 43
0.0000000001
 40
0.0
 40
0.0
 40
0.0
 40
0.0
 40
1.0
 40
1.0
 40
1.0
 40
1.0
 10
-30.6204
 20
20.8437
 30
0.0
 10
-30.6204
 20
20.8437
 30
0.0
 10
-32.3456
 20
14.4049
 30
0.0
 10
-32.3456
 20
14.4049
 30
0.0
  0
SPLINE
  5
B9
330
1F
100
AcDbEntity
  8
DEFAULT_1
 62
   250
100
AcDbSpline
210
0.0
220
0.0
230
1.0
 70
    24
 71
     3
 72
     8
 73
     4
 74
     0
 42
0.0000000001
 43
0.0000000001
 40
0.0
 40
0.0
 40
0.0
 40
0.0
 40
1.0
 40
1.0
 40
1.0
 40
1.0
 10
-30.4046
 20
20.1338
 30
0.0
 10
-30.4046
 20
20.1338
 30
0.0
 10
-30.4225
 20
20.067
 30
0.0
 10
-30.4225
 20
20.067
 30
0.0
  0
SPLINE
  5
BA
330
1F
100
AcDbEntity
  8
DEFAULT_1
 62
   250
100
AcDbSpline
210
0.0
220
0.0
230
1.0
 70
    24
 71
     3
 72
     8
 73
     4
 74
     0
 42
0.0000000001
 43
0.0000000001
 40
0.0
 40
0.0
 40
0.0
 40
0.0
 40
1.0
 40
1.0
 40
1.0
 40
1.0
 10
-32.0937
 20
13.8302
 30
0.0
 10
-32.0937
 20
13.8302
 30
0.0
 10
-32.0684
 20
13.9246
 30
0.0
 10
-32.0684
 20
13.9246
 30
0.0
  0
SPLINE
  5
BB
330
1F
100
AcDbEntity
  8
DEFAULT_1
 62
   250
100
AcDbSpline
210
0.0
220
0.0
230
1.0
 70
    24
 71
     3
 72
     8
 73
     4
 74
     0
 42
0.0000000001
 43
0.0000000001
 40
0.0
 40
0.0
 40
0.0
 40
0.0
 40
1.0
 40
1.0
 40
1.0
 40
1.0
 10
-35.7439
 20
8.3702
 30
0.0
 10
-35.7439
 20
8.3702
 30
0.0
 10
-35.3
 20
9.8177
 30
0.0
 10
-35.3
 20
9.8177
 30
0.0
  0
SPLINE
  5
BC
330
1F
100
AcDbEntity
  8
DEFAULT_1
 62
   250
100
AcDbSpline
210
0.0
220
0.0
230
1.0
 70
    24
 71
     3
 72
     8
 73
     4
 74
     0
 42
0.0000000001
 43
0.0000000001
 40
0.0
 40
0.0
 40
0.0
 40
0.0
 40
1.0
 40
1.0
 40
1.0
 40
1.0
 10
-35.3266
 20
9.8249
 30
0.0
 10
-35.3266
 20
9.8249
 30
0.0
 10
-34.8312
 20
11.1129
 30
0.0
 10
-34.8312
 20
11.1129
 30
0.0
  0
SPLINE
  5
BD
330
1F
100
AcDbEntity
  8
DEFAULT_1
 62
   250
100
AcDbSpline
210
0.0
220
0.0
230
1.0
 70
    24
 71
     3
 72
     8
 73
     4
 74
     0
 42
0.0000000001
 43
0.0000000001
 40
0.0
 40
0.0
 40
0.0
 40
0.0
 40
1.0
 40
1.0
 40
1.0
 40
1.0
 10
-34.924
 20
11.1378
 30
0.0
 10
-34.924
 20
11.1378
 30
0.0
 10
-34.334
 20
12.4005
 30
0.0
 10
-34.334
 20
12.4005
 30
0.0
  0
SPLINE
  5
BE
330
1F
100
AcDbEntity
  8
DEFAULT_1
 62
   250
100
AcDbSpline
210
0.0
220
0.0
230
1.0
 70
    24
 71
     3
 72
     8
 73
     4
 74
     0
 42
0.0000000001
 43
0.0000000001
 40
0.0
 40
0.0
 40
0.0
 40
0.0
 40
1.0
 40
1.0
 40
1.0
 40
1.0
 10
-34.0242
 20
13.7383
 30
0.0
 10
-34.0242
 20
13.7383
 30
0.0
 10
-33.4089
 20
14.9452
 30
0.0
 10
-33.4089
 20
14.9452
 30
0.0
  0
SPLINE
  5
BF
330
1F
100
AcDbEntity
  8
DEFAULT_1
 62
   250
100
AcDbSpline
210
0.0
220
0.0
230
1.0
 70
    24
 71
     3
 72
     8
 73
     4
 74
     0
 42
0.0000000001
 43
0.0000000001
 40
0.0
 40
0.0
 40
0.0
 40
0.0
 40
1.0
 40
1.0
 40
1.0
 40
1.0
 10
-34.4286
 20
12.4259
 30
0.0
 10
-34.4286
 20
12.4259
 30
0.0
 10
-33.8024
 20
13.6295
 30
0.0
 10
-33.8024
 20
13.6295
 30
0.0
  0
SPLINE
  5
C0
330
1F
100
AcDbEntity
  8
DEFAULT_1
 62
   250
100
AcDbSpline
210
0.0
220
0.0
230
1.0
 70
    24
 71
     3
 72
     8
 73
     4
 74
     0
 42
0.0000000001
 43
0.0000000001
 40
0.0
 40
0.0
 40
0.0
 40
0.0
 40
1.0
 40
1.0
 40
1.0
 40
1.0
 10
-30.1013
 20
19.7509
 30
0.0
 10
-30.1013
 20
19.7509
 30
0.0
 10
-30.1193
 20
19.6836
 30
0.0
 10
-30.1193
 20
19.6836
 30
0.0
  0
SPLINE
  5
C1
330
1F
100
AcDbEntity
  8
DEFAULT_1
 62
   250
100
AcDbSpline
210
0.0
220
0.0
230
1.0
 70
    24
 71
     3
 72
     8
 73
     4
 74
     0
 42
0.0000000001
 43
0.0000000001
 40
0.0
 40
0.0
 40
0.0
 40
0.0
 40
1.0
 40
1.0
 40
1.0
 40
1.0
 10
-29.816
 20
13.2405
 30
0.0
 10
-29.816
 20
13.2405
 30
0.0
 10
-29.5995
 20
14.0486
 30
0.0
 10
-29.5995
 20
14.0486
 30
0.0
  0
SPLINE
  5
C2
330
1F
100
AcDbEntity
  8
DEFAULT_1
 62
   250
100
AcDbSpline
210
0.0
220
0.0
230
1.0
 70
    24
 71
     3
 72
     8
 73
     4
 74
     0
 42
0.0000000001
 43
0.0000000001
 40
0.0
 40
0.0
 40
0.0
 40
0.0
 40
1.0
 40
1.0
 40
1.0
 40
1.0
 10
-29.456
 20
14.5843
 30
0.0
 10
-29.456
 20
14.5843
 30
0.0
 10
-28.9332
 20
16.5351
 30
0.0
 10
-28.9332
 20
16.5351
 30
0.0
  0
SPLINE
  5
C3
330
1F
100
AcDbEntity
  8
DEFAULT_1
 62
   250
100
AcDbSpline
210
0.0
220
0.0
230
1.0
 70
    24
 71
     3
 72
     8
 73
     4
 74
     0
 42
0.0000000001
 43
0.0000000001
 40
0.0
 40
0.0
 40
0.0
 40
0.0
 40
1.0
 40
1.0
 40
1.0
 40
1.0
 10
-28.7303
 20
17.2926
 30
0.0
 10
-28.7303
 20
17.2926
 30
0.0
 10
-28.2075
 20
19.2435
 30
0.0
 10
-28.2075
 20
19.2435
 30
0.0
  0
SPLINE
  5
C4
330
1F
100
AcDbEntity
  8
DEFAULT_1
 62
   250
100
AcDbSpline
210
0.0
220
0.0
230
1.0
 70
    24
 71
     3
 72
     8
 73
     4
 74
     0
 42
0.0000000001
 43
0.0000000001
 40
0.0
 40
0.0
 40
0.0
 40
0.0
 40
1.0
 40
1.0
 40
1.0
 40
1.0
 10
-28.064
 20
19.7791
 30
0.0
 10
-28.064
 20
19.7791
 30
0.0
 10
-27.8475
 20
20.5872
 30
0.0
 10
-27.8475
 20
20.5872
 30
0.0
  0
SPLINE
  5
C5
330
1F
100
AcDbEntity
  8
DEFAULT_1
 62
   250
100
AcDbSpline
210
0.0
220
0.0
230
1.0
 70
    24
 71
     3
 72
     8
 73
     4
 74
     0
 42
0.0000000001
 43
0.0000000001
 40
0.0
 40
0.0
 40
0.0
 40
0.0
 40
1.0
 40
1.0
 40
1.0
 40
1.0
 10
-29.2531
 20
13.0688
 30
0.0
 10
-29.2531
 20
13.0688
 30
0.0
 10
-27.2741
 20
20.4544
 30
0.0
 10
-27.2741
 20
20.4544
 30
0.0
  0
SPLINE
  5
C6
330
1F
100
AcDbEntity
  8
DEFAULT_1
 62
   250
100
AcDbSpline
210
0.0
220
0.0
230
1.0
 70
    24
 71
     3
 72
     8
 73
     4
 74
     0
 42
0.0000000001
 43
0.0000000001
 40
0.0
 40
0.0
 40
0.0
 40
0.0
 40
1.0
 40
1.0
 40
1.0
 40
1.0
 10
-24.4204
 20
22.1312
 30
0.0
 10
-24.4204
 20
22.1312
 30
0.0
 10
-24.4204
 20
18.6242
 30
0.0
 10
-24.4204
 20
18.6242
 30
0.0
  0
SPLINE
  5
C7
330
1F
100
AcDbEntity
  8
DEFAULT_1
 62
   250
100
AcDbSpline
210
0.0
220
0.0
230
1.0
 70
    24
 71
     3
 72
     8
 73
     4
 74
     0
 42
0.0000000001
 43
0.0000000001
 40
0.0
 40
0.0
 40
0.0
 40
0.0
 40
1.0
 40
1.0
 40
1.0
 40
1.0
 10
-24.4204
 20
12.8395
 30
0.0
 10
-24.4204
 20
12.8395
 30
0.0
 10
-24.4204
 20
-15.1196
 30
0.0
 10
-24.4204
 20
-15.1196
 30
0.0
  0
SPLINE
  5
C8
330
1F
100
AcDbEntity
  8
DEFAULT_1
 62
   250
100
AcDbSpline
210
0.0
220
0.0
230
1.0
 70
    24
 71
     3
 72
     8
 73
     4
 74
     0
 42
0.0000000001
 43
0.0000000001
 40
0.0
 40
0.0
 40
0.0
 40
0.0
 40
1.0
 40
1.0
 40
1.0
 40
1.0
 10
-16.5782
 20
22.1312
 30
0.0
 10
-16.5782
 20
22.1312
 30
0.0
 10
-16.5782
 20
-15.136
 30
0.0
 10
-16.5782
 20
-15.136
 30
0.0
  0
SPLINE
  5
C9
330
1F
100
AcDbEntity
  8
DEFAULT_1
 62
   250
100
AcDbSpline
210
0.0
220
0.0
230
1.0
 70
    24
 71
     3
 72
     8
 73
     4
 74
     0
 42
0.0000000001
 43
0.0000000001
 40
0.0
 40
0.0
 40
0.0
 40
0.0
 40
1.0
 40
1.0
 40
1.0
 40
1.0
 10
-35.6874
 20
7.9933
 30
0.0
 10
-35.6874
 20
7.9933
 30
0.0
 10
-39.2477
 20
8.9473
 30
0.0
 10
-39.2477
 20
8.9473
 30
0.0
  0
SPLINE
  5
CA
330
1F
100
AcDbEntity
  8
DEFAULT_1
 62
   250
100
AcDbSpline
210
0.0
220
0.0
230
1.0
 70
    24
 71
     3
 72
     8
 73
     4
 74
     0
 42
0.0000000001
 43
0.0000000001
 40
0.0
 40
0.0
 40
0.0
 40
0.0
 40
1.0
 40
1.0
 40
1.0
 40
1.0
 10
-35.6113
 20
8.2773
 30
0.0
 10
-35.6113
 20
8.2773
 30
0.0
 10
-39.1715
 20
9.2313
 30
0.0
 10
-39.1715
 20
9.2313
 30
0.0
  0
SPLINE
  5
CB
330
1F
100
AcDbEntity
  8
DEFAULT_1
 62
   250
100
AcDbSpline
210
0.0
220
0.0
230
1.0
 70
    24
 71
     3
 72
     8
 73
     4
 74
     0
 42
0.0000000001
 43
0.0000000001
 40
0.0
 40
0.0
 40
0.0
 40
0.0
 40
1.0
 40
1.0
 40
1.0
 40
1.0
 10
-38.6709
 20
10.721
 30
0.0
 10
-38.6709
 20
10.721
 30
0.0
 10
-35.3
 20
9.8177
 30
0.0
 10
-35.3
 20
9.8177
 30
0.0
  0
SPLINE
  5
CC
330
1F
100
AcDbEntity
  8
DEFAULT_1
 62
   250
100
AcDbSpline
210
0.0
220
0.0
230
1.0
 70
    24
 71
     3
 72
     8
 73
     4
 74
     0
 42
0.0000000001
 43
0.0000000001
 40
0.0
 40
0.0
 40
0.0
 40
0.0
 40
1.0
 40
1.0
 40
1.0
 40
1.0
 10
-38.4293
 20
12.077
 30
0.0
 10
-38.4293
 20
12.077
 30
0.0
 10
-34.8312
 20
11.1129
 30
0.0
 10
-34.8312
 20
11.1129
 30
0.0
  0
SPLINE
  5
CD
330
1F
100
AcDbEntity
  8
DEFAULT_1
 62
   250
100
AcDbSpline
210
0.0
220
0.0
230
1.0
 70
    24
 71
     3
 72
     8
 73
     4
 74
     0
 42
0.0000000001
 43
0.0000000001
 40
0.0
 40
0.0
 40
0.0
 40
0.0
 40
1.0
 40
1.0
 40
1.0
 40
1.0
 10
-38.2162
 20
13.4407
 30
0.0
 10
-38.2162
 20
13.4407
 30
0.0
 10
-34.334
 20
12.4005
 30
0.0
 10
-34.334
 20
12.4005
 30
0.0
  0
SPLINE
  5
CE
330
1F
100
AcDbEntity
  8
DEFAULT_1
 62
   250
100
AcDbSpline
210
0.0
220
0.0
230
1.0
 70
    24
 71
     3
 72
     8
 73
     4
 74
     0
 42
0.0000000001
 43
0.0000000001
 40
0.0
 40
0.0
 40
0.0
 40
0.0
 40
1.0
 40
1.0
 40
1.0
 40
1.0
 10
-33.8024
 20
13.6295
 30
0.0
 10
-33.8024
 20
13.6295
 30
0.0
 10
-38.062
 20
14.7708
 30
0.0
 10
-38.062
 20
14.7708
 30
0.0
  0
SPLINE
  5
CF
330
1F
100
AcDbEntity
  8
DEFAULT_1
 62
   250
100
AcDbSpline
210
0.0
220
0.0
230
1.0
 70
    24
 71
     3
 72
     8
 73
     4
 74
     0
 42
0.0000000001
 43
0.0000000001
 40
0.0
 40
0.0
 40
0.0
 40
0.0
 40
1.0
 40
1.0
 40
1.0
 40
1.0
 10
-38.0126
 20
14.807
 30
0.0
 10
-38.0126
 20
14.807
 30
0.0
 10
-33.8271
 20
13.6855
 30
0.0
 10
-33.8271
 20
13.6855
 30
0.0
  0
SPLINE
  5
D0
330
1F
100
AcDbEntity
  8
DEFAULT_1
 62
   250
100
AcDbSpline
210
0.0
220
0.0
230
1.0
 70
    24
 71
     3
 72
     8
 73
     4
 74
     0
 42
0.0000000001
 43
0.0000000001
 40
0.0
 40
0.0
 40
0.0
 40
0.0
 40
1.0
 40
1.0
 40
1.0
 40
1.0
 10
-32.2247
 20
13.865
 30
0.0
 10
-32.2247
 20
13.865
 30
0.0
 10
-29.2531
 20
13.0688
 30
0.0
 10
-29.2531
 20
13.0688
 30
0.0
  0
SPLINE
  5
D1
330
1F
100
AcDbEntity
  8
DEFAULT_1
 62
   250
100
AcDbSpline
210
0.0
220
0.0
230
1.0
 70
    24
 71
     3
 72
     8
 73
     4
 74
     0
 42
0.0000000001
 43
0.0000000001
 40
0.0
 40
0.0
 40
0.0
 40
0.0
 40
1.0
 40
1.0
 40
1.0
 40
1.0
 10
-33.4089
 20
14.9452
 30
0.0
 10
-33.4089
 20
14.9452
 30
0.0
 10
-37.745
 20
16.107
 30
0.0
 10
-37.745
 20
16.107
 30
0.0
  0
SPLINE
  5
D2
330
1F
100
AcDbEntity
  8
DEFAULT_1
 62
   250
100
AcDbSpline
210
0.0
220
0.0
230
1.0
 70
    24
 71
     3
 72
     8
 73
     4
 74
     0
 42
0.0000000001
 43
0.0000000001
 40
0.0
 40
0.0
 40
0.0
 40
0.0
 40
1.0
 40
1.0
 40
1.0
 40
1.0
 10
-37.6957
 20
16.1429
 30
0.0
 10
-37.6957
 20
16.1429
 30
0.0
 10
-33.4336
 20
15.0009
 30
0.0
 10
-33.4336
 20
15.0009
 30
0.0
  0
SPLINE
  5
D3
330
1F
100
AcDbEntity
  8
DEFAULT_1
 62
   250
100
AcDbSpline
210
0.0
220
0.0
230
1.0
 70
    24
 71
     3
 72
     8
 73
     4
 74
     0
 42
0.0000000001
 43
0.0000000001
 40
0.0
 40
0.0
 40
0.0
 40
0.0
 40
1.0
 40
1.0
 40
1.0
 40
1.0
 10
-29.5995
 20
14.0486
 30
0.0
 10
-29.5995
 20
14.0486
 30
0.0
 10
-31.4933
 20
14.556
 30
0.0
 10
-31.4933
 20
14.556
 30
0.0
  0
SPLINE
  5
D4
330
1F
100
AcDbEntity
  8
DEFAULT_1
 62
   250
100
AcDbSpline
210
0.0
220
0.0
230
1.0
 70
    24
 71
     3
 72
     8
 73
     4
 74
     0
 42
0.0000000001
 43
0.0000000001
 40
0.0
 40
0.0
 40
0.0
 40
0.0
 40
1.0
 40
1.0
 40
1.0
 40
1.0
 10
-24.4204
 20
12.8395
 30
0.0
 10
-24.4204
 20
12.8395
 30
0.0
 10
-29.0002
 20
14.0667
 30
0.0
 10
-29.0002
 20
14.0667
 30
0.0
  0
SPLINE
  5
D5
330
1F
100
AcDbEntity
  8
DEFAULT_1
 62
   250
100
AcDbSpline
210
0.0
220
0.0
230
1.0
 70
    24
 71
     3
 72
     8
 73
     4
 74
     0
 42
0.0000000001
 43
0.0000000001
 40
0.0
 40
0.0
 40
0.0
 40
0.0
 40
1.0
 40
1.0
 40
1.0
 40
1.0
 10
-29.456
 20
14.5843
 30
0.0
 10
-29.456
 20
14.5843
 30
0.0
 10
-31.3497
 20
15.0917
 30
0.0
 10
-31.3497
 20
15.0917
 30
0.0
  0
SPLINE
  5
D6
330
1F
100
AcDbEntity
  8
DEFAULT_1
 62
   250
100
AcDbSpline
210
0.0
220
0.0
230
1.0
 70
    24
 71
     3
 72
     8
 73
     4
 74
     0
 42
0.0000000001
 43
0.0000000001
 40
0.0
 40
0.0
 40
0.0
 40
0.0
 40
1.0
 40
1.0
 40
1.0
 40
1.0
 10
-33.449
 20
15.8169
 30
0.0
 10
-33.449
 20
15.8169
 30
0.0
 10
-32.4453
 20
15.5479
 30
0.0
 10
-32.4453
 20
15.5479
 30
0.0
  0
SPLINE
  5
D7
330
1F
100
AcDbEntity
  8
DEFAULT_1
 62
   250
100
AcDbSpline
210
0.0
220
0.0
230
1.0
 70
    24
 71
     3
 72
     8
 73
     4
 74
     0
 42
0.0000000001
 43
0.0000000001
 40
0.0
 40
0.0
 40
0.0
 40
0.0
 40
1.0
 40
1.0
 40
1.0
 40
1.0
 10
-32.4199
 20
15.6426
 30
0.0
 10
-32.4199
 20
15.6426
 30
0.0
 10
-32.0412
 20
15.5411
 30
0.0
 10
-32.0412
 20
15.5411
 30
0.0
  0
SPLINE
  5
D8
330
1F
100
AcDbEntity
  8
DEFAULT_1
 62
   250
100
AcDbSpline
210
0.0
220
0.0
230
1.0
 70
    24
 71
     3
 72
     8
 73
     4
 74
     0
 42
0.0000000001
 43
0.0000000001
 40
0.0
 40
0.0
 40
0.0
 40
0.0
 40
1.0
 40
1.0
 40
1.0
 40
1.0
 10
-28.9332
 20
16.5351
 30
0.0
 10
-28.9332
 20
16.5351
 30
0.0
 10
-30.827
 20
17.0426
 30
0.0
 10
-30.827
 20
17.0426
 30
0.0
  0
SPLINE
  5
D9
330
1F
100
AcDbEntity
  8
DEFAULT_1
 62
   250
100
AcDbSpline
210
0.0
220
0.0
230
1.0
 70
    24
 71
     3
 72
     8
 73
     4
 74
     0
 42
0.0000000001
 43
0.0000000001
 40
0.0
 40
0.0
 40
0.0
 40
0.0
 40
1.0
 40
1.0
 40
1.0
 40
1.0
 10
-28.7303
 20
17.2926
 30
0.0
 10
-28.7303
 20
17.2926
 30
0.0
 10
-30.624
 20
17.8
 30
0.0
 10
-30.624
 20
17.8
 30
0.0
  0
SPLINE
  5
DA
330
1F
100
AcDbEntity
  8
DEFAULT_1
 62
   250
100
AcDbSpline
210
0.0
220
0.0
230
1.0
 70
    24
 71
     3
 72
     8
 73
     4
 74
     0
 42
0.0000000001
 43
0.0000000001
 40
0.0
 40
0.0
 40
0.0
 40
0.0
 40
1.0
 40
1.0
 40
1.0
 40
1.0
 10
-31.3036
 20
19.8089
 30
0.0
 10
-31.3036
 20
19.8089
 30
0.0
 10
-30.9249
 20
19.7074
 30
0.0
 10
-30.9249
 20
19.7074
 30
0.0
  0
SPLINE
  5
DB
330
1F
100
AcDbEntity
  8
DEFAULT_1
 62
   250
100
AcDbSpline
210
0.0
220
0.0
230
1.0
 70
    24
 71
     3
 72
     8
 73
     4
 74
     0
 42
0.0000000001
 43
0.0000000001
 40
0.0
 40
0.0
 40
0.0
 40
0.0
 40
1.0
 40
1.0
 40
1.0
 40
1.0
 10
-33.9295
 20
20.6139
 30
0.0
 10
-33.9295
 20
20.6139
 30
0.0
 10
-31.2782
 20
19.9036
 30
0.0
 10
-31.2782
 20
19.9036
 30
0.0
  0
SPLINE
  5
DC
330
1F
100
AcDbEntity
  8
DEFAULT_1
 62
   250
100
AcDbSpline
210
0.0
220
0.0
230
1.0
 70
    24
 71
     3
 72
     8
 73
     4
 74
     0
 42
0.0000000001
 43
0.0000000001
 40
0.0
 40
0.0
 40
0.0
 40
0.0
 40
1.0
 40
1.0
 40
1.0
 40
1.0
 10
-30.1193
 20
19.6836
 30
0.0
 10
-30.1193
 20
19.6836
 30
0.0
 10
-28.2256
 20
19.1762
 30
0.0
 10
-28.2256
 20
19.1762
 30
0.0
  0
SPLINE
  5
DD
330
1F
100
AcDbEntity
  8
DEFAULT_1
 62
   250
100
AcDbSpline
210
0.0
220
0.0
230
1.0
 70
    24
 71
     3
 72
     8
 73
     4
 74
     0
 42
0.0000000001
 43
0.0000000001
 40
0.0
 40
0.0
 40
0.0
 40
0.0
 40
1.0
 40
1.0
 40
1.0
 40
1.0
 10
-28.2075
 20
19.2435
 30
0.0
 10
-28.2075
 20
19.2435
 30
0.0
 10
-30.1013
 20
19.7509
 30
0.0
 10
-30.1013
 20
19.7509
 30
0.0
  0
SPLINE
  5
DE
330
1F
100
AcDbEntity
  8
DEFAULT_1
 62
   250
100
AcDbSpline
210
0.0
220
0.0
230
1.0
 70
    24
 71
     3
 72
     8
 73
     4
 74
     0
 42
0.0000000001
 43
0.0000000001
 40
0.0
 40
0.0
 40
0.0
 40
0.0
 40
1.0
 40
1.0
 40
1.0
 40
1.0
 10
-24.4204
 20
18.6242
 30
0.0
 10
-24.4204
 20
18.6242
 30
0.0
 10
-27.5185
 20
19.4543
 30
0.0
 10
-27.5185
 20
19.4543
 30
0.0
  0
SPLINE
  5
DF
330
1F
100
AcDbEntity
  8
DEFAULT_1
 62
   250
100
AcDbSpline
210
0.0
220
0.0
230
1.0
 70
    24
 71
     3
 72
     8
 73
     4
 74
     0
 42
0.0000000001
 43
0.0000000001
 40
0.0
 40
0.0
 40
0.0
 40
0.0
 40
1.0
 40
1.0
 40
1.0
 40
1.0
 10
-28.064
 20
19.7791
 30
0.0
 10
-28.064
 20
19.7791
 30
0.0
 10
-29.9578
 20
20.2866
 30
0.0
 10
-29.9578
 20
20.2866
 30
0.0
  0
SPLINE
  5
E0
330
1F
100
AcDbEntity
  8
DEFAULT_1
 62
   250
100
AcDbSpline
210
0.0
220
0.0
230
1.0
 70
    24
 71
     3
 72
     8
 73
     4
 74
     0
 42
0.0000000001
 43
0.0000000001
 40
0.0
 40
0.0
 40
0.0
 40
0.0
 40
1.0
 40
1.0
 40
1.0
 40
1.0
 10
-30.2205
 20
21.2439
 30
0.0
 10
-30.2205
 20
21.2439
 30
0.0
 10
-27.2741
 20
20.4544
 30
0.0
 10
-27.2741
 20
20.4544
 30
0.0
  0
SPLINE
  5
E1
330
1F
100
AcDbEntity
  8
DEFAULT_1
 62
   250
100
AcDbSpline
210
0.0
220
0.0
230
1.0
 70
     8
 71
     3
 72
    12
 73
     8
 74
     0
 42
0.0000000001
 43
0.0000000001
 40
0.0
 40
0.0
 40
0.0
 40
0.0
 40
0.3333333333333333
 40
0.3333333333333333
 40
0.3333333333333333
 40
0.3333333333333333
 40
1.0
 40
1.0
 40
1.0
 40
1.0
 10
-30.624
 20
17.8
 30
0.0
 10
-30.8332
 20
17.8561
 30
0.0
 10
-31.0482
 20
17.7319
 30
0.0
 10
-31.1043
 20
17.5228
 30
0.0
 10
-31.1043
 20
17.5228
 30
0.0
 10
-31.1603
 20
17.3136
 30
0.0
 10
-31.0362
 20
17.0986
 30
0.0
 10
-30.827
 20
17.0426
 30
0.0
  0
SPLINE
  5
E2
330
1F
100
AcDbEntity
  8
DEFAULT_1
 62
   250
100
AcDbSpline
210
0.0
220
0.0
230
1.0
 70
     8
 71
     3
 72
     8
 73
     4
 74
     0
 42
0.0000000001
 43
0.0000000001
 40
0.0
 40
0.0
 40
0.0
 40
0.0
 40
1.0
 40
1.0
 40
1.0
 40
1.0
 10
-30.1402
 20
21.1209
 30
0.0
 10
-30.3493
 20
21.1769
 30
0.0
 10
-30.5643
 20
21.0528
 30
0.0
 10
-30.6204
 20
20.8437
 30
0.0
  0
SPLINE
  5
E3
330
1F
100
AcDbEntity
  8
DEFAULT_1
 62
   250
100
AcDbSpline
210
0.0
220
0.0
230
1.0
 70
     8
 71
     3
 72
     8
 73
     4
 74
     0
 42
0.0000000001
 43
0.0000000001
 40
0.0
 40
0.0
 40
0.0
 40
0.0
 40
1.0
 40
1.0
 40
1.0
 40
1.0
 10
-32.3456
 20
14.4049
 30
0.0
 10
-32.4017
 20
14.1957
 30
0.0
 10
-32.2776
 20
13.9807
 30
0.0
 10
-32.0684
 20
13.9246
 30
0.0
  0
SPLINE
  5
E4
330
1F
100
AcDbEntity
  8
DEFAULT_1
 62
   250
100
AcDbSpline
210
0.0
220
0.0
230
1.0
 70
     8
 71
     3
 72
    12
 73
     8
 74
     0
 42
0.0000000001
 43
0.0000000001
 40
0.0
 40
0.0
 40
0.0
 40
0.0
 40
0.3333333333333333
 40
0.3333333333333333
 40
0.3333333333333333
 40
0.3333333333333333
 40
1.0
 40
1.0
 40
1.0
 40
1.0
 10
-38.0126
 20
14.807
 30
0.0
 10
-38.0241
 20
14.8101
 30
0.0
 10
-38.0364
 20
14.8078
 30
0.0
 10
-38.0459
 20
14.8008
 30
0.0
 10
-38.0459
 20
14.8008
 30
0.0
 10
-38.0555
 20
14.7937
 30
0.0
 10
-38.0614
 20
14.7827
 30
0.0
 10
-38.062
 20
14.7708
 30
0.0
  0
SPLINE
  5
E5
330
1F
100
AcDbEntity
  8
DEFAULT_1
 62
   250
100
AcDbSpline
210
0.0
220
0.0
230
1.0
 70
     8
 71
     3
 72
    12
 73
     8
 74
     0
 42
0.0000000001
 43
0.0000000001
 40
0.0
 40
0.0
 40
0.0
 40
0.0
 40
0.3333333333333333
 40
0.3333333333333333
 40
0.3333333333333333
 40
0.3333333333333333
 40
1.0
 40
1.0
 40
1.0
 40
1.0
 10
-33.8024
 20
13.6295
 30
0.0
 10
-33.797
 20
13.64
 30
0.0
 10
-33.7965
 20
13.6525
 30
0.0
 10
-33.8014
 20
13.6634
 30
0.0
 10
-33.8014
 20
13.6634
 30
0.0
 10
-33.8062
 20
13.6743
 30
0.0
 10
-33.8156
 20
13.6824
 30
0.0
 10
-33.8271
 20
13.6855
 30
0.0
  0
SPLINE
  5
E6
330
1F
100
AcDbEntity
  8
DEFAULT_1
 62
   250
100
AcDbSpline
210
0.0
220
0.0
230
1.0
 70
     8
 71
     3
 72
    12
 73
     8
 74
     0
 42
0.0000000001
 43
0.0000000001
 40
0.0
 40
0.0
 40
0.0
 40
0.0
 40
0.3333333333333333
 40
0.3333333333333333
 40
0.3333333333333333
 40
0.3333333333333333
 40
1.0
 40
1.0
 40
1.0
 40
1.0
 10
-37.6957
 20
16.1429
 30
0.0
 10
-37.7071
 20
16.1459
 30
0.0
 10
-37.7193
 20
16.1437
 30
0.0
 10
-37.7289
 20
16.1367
 30
0.0
 10
-37.7289
 20
16.1367
 30
0.0
 10
-37.7385
 20
16.1298
 30
0.0
 10
-37.7444
 20
16.1189
 30
0.0
 10
-37.745
 20
16.107
 30
0.0
  0
SPLINE
  5
E7
330
1F
100
AcDbEntity
  8
DEFAULT_1
 62
   250
100
AcDbSpline
210
0.0
220
0.0
230
1.0
 70
     8
 71
     3
 72
    12
 73
     8
 74
     0
 42
0.0000000001
 43
0.0000000001
 40
0.0
 40
0.0
 40
0.0
 40
0.0
 40
0.3333333333333333
 40
0.3333333333333333
 40
0.3333333333333333
 40
0.3333333333333333
 40
1.0
 40
1.0
 40
1.0
 40
1.0
 10
-33.4089
 20
14.9452
 30
0.0
 10
-33.4035
 20
14.9557
 30
0.0
 10
-33.4031
 20
14.9681
 30
0.0
 10
-33.408
 20
14.9789
 30
0.0
 10
-33.408
 20
14.9789
 30
0.0
 10
-33.4127
 20
14.9897
 30
0.0
 10
-33.4222
 20
14.9978
 30
0.0
 10
-33.4336
 20
15.0009
 30
0.0
  0
SPLINE
  5
E8
330
1F
100
AcDbEntity
  8
DEFAULT_1
 62
   250
100
AcDbSpline
210
0.0
220
0.0
230
1.0
 70
     8
 71
     3
 72
     8
 73
     4
 74
     0
 42
0.0000000001
 43
0.0000000001
 40
0.0
 40
0.0
 40
0.0
 40
0.0
 40
1.0
 40
1.0
 40
1.0
 40
1.0
 10
-33.9295
 20
20.6139
 30
0.0
 10
-35.1323
 20
20.9363
 30
0.0
 10
-36.3686
 20
20.2225
 30
0.0
 10
-36.6908
 20
19.0197
 30
0.0
  0
SPLINE
  5
E9
330
1F
100
AcDbEntity
  8
DEFAULT_1
 62
   250
100
AcDbSpline
210
0.0
220
0.0
230
1.0
 70
     8
 71
     3
 72
    32
 73
    28
 74
     0
 42
0.0000000001
 43
0.0000000001
 40
0.0
 40
0.0
 40
0.0
 40
0.0
 40
0.125
 40
0.125
 40
0.125
 40
0.125
 40
0.25
 40
0.25
 40
0.25
 40
0.25
 40
0.375
 40
0.375
 40
0.375
 40
0.375
 40
0.5
 40
0.5
 40
0.5
 40
0.5
 40
0.625
 40
0.625
 40
0.625
 40
0.625
 40
0.75
 40
0.75
 40
0.75
 40
0.75
 40
1.0
 40
1.0
 40
1.0
 40
1.0
 10
-31.8039
 20
14.9116
 30
0.0
 10
-31.8039
 20
14.9116
 30
0.0
 10
-31.8098
 20
14.8788
 30
0.0
 10
-31.8098
 20
14.8788
 30
0.0
 10
-31.8098
 20
14.8788
 30
0.0
 10
-31.8098
 20
14.8788
 30
0.0
 10
-31.8043
 20
14.8118
 30
0.0
 10
-31.8043
 20
14.8118
 30
0.0
 10
-31.8043
 20
14.8118
 30
0.0
 10
-31.8043
 20
14.8118
 30
0.0
 10
-31.7765
 20
14.7459
 30
0.0
 10
-31.7765
 20
14.7459
 30
0.0
 10
-31.7765
 20
14.7459
 30
0.0
 10
-31.7765
 20
14.7459
 30
0.0
 10
-31.7279
 20
14.6846
 30
0.0
 10
-31.7279
 20
14.6846
 30
0.0
 10
-31.7279
 20
14.6846
 30
0.0
 10
-31.7279
 20
14.6846
 30
0.0
 10
-31.6617
 20
14.6308
 30
0.0
 10
-31.6617
 20
14.6308
 30
0.0
 10
-31.6617
 20
14.6308
 30
0.0
 10
-31.6617
 20
14.6308
 30
0.0
 10
-31.5819
 20
14.5872
 30
0.0
 10
-31.5819
 20
14.5872
 30
0.0
 10
-31.5819
 20
14.5872
 30
0.0
 10
-31.5819
 20
14.5872
 30
0.0
 10
-31.4933
 20
14.556
 30
0.0
 10
-31.4933
 20
14.556
 30
0.0
  0
SPLINE
  5
EA
330
1F
100
AcDbEntity
  8
DEFAULT_1
 62
   250
100
AcDbSpline
210
0.0
220
0.0
230
1.0
 70
     8
 71
     3
 72
    32
 73
    28
 74
     0
 42
0.0000000001
 43
0.0000000001
 40
0.0
 40
0.0
 40
0.0
 40
0.0
 40
0.125
 40
0.125
 40
0.125
 40
0.125
 40
0.25
 40
0.25
 40
0.25
 40
0.25
 40
0.375
 40
0.375
 40
0.375
 40
0.375
 40
0.5
 40
0.5
 40
0.5
 40
0.5
 40
0.625
 40
0.625
 40
0.625
 40
0.625
 40
0.75
 40
0.75
 40
0.75
 40
0.75
 40
1.0
 40
1.0
 40
1.0
 40
1.0
 10
-30.4046
 20
20.134
 30
0.0
 10
-30.4046
 20
20.134
 30
0.0
 10
-30.3933
 20
20.1652
 30
0.0
 10
-30.3933
 20
20.1652
 30
0.0
 10
-30.3933
 20
20.1652
 30
0.0
 10
-30.3933
 20
20.1652
 30
0.0
 10
-30.3551
 20
20.2205
 30
0.0
 10
-30.3551
 20
20.2205
 30
0.0
 10
-30.3551
 20
20.2205
 30
0.0
 10
-30.3551
 20
20.2205
 30
0.0
 10
-30.2981
 20
20.2637
 30
0.0
 10
-30.2981
 20
20.2637
 30
0.0
 10
-30.2981
 20
20.2637
 30
0.0
 10
-30.2981
 20
20.2637
 30
0.0
 10
-30.2253
 20
20.2926
 30
0.0
 10
-30.2253
 20
20.2926
 30
0.0
 10
-30.2253
 20
20.2926
 30
0.0
 10
-30.2253
 20
20.2926
 30
0.0
 10
-30.141
 20
20.306
 30
0.0
 10
-30.141
 20
20.306
 30
0.0
 10
-30.141
 20
20.306
 30
0.0
 10
-30.141
 20
20.306
 30
0.0
 10
-30.0501
 20
20.3038
 30
0.0
 10
-30.0501
 20
20.3038
 30
0.0
 10
-30.0501
 20
20.3038
 30
0.0
 10
-30.0501
 20
20.3038
 30
0.0
 10
-29.9578
 20
20.2866
 30
0.0
 10
-29.9578
 20
20.2866
 30
0.0
  0
SPLINE
  5
EB
330
1F
100
AcDbEntity
  8
DEFAULT_1
 62
   250
100
AcDbSpline
210
0.0
220
0.0
230
1.0
 70
     8
 71
     3
 72
    32
 73
    28
 74
     0
 42
0.0000000001
 43
0.0000000001
 40
0.0
 40
0.0
 40
0.0
 40
0.0
 40
0.125
 40
0.125
 40
0.125
 40
0.125
 40
0.25
 40
0.25
 40
0.25
 40
0.25
 40
0.375
 40
0.375
 40
0.375
 40
0.375
 40
0.5
 40
0.5
 40
0.5
 40
0.5
 40
0.625
 40
0.625
 40
0.625
 40
0.625
 40
0.75
 40
0.75
 40
0.75
 40
0.75
 40
1.0
 40
1.0
 40
1.0
 40
1.0
 10
-30.4225
 20
20.067
 30
0.0
 10
-30.4225
 20
20.067
 30
0.0
 10
-30.4292
 20
20.0047
 30
0.0
 10
-30.4292
 20
20.0047
 30
0.0
 10
-30.4292
 20
20.0047
 30
0.0
 10
-30.4292
 20
20.0047
 30
0.0
 10
-30.4168
 20
19.9379
 30
0.0
 10
-30.4168
 20
19.9379
 30
0.0
 10
-30.4168
 20
19.9379
 30
0.0
 10
-30.4168
 20
19.9379
 30
0.0
 10
-30.3858
 20
19.872
 30
0.0
 10
-30.3858
 20
19.872
 30
0.0
 10
-30.3858
 20
19.872
 30
0.0
 10
-30.3858
 20
19.872
 30
0.0
 10
-30.3388
 20
19.8113
 30
0.0
 10
-30.3388
 20
19.8113
 30
0.0
 10
-30.3388
 20
19.8113
 30
0.0
 10
-30.3388
 20
19.8113
 30
0.0
 10
-30.2763
 20
19.7571
 30
0.0
 10
-30.2763
 20
19.7571
 30
0.0
 10
-30.2763
 20
19.7571
 30
0.0
 10
-30.2763
 20
19.7571
 30
0.0
 10
-30.2009
 20
19.7133
 30
0.0
 10
-30.2009
 20
19.7133
 30
0.0
 10
-30.2009
 20
19.7133
 30
0.0
 10
-30.2009
 20
19.7133
 30
0.0
 10
-30.1193
 20
19.6836
 30
0.0
 10
-30.1193
 20
19.6836
 30
0.0
  0
SPLINE
  5
EC
330
1F
100
AcDbEntity
  8
DEFAULT_1
 62
   250
100
AcDbSpline
210
0.0
220
0.0
230
1.0
 70
     8
 71
     3
 72
    32
 73
    28
 74
     0
 42
0.0000000001
 43
0.0000000001
 40
0.0
 40
0.0
 40
0.0
 40
0.0
 40
0.125
 40
0.125
 40
0.125
 40
0.125
 40
0.25
 40
0.25
 40
0.25
 40
0.25
 40
0.375
 40
0.375
 40
0.375
 40
0.375
 40
0.5
 40
0.5
 40
0.5
 40
0.5
 40
0.625
 40
0.625
 40
0.625
 40
0.625
 40
0.75
 40
0.75
 40
0.75
 40
0.75
 40
1.0
 40
1.0
 40
1.0
 40
1.0
 10
-30.1013
 20
19.7509
 30
0.0
 10
-30.1013
 20
19.7509
 30
0.0
 10
-30.1895
 20
19.7837
 30
0.0
 10
-30.1895
 20
19.7837
 30
0.0
 10
-30.1895
 20
19.7837
 30
0.0
 10
-30.1895
 20
19.7837
 30
0.0
 10
-30.2681
 20
19.8316
 30
0.0
 10
-30.2681
 20
19.8316
 30
0.0
 10
-30.2681
 20
19.8316
 30
0.0
 10
-30.2681
 20
19.8316
 30
0.0
 10
-30.3327
 20
19.8916
 30
0.0
 10
-30.3327
 20
19.8916
 30
0.0
 10
-30.3327
 20
19.8916
 30
0.0
 10
-30.3327
 20
19.8916
 30
0.0
 10
-30.3795
 20
19.9595
 30
0.0
 10
-30.3795
 20
19.9595
 30
0.0
 10
-30.3795
 20
19.9595
 30
0.0
 10
-30.3795
 20
19.9595
 30
0.0
 10
-30.4059
 20
20.0308
 30
0.0
 10
-30.4059
 20
20.0308
 30
0.0
 10
-30.4059
 20
20.0308
 30
0.0
 10
-30.4059
 20
20.0308
 30
0.0
 10
-30.4105
 20
20.1008
 30
0.0
 10
-30.4105
 20
20.1008
 30
0.0
 10
-30.4105
 20
20.1008
 30
0.0
 10
-30.4105
 20
20.1008
 30
0.0
 10
-30.4046
 20
20.134
 30
0.0
 10
-30.4046
 20
20.134
 30
0.0
  0
SPLINE
  5
ED
330
1F
100
AcDbEntity
  8
DEFAULT_1
 62
   250
100
AcDbSpline
210
0.0
220
0.0
230
1.0
 70
     8
 71
     3
 72
    32
 73
    28
 74
     0
 42
0.0000000001
 43
0.0000000001
 40
0.0
 40
0.0
 40
0.0
 40
0.0
 40
0.125
 40
0.125
 40
0.125
 40
0.125
 40
0.25
 40
0.25
 40
0.25
 40
0.25
 40
0.375
 40
0.375
 40
0.375
 40
0.375
 40
0.5
 40
0.5
 40
0.5
 40
0.5
 40
0.625
 40
0.625
 40
0.625
 40
0.625
 40
0.75
 40
0.75
 40
0.75
 40
0.75
 40
1.0
 40
1.0
 40
1.0
 40
1.0
 10
-31.3497
 20
15.0917
 30
0.0
 10
-31.3497
 20
15.0917
 30
0.0
 10
-31.4425
 20
15.1073
 30
0.0
 10
-31.4425
 20
15.1073
 30
0.0
 10
-31.4425
 20
15.1073
 30
0.0
 10
-31.4425
 20
15.1073
 30
0.0
 10
-31.5346
 20
15.1052
 30
0.0
 10
-31.5346
 20
15.1052
 30
0.0
 10
-31.5346
 20
15.1052
 30
0.0
 10
-31.5346
 20
15.1052
 30
0.0
 10
-31.6205
 20
15.0855
 30
0.0
 10
-31.6205
 20
15.0855
 30
0.0
 10
-31.6205
 20
15.0855
 30
0.0
 10
-31.6205
 20
15.0855
 30
0.0
 10
-31.695
 20
15.0501
 30
0.0
 10
-31.695
 20
15.0501
 30
0.0
 10
-31.695
 20
15.0501
 30
0.0
 10
-31.695
 20
15.0501
 30
0.0
 10
-31.7535
 20
15.0015
 30
0.0
 10
-31.7535
 20
15.0015
 30
0.0
 10
-31.7535
 20
15.0015
 30
0.0
 10
-31.7535
 20
15.0015
 30
0.0
 10
-31.7925
 20
14.9432
 30
0.0
 10
-31.7925
 20
14.9432
 30
0.0
 10
-31.7925
 20
14.9432
 30
0.0
 10
-31.7925
 20
14.9432
 30
0.0
 10
-31.8039
 20
14.9116
 30
0.0
 10
-31.8039
 20
14.9116
 30
0.0
  0
SPLINE
  5
EE
330
1F
100
AcDbEntity
  8
DEFAULT_1
 62
   250
100
AcDbSpline
210
0.0
220
0.0
230
1.0
 70
     8
 71
     3
 72
    76
 73
    72
 74
     0
 42
0.0000000001
 43
0.0000000001
 40
0.0
 40
0.0
 40
0.0
 40
0.0
 40
0.0526315789473684
 40
0.0526315789473684
 40
0.0526315789473684
 40
0.0526315789473684
 40
0.1052631578947368
 40
0.1052631578947368
 40
0.1052631578947368
 40
0.1052631578947368
 40
0.1578947368421053
 40
0.1578947368421053
 40
0.1578947368421053
 40
0.1578947368421053
 40
0.2105263157894737
 40
0.2105263157894737
 40
0.2105263157894737
 40
0.2105263157894737
 40
0.2631578947368421
 40
0.2631578947368421
 40
0.2631578947368421
 40
0.2631578947368421
 40
0.3157894736842105
 40
0.3157894736842105
 40
0.3157894736842105
 40
0.3157894736842105
 40
0.3684210526315789
 40
0.3684210526315789
 40
0.3684210526315789
 40
0.3684210526315789
 40
0.4210526315789473
 40
0.4210526315789473
 40
0.4210526315789473
 40
0.4210526315789473
 40
0.4736842105263158
 40
0.4736842105263158
 40
0.4736842105263158
 40
0.4736842105263158
 40
0.5263157894736842
 40
0.5263157894736842
 40
0.5263157894736842
 40
0.5263157894736842
 40
0.5789473684210527
 40
0.5789473684210527
 40
0.5789473684210527
 40
0.5789473684210527
 40
0.631578947368421
 40
0.631578947368421
 40
0.631578947368421
 40
0.631578947368421
 40
0.6842105263157895
 40
0.6842105263157895
 40
0.6842105263157895
 40
0.6842105263157895
 40
0.7368421052631579
 40
0.7368421052631579
 40
0.7368421052631579
 40
0.7368421052631579
 40
0.7894736842105263
 40
0.7894736842105263
 40
0.7894736842105263
 40
0.7894736842105263
 40
0.8421052631578947
 40
0.8421052631578947
 40
0.8421052631578947
 40
0.8421052631578947
 40
0.8947368421052632
 40
0.8947368421052632
 40
0.8947368421052632
 40
0.8947368421052632
 40
1.0
 40
1.0
 40
1.0
 40
1.0
 10
-33.449
 20
15.8169
 30
0.0
 10
-33.449
 20
15.8169
 30
0.0
 10
-33.4618
 20
15.8361
 30
0.0
 10
-33.4618
 20
15.8361
 30
0.0
 10
-33.4618
 20
15.8361
 30
0.0
 10
-33.4618
 20
15.8361
 30
0.0
 10
-33.5014
 20
15.895
 30
0.0
 10
-33.5014
 20
15.895
 30
0.0
 10
-33.5014
 20
15.895
 30
0.0
 10
-33.5014
 20
15.895
 30
0.0
 10
-33.5648
 20
15.9887
 30
0.0
 10
-33.5648
 20
15.9887
 30
0.0
 10
-33.5648
 20
15.9887
 30
0.0
 10
-33.5648
 20
15.9887
 30
0.0
 10
-33.6469
 20
16.1081
 30
0.0
 10
-33.6469
 20
16.1081
 30
0.0
 10
-33.6469
 20
16.1081
 30
0.0
 10
-33.6469
 20
16.1081
 30
0.0
 10
-33.7397
 20
16.2403
 30
0.0
 10
-33.7397
 20
16.2403
 30
0.0
 10
-33.7397
 20
16.2403
 30
0.0
 10
-33.7397
 20
16.2403
 30
0.0
 10
-33.8354
 20
16.3732
 30
0.0
 10
-33.8354
 20
16.3732
 30
0.0
 10
-33.8354
 20
16.3732
 30
0.0
 10
-33.8354
 20
16.3732
 30
0.0
 10
-33.9291
 20
16.4994
 30
0.0
 10
-33.9291
 20
16.4994
 30
0.0
 10
-33.9291
 20
16.4994
 30
0.0
 10
-33.9291
 20
16.4994
 30
0.0
 10
-34.0187
 20
16.6157
 30
0.0
 10
-34.0187
 20
16.6157
 30
0.0
 10
-34.0187
 20
16.6157
 30
0.0
 10
-34.0187
 20
16.6157
 30
0.0
 10
-34.1031
 20
16.7211
 30
0.0
 10
-34.1031
 20
16.7211
 30
0.0
 10
-34.1031
 20
16.7211
 30
0.0
 10
-34.1031
 20
16.7211
 30
0.0
 10
-34.1826
 20
16.816
 30
0.0
 10
-34.1826
 20
16.816
 30
0.0
 10
-34.1826
 20
16.816
 30
0.0
 10
-34.1826
 20
16.816
 30
0.0
 10
-34.2582
 20
16.9021
 30
0.0
 10
-34.2582
 20
16.9021
 30
0.0
 10
-34.2582
 20
16.9021
 30
0.0
 10
-34.2582
 20
16.9021
 30
0.0
 10
-34.3308
 20
16.9805
 30
0.0
 10
-34.3308
 20
16.9805
 30
0.0
 10
-34.3308
 20
16.9805
 30
0.0
 10
-34.3308
 20
16.9805
 30
0.0
 10
-34.4023
 20
17.053
 30
0.0
 10
-34.4023
 20
17.053
 30
0.0
 10
-34.4023
 20
17.053
 30
0.0
 10
-34.4023
 20
17.053
 30
0.0
 10
-34.4744
 20
17.1214
 30
0.0
 10
-34.4744
 20
17.1214
 30
0.0
 10
-34.4744
 20
17.1214
 30
0.0
 10
-34.4744
 20
17.1214
 30
0.0
 10
-34.5496
 20
17.187
 30
0.0
 10
-34.5496
 20
17.187
 30
0.0
 10
-34.5496
 20
17.187
 30
0.0
 10
-34.5496
 20
17.187
 30
0.0
 10
-34.629
 20
17.2499
 30
0.0
 10
-34.629
 20
17.2499
 30
0.0
 10
-34.629
 20
17.2499
 30
0.0
 10
-34.629
 20
17.2499
 30
0.0
 10
-34.7129
 20
17.3085
 30
0.0
 10
-34.7129
 20
17.3085
 30
0.0
 10
-34.7129
 20
17.3085
 30
0.0
 10
-34.7129
 20
17.3085
 30
0.0
 10
-34.8009
 20
17.3615
 30
0.0
 10
-34.8009
 20
17.3615
 30
0.0
  0
SPLINE
  5
EF
330
1F
100
AcDbEntity
  8
DEFAULT_1
 62
   250
100
AcDbSpline
210
0.0
220
0.0
230
1.0
 70
     8
 71
     3
 72
    48
 73
    44
 74
     0
 42
0.0000000001
 43
0.0000000001
 40
0.0
 40
0.0
 40
0.0
 40
0.0
 40
0.0833333333333333
 40
0.0833333333333333
 40
0.0833333333333333
 40
0.0833333333333333
 40
0.1666666666666667
 40
0.1666666666666667
 40
0.1666666666666667
 40
0.1666666666666667
 40
0.25
 40
0.25
 40
0.25
 40
0.25
 40
0.3333333333333333
 40
0.3333333333333333
 40
0.3333333333333333
 40
0.3333333333333333
 40
0.4166666666666667
 40
0.4166666666666667
 40
0.4166666666666667
 40
0.4166666666666667
 40
0.5
 40
0.5
 40
0.5
 40
0.5
 40
0.5833333333333334
 40
0.5833333333333334
 40
0.5833333333333334
 40
0.5833333333333334
 40
0.6666666666666666
 40
0.6666666666666666
 40
0.6666666666666666
 40
0.6666666666666666
 40
0.75
 40
0.75
 40
0.75
 40
0.75
 40
0.8333333333333334
 40
0.8333333333333334
 40
0.8333333333333334
 40
0.8333333333333334
 40
1.0
 40
1.0
 40
1.0
 40
1.0
 10
-34.8009
 20
17.3615
 30
0.0
 10
-34.8009
 20
17.3615
 30
0.0
 10
-35.0749
 20
17.5155
 30
0.0
 10
-35.0749
 20
17.5155
 30
0.0
 10
-35.0749
 20
17.5155
 30
0.0
 10
-35.0749
 20
17.5155
 30
0.0
 10
-35.3491
 20
17.6768
 30
0.0
 10
-35.3491
 20
17.6768
 30
0.0
 10
-35.3491
 20
17.6768
 30
0.0
 10
-35.3491
 20
17.6768
 30
0.0
 10
-35.6135
 20
17.8412
 30
0.0
 10
-35.6135
 20
17.8412
 30
0.0
 10
-35.6135
 20
17.8412
 30
0.0
 10
-35.6135
 20
17.8412
 30
0.0
 10
-35.8611
 20
18.0062
 30
0.0
 10
-35.8611
 20
18.0062
 30
0.0
 10
-35.8611
 20
18.0062
 30
0.0
 10
-35.8611
 20
18.0062
 30
0.0
 10
-36.0887
 20
18.1719
 30
0.0
 10
-36.0887
 20
18.1719
 30
0.0
 10
-36.0887
 20
18.1719
 30
0.0
 10
-36.0887
 20
18.1719
 30
0.0
 10
-36.2886
 20
18.335
 30
0.0
 10
-36.2886
 20
18.335
 30
0.0
 10
-36.2886
 20
18.335
 30
0.0
 10
-36.2886
 20
18.335
 30
0.0
 10
-36.453
 20
18.4917
 30
0.0
 10
-36.453
 20
18.4917
 30
0.0
 10
-36.453
 20
18.4917
 30
0.0
 10
-36.453
 20
18.4917
 30
0.0
 10
-36.5776
 20
18.6398
 30
0.0
 10
-36.5776
 20
18.6398
 30
0.0
 10
-36.5776
 20
18.6398
 30
0.0
 10
-36.5776
 20
18.6398
 30
0.0
 10
-36.6596
 20
18.7777
 30
0.0
 10
-36.6596
 20
18.7777
 30
0.0
 10
-36.6596
 20
18.7777
 30
0.0
 10
-36.6596
 20
18.7777
 30
0.0
 10
-36.6976
 20
18.9045
 30
0.0
 10
-36.6976
 20
18.9045
 30
0.0
 10
-36.6976
 20
18.9045
 30
0.0
 10
-36.6976
 20
18.9045
 30
0.0
 10
-36.6908
 20
19.0197
 30
0.0
 10
-36.6908
 20
19.0197
 30
0.0
  0
SPLINE
  5
F0
330
1F
100
AcDbEntity
  8
DEFAULT_1
 62
   250
100
AcDbSpline
210
0.0
220
0.0
230
1.0
 70
     8
 71
     3
 72
    16
 73
    12
 74
     0
 42
0.0000000001
 43
0.0000000001
 40
0.0
 40
0.0
 40
0.0
 40
0.0
 40
0.25
 40
0.25
 40
0.25
 40
0.25
 40
0.5
 40
0.5
 40
0.5
 40
0.5
 40
1.0
 40
1.0
 40
1.0
 40
1.0
 10
-24.4204
 20
12.8395
 30
0.0
 10
-24.4204
 20
12.8395
 30
0.0
 10
-24.3823
 20
12.8849
 30
0.0
 10
-24.3823
 20
12.8849
 30
0.0
 10
-24.3823
 20
12.8849
 30
0.0
 10
-24.3823
 20
12.8849
 30
0.0
 10
-24.2688
 20
13.0236
 30
0.0
 10
-24.2688
 20
13.0236
 30
0.0
 10
-24.2688
 20
13.0236
 30
0.0
 10
-24.2688
 20
13.0236
 30
0.0
 10
-24.1538
 20
13.1702
 30
0.0
 10
-24.1538
 20
13.1702
 30
0.0
  0
SPLINE
  5
F1
330
1F
100
AcDbEntity
  8
DEFAULT_1
 62
   250
100
AcDbSpline
210
0.0
220
0.0
230
1.0
 70
    24
 71
     3
 72
     8
 73
     4
 74
     0
 42
0.0000000001
 43
0.0000000001
 40
0.0
 40
0.0
 40
0.0
 40
0.0
 40
1.0
 40
1.0
 40
1.0
 40
1.0
 10
-24.1538
 20
13.1702
 30
0.0
 10
-24.1538
 20
13.1702
 30
0.0
 10
-24.0949
 20
13.2481
 30
0.0
 10
-24.0949
 20
13.2481
 30
0.0
  0
SPLINE
  5
F2
330
1F
100
AcDbEntity
  8
DEFAULT_1
 62
   250
100
AcDbSpline
210
0.0
220
0.0
230
1.0
 70
    24
 71
     3
 72
     8
 73
     4
 74
     0
 42
0.0000000001
 43
0.0000000001
 40
0.0
 40
0.0
 40
0.0
 40
0.0
 40
1.0
 40
1.0
 40
1.0
 40
1.0
 10
-24.0949
 20
13.2481
 30
0.0
 10
-24.0949
 20
13.2481
 30
0.0
 10
-24.0608
 20
13.2941
 30
0.0
 10
-24.0608
 20
13.2941
 30
0.0
  0
SPLINE
  5
F3
330
1F
100
AcDbEntity
  8
DEFAULT_1
 62
   250
100
AcDbSpline
210
0.0
220
0.0
230
1.0
 70
     8
 71
     3
 72
    64
 73
    60
 74
     0
 42
0.0000000001
 43
0.0000000001
 40
0.0
 40
0.0
 40
0.0
 40
0.0
 40
0.0625
 40
0.0625
 40
0.0625
 40
0.0625
 40
0.125
 40
0.125
 40
0.125
 40
0.125
 40
0.1875
 40
0.1875
 40
0.1875
 40
0.1875
 40
0.25
 40
0.25
 40
0.25
 40
0.25
 40
0.3125
 40
0.3125
 40
0.3125
 40
0.3125
 40
0.375
 40
0.375
 40
0.375
 40
0.375
 40
0.4375
 40
0.4375
 40
0.4375
 40
0.4375
 40
0.5
 40
0.5
 40
0.5
 40
0.5
 40
0.5625
 40
0.5625
 40
0.5625
 40
0.5625
 40
0.625
 40
0.625
 40
0.625
 40
0.625
 40
0.6875
 40
0.6875
 40
0.6875
 40
0.6875
 40
0.75
 40
0.75
 40
0.75
 40
0.75
 40
0.8125
 40
0.8125
 40
0.8125
 40
0.8125
 40
0.875
 40
0.875
 40
0.875
 40
0.875
 40
1.0
 40
1.0
 40
1.0
 40
1.0
 10
-24.0608
 20
13.2941
 30
0.0
 10
-24.0608
 20
13.2941
 30
0.0
 10
-23.8873
 20
13.5421
 30
0.0
 10
-23.8873
 20
13.5421
 30
0.0
 10
-23.8873
 20
13.5421
 30
0.0
 10
-23.8873
 20
13.5421
 30
0.0
 10
-23.6745
 20
13.891
 30
0.0
 10
-23.6745
 20
13.891
 30
0.0
 10
-23.6745
 20
13.891
 30
0.0
 10
-23.6745
 20
13.891
 30
0.0
 10
-23.4813
 20
14.2895
 30
0.0
 10
-23.4813
 20
14.2895
 30
0.0
 10
-23.4813
 20
14.2895
 30
0.0
 10
-23.4813
 20
14.2895
 30
0.0
 10
-23.3366
 20
14.7237
 30
0.0
 10
-23.3366
 20
14.7237
 30
0.0
 10
-23.3366
 20
14.7237
 30
0.0
 10
-23.3366
 20
14.7237
 30
0.0
 10
-23.2602
 20
15.183
 30
0.0
 10
-23.2602
 20
15.183
 30
0.0
 10
-23.2602
 20
15.183
 30
0.0
 10
-23.2602
 20
15.183
 30
0.0
 10
-23.2597
 20
15.6535
 30
0.0
 10
-23.2597
 20
15.6535
 30
0.0
 10
-23.2597
 20
15.6535
 30
0.0
 10
-23.2597
 20
15.6535
 30
0.0
 10
-23.3316
 20
16.1363
 30
0.0
 10
-23.3316
 20
16.1363
 30
0.0
 10
-23.3316
 20
16.1363
 30
0.0
 10
-23.3316
 20
16.1363
 30
0.0
 10
-23.4682
 20
16.6317
 30
0.0
 10
-23.4682
 20
16.6317
 30
0.0
 10
-23.4682
 20
16.6317
 30
0.0
 10
-23.4682
 20
16.6317
 30
0.0
 10
-23.6431
 20
17.0983
 30
0.0
 10
-23.6431
 20
17.0983
 30
0.0
 10
-23.6431
 20
17.0983
 30
0.0
 10
-23.6431
 20
17.0983
 30
0.0
 10
-23.83
 20
17.517
 30
0.0
 10
-23.83
 20
17.517
 30
0.0
 10
-23.83
 20
17.517
 30
0.0
 10
-23.83
 20
17.517
 30
0.0
 10
-24.0107
 20
17.8808
 30
0.0
 10
-24.0107
 20
17.8808
 30
0.0
 10
-24.0107
 20
17.8808
 30
0.0
 10
-24.0107
 20
17.8808
 30
0.0
 10
-24.1729
 20
18.1858
 30
0.0
 10
-24.1729
 20
18.1858
 30
0.0
 10
-24.1729
 20
18.1858
 30
0.0
 10
-24.1729
 20
18.1858
 30
0.0
 10
-24.3029
 20
18.4194
 30
0.0
 10
-24.3029
 20
18.4194
 30
0.0
 10
-24.3029
 20
18.4194
 30
0.0
 10
-24.3029
 20
18.4194
 30
0.0
 10
-24.3898
 20
18.5714
 30
0.0
 10
-24.3898
 20
18.5714
 30
0.0
 10
-24.3898
 20
18.5714
 30
0.0
 10
-24.3898
 20
18.5714
 30
0.0
 10
-24.4204
 20
18.6242
 30
0.0
 10
-24.4204
 20
18.6242
 30
0.0
  0
SPLINE
  5
F4
330
1F
100
AcDbEntity
  8
DEFAULT_1
  6
NEW_LINE1
 62
   250
100
AcDbSpline
210
0.0
220
0.0
230
1.0
 70
    24
 71
     3
 72
     8
 73
     4
 74
     0
 42
0.0000000001
 43
0.0000000001
 40
0.0
 40
0.0
 40
0.0
 40
0.0
 40
1.0
 40
1.0
 40
1.0
 40
1.0
 10
-20.5263
 20
-28.28
 30
0.0
 10
-20.5263
 20
-28.28
 30
0.0
 10
-20.5263
 20
26.1213
 30
0.0
 10
-20.5263
 20
26.1213
 30
0.0
  0
SPLINE
  5
F6
330
1F
100
AcDbEntity
  8
DEFAULT_1
  6
NEW_LINE2
 62
   250
100
AcDbSpline
210
0.0
220
0.0
230
1.0
 70
    24
 71
     3
 72
     8
 73
     4
 74
     0
 42
0.0000000001
 43
0.0000000001
 40
0.0
 40
0.0
 40
0.0
 40
0.0
 40
1.0
 40
1.0
 40
1.0
 40
1.0
 10
43.7256
 20
-13.3248
 30
0.0
 10
43.7256
 20
-13.3248
 30
0.0
 10
-11.3102
 20
-13.3248
 30
0.0
 10
-11.3102
 20
-13.3248
 30
0.0
  0
SPLINE
  5
F8
330
1F
100
AcDbEntity
  8
DEFAULT_1
  6
NEW_LINE3
 62
   250
100
AcDbSpline
210
0.0
220
0.0
230
1.0
 70
    24
 71
     3
 72
     8
 73
     4
 74
     0
 42
0.0000000001
 43
0.0000000001
 40
0.0
 40
0.0
 40
0.0
 40
0.0
 40
1.0
 40
1.0
 40
1.0
 40
1.0
 10
-8.5816
 20
-28.28
 30
0.0
 10
-8.5816
 20
-28.28
 30
0.0
 10
-8.5816
 20
-10.5254
 30
0.0
 10
-8.5816
 20
-10.5254
 30
0.0
  0
SPLINE
  5
FA
330
1F
100
AcDbEntity
  8
DEFAULT_1
 62
   250
100
AcDbSpline
210
0.0
220
0.0
230
1.0
 70
    24
 71
     3
 72
     8
 73
     4
 74
     0
 42
0.0000000001
 43
0.0000000001
 40
0.0
 40
0.0
 40
0.0
 40
0.0
 40
1.0
 40
1.0
 40
1.0
 40
1.0
 10
15.9759
 20
-25.4431
 30
0.0
 10
15.9759
 20
-25.4431
 30
0.0
 10
15.9759
 20
-4.4135
 30
0.0
 10
15.9759
 20
-4.4135
 30
0.0
  0
SPLINE
  5
FB
330
1F
100
AcDbEntity
  8
DEFAULT_1
 62
   250
100
AcDbSpline
210
0.0
220
0.0
230
1.0
 70
    24
 71
     3
 72
     8
 73
     4
 74
     0
 42
0.0000000001
 43
0.0000000001
 40
0.0
 40
0.0
 40
0.0
 40
0.0
 40
1.0
 40
1.0
 40
1.0
 40
1.0
 10
27.0701
 20
-20.3617
 30
0.0
 10
27.0701
 20
-20.3617
 30
0.0
 10
29.7987
 20
-20.3617
 30
0.0
 10
29.7987
 20
-20.3617
 30
0.0
  0
SPLINE
  5
FC
330
1F
100
AcDbEntity
  8
DEFAULT_1
 62
   250
100
AcDbSpline
210
0.0
220
0.0
230
1.0
 70
    24
 71
     3
 72
     8
 73
     4
 74
     0
 42
0.0000000001
 43
0.0000000001
 40
0.0
 40
0.0
 40
0.0
 40
0.0
 40
1.0
 40
1.0
 40
1.0
 40
1.0
 10
42.0775
 20
-18.2178
 30
0.0
 10
42.0775
 20
-18.2178
 30
0.0
 10
30.3834
 20
-18.2178
 30
0.0
 10
30.3834
 20
-18.2178
 30
0.0
  0
SPLINE
  5
FD
330
1F
100
AcDbEntity
  8
DEFAULT_1
 62
   250
100
AcDbSpline
210
0.0
220
0.0
230
1.0
 70
    24
 71
     3
 72
     8
 73
     4
 74
     0
 42
0.0000000001
 43
0.0000000001
 40
0.0
 40
0.0
 40
0.0
 40
0.0
 40
1.0
 40
1.0
 40
1.0
 40
1.0
 10
25.316
 20
-18.2178
 30
0.0
 10
25.316
 20
-18.2178
 30
0.0
 10
-0.0874
 20
-18.2178
 30
0.0
 10
-0.0874
 20
-18.2178
 30
0.0
  0
SPLINE
  5
FE
330
1F
100
AcDbEntity
  8
DEFAULT_1
 62
   250
100
AcDbSpline
210
0.0
220
0.0
230
1.0
 70
    24
 71
     3
 72
     8
 73
     4
 74
     0
 42
0.0000000001
 43
0.0000000001
 40
0.0
 40
0.0
 40
0.0
 40
0.0
 40
1.0
 40
1.0
 40
1.0
 40
1.0
 10
-1.7753
 20
-17.2433
 30
0.0
 10
-1.7753
 20
-17.2433
 30
0.0
 10
-4.6988
 20
-17.2433
 30
0.0
 10
-4.6988
 20
-17.2433
 30
0.0
  0
SPLINE
  5
FF
330
1F
100
AcDbEntity
  8
DEFAULT_1
 62
   250
100
AcDbSpline
210
0.0
220
0.0
230
1.0
 70
    24
 71
     3
 72
     8
 73
     4
 74
     0
 42
0.0000000001
 43
0.0000000001
 40
0.0
 40
0.0
 40
0.0
 40
0.0
 40
1.0
 40
1.0
 40
1.0
 40
1.0
 10
-0.0874
 20
-18.2178
 30
0.0
 10
-0.0874
 20
-18.2178
 30
0.0
 10
-1.7753
 20
-17.2433
 30
0.0
 10
-1.7753
 20
-17.2433
 30
0.0
  0
SPLINE
  5
100
330
1F
100
AcDbEntity
  8
DEFAULT_1
 62
   250
100
AcDbSpline
210
0.0
220
0.0
230
1.0
 70
    24
 71
     3
 72
     8
 73
     4
 74
     0
 42
0.0000000001
 43
0.0000000001
 40
0.0
 40
0.0
 40
0.0
 40
0.0
 40
1.0
 40
1.0
 40
1.0
 40
1.0
 10
-12.4949
 20
-13.3452
 30
0.0
 10
-12.4949
 20
-13.3452
 30
0.0
 10
-12.4949
 20
-20.9464
 30
0.0
 10
-12.4949
 20
-20.9464
 30
0.0
  0
SPLINE
  5
101
330
1F
100
AcDbEntity
  8
DEFAULT_1
 62
   250
100
AcDbSpline
210
0.0
220
0.0
230
1.0
 70
    24
 71
     3
 72
     8
 73
     4
 74
     0
 42
0.0000000001
 43
0.0000000001
 40
0.0
 40
0.0
 40
0.0
 40
0.0
 40
1.0
 40
1.0
 40
1.0
 40
1.0
 10
-1.7753
 20
-9.4472
 30
0.0
 10
-1.7753
 20
-9.4472
 30
0.0
 10
-8.5968
 20
-9.4472
 30
0.0
 10
-8.5968
 20
-9.4472
 30
0.0
  0
SPLINE
  5
102
330
1F
100
AcDbEntity
  8
DEFAULT_1
 62
   250
100
AcDbSpline
210
0.0
220
0.0
230
1.0
 70
    24
 71
     3
 72
     8
 73
     4
 74
     0
 42
0.0000000001
 43
0.0000000001
 40
0.0
 40
0.0
 40
0.0
 40
0.0
 40
1.0
 40
1.0
 40
1.0
 40
1.0
 10
42.0775
 20
-8.4727
 30
0.0
 10
42.0775
 20
-8.4727
 30
0.0
 10
30.3834
 20
-8.4727
 30
0.0
 10
30.3834
 20
-8.4727
 30
0.0
  0
SPLINE
  5
103
330
1F
100
AcDbEntity
  8
DEFAULT_1
 62
   250
100
AcDbSpline
210
0.0
220
0.0
230
1.0
 70
    24
 71
     3
 72
     8
 73
     4
 74
     0
 42
0.0000000001
 43
0.0000000001
 40
0.0
 40
0.0
 40
0.0
 40
0.0
 40
1.0
 40
1.0
 40
1.0
 40
1.0
 10
25.316
 20
-8.4727
 30
0.0
 10
25.316
 20
-8.4727
 30
0.0
 10
-0.0874
 20
-8.4727
 30
0.0
 10
-0.0874
 20
-8.4727
 30
0.0
  0
SPLINE
  5
104
330
1F
100
AcDbEntity
  8
DEFAULT_1
 62
   250
100
AcDbSpline
210
0.0
220
0.0
230
1.0
 70
    24
 71
     3
 72
     8
 73
     4
 74
     0
 42
0.0000000001
 43
0.0000000001
 40
0.0
 40
0.0
 40
0.0
 40
0.0
 40
1.0
 40
1.0
 40
1.0
 40
1.0
 10
-4.6988
 20
-17.2433
 30
0.0
 10
-4.6988
 20
-17.2433
 30
0.0
 10
-4.6988
 20
-20.9464
 30
0.0
 10
-4.6988
 20
-20.9464
 30
0.0
  0
SPLINE
  5
105
330
1F
100
AcDbEntity
  8
DEFAULT_1
 62
   250
100
AcDbSpline
210
0.0
220
0.0
230
1.0
 70
    24
 71
     3
 72
     8
 73
     4
 74
     0
 42
0.0000000001
 43
0.0000000001
 40
0.0
 40
0.0
 40
0.0
 40
0.0
 40
1.0
 40
1.0
 40
1.0
 40
1.0
 10
27.0701
 20
-6.3288
 30
0.0
 10
27.0701
 20
-6.3288
 30
0.0
 10
29.7987
 20
-6.3288
 30
0.0
 10
29.7987
 20
-6.3288
 30
0.0
  0
SPLINE
  5
106
330
1F
100
AcDbEntity
  8
DEFAULT_1
 62
   250
100
AcDbSpline
210
0.0
220
0.0
230
1.0
 70
    24
 71
     3
 72
     8
 73
     4
 74
     0
 42
0.0000000001
 43
0.0000000001
 40
0.0
 40
0.0
 40
0.0
 40
0.0
 40
1.0
 40
1.0
 40
1.0
 40
1.0
 10
-1.7753
 20
-17.2433
 30
0.0
 10
-1.7753
 20
-17.2433
 30
0.0
 10
-1.7753
 20
-9.4472
 30
0.0
 10
-1.7753
 20
-9.4472
 30
0.0
  0
SPLINE
  5
107
330
1F
100
AcDbEntity
  8
DEFAULT_1
 62
   250
100
AcDbSpline
210
0.0
220
0.0
230
1.0
 70
    24
 71
     3
 72
     8
 73
     4
 74
     0
 42
0.0000000001
 43
0.0000000001
 40
0.0
 40
0.0
 40
0.0
 40
0.0
 40
1.0
 40
1.0
 40
1.0
 40
1.0
 10
-0.0874
 20
-18.2178
 30
0.0
 10
-0.0874
 20
-18.2178
 30
0.0
 10
-0.0874
 20
-8.4727
 30
0.0
 10
-0.0874
 20
-8.4727
 30
0.0
  0
SPLINE
  5
108
330
1F
100
AcDbEntity
  8
DEFAULT_1
 62
   250
100
AcDbSpline
210
0.0
220
0.0
230
1.0
 70
    24
 71
     3
 72
     8
 73
     4
 74
     0
 42
0.0000000001
 43
0.0000000001
 40
0.0
 40
0.0
 40
0.0
 40
0.0
 40
1.0
 40
1.0
 40
1.0
 40
1.0
 10
29.7987
 20
-20.3617
 30
0.0
 10
29.7987
 20
-20.3617
 30
0.0
 10
30.3834
 20
-20.9464
 30
0.0
 10
30.3834
 20
-20.9464
 30
0.0
  0
SPLINE
  5
109
330
1F
100
AcDbEntity
  8
DEFAULT_1
 62
   250
100
AcDbSpline
210
0.0
220
0.0
230
1.0
 70
    24
 71
     3
 72
     8
 73
     4
 74
     0
 42
0.0000000001
 43
0.0000000001
 40
0.0
 40
0.0
 40
0.0
 40
0.0
 40
1.0
 40
1.0
 40
1.0
 40
1.0
 10
-0.0874
 20
-8.4727
 30
0.0
 10
-0.0874
 20
-8.4727
 30
0.0
 10
-1.7753
 20
-9.4472
 30
0.0
 10
-1.7753
 20
-9.4472
 30
0.0
  0
SPLINE
  5
10A
330
1F
100
AcDbEntity
  8
DEFAULT_1
 62
   250
100
AcDbSpline
210
0.0
220
0.0
230
1.0
 70
    24
 71
     3
 72
     8
 73
     4
 74
     0
 42
0.0000000001
 43
0.0000000001
 40
0.0
 40
0.0
 40
0.0
 40
0.0
 40
1.0
 40
1.0
 40
1.0
 40
1.0
 10
25.316
 20
-8.0829
 30
0.0
 10
25.316
 20
-8.0829
 30
0.0
 10
25.316
 20
-18.6076
 30
0.0
 10
25.316
 20
-18.6076
 30
0.0
  0
SPLINE
  5
10B
330
1F
100
AcDbEntity
  8
DEFAULT_1
 62
   250
100
AcDbSpline
210
0.0
220
0.0
230
1.0
 70
    24
 71
     3
 72
     8
 73
     4
 74
     0
 42
0.0000000001
 43
0.0000000001
 40
0.0
 40
0.0
 40
0.0
 40
0.0
 40
1.0
 40
1.0
 40
1.0
 40
1.0
 10
29.7987
 20
-6.3288
 30
0.0
 10
29.7987
 20
-6.3288
 30
0.0
 10
29.7987
 20
-20.3617
 30
0.0
 10
29.7987
 20
-20.3617
 30
0.0
  0
SPLINE
  5
10C
330
1F
100
AcDbEntity
  8
DEFAULT_1
 62
   250
100
AcDbSpline
210
0.0
220
0.0
230
1.0
 70
    24
 71
     3
 72
     8
 73
     4
 74
     0
 42
0.0000000001
 43
0.0000000001
 40
0.0
 40
0.0
 40
0.0
 40
0.0
 40
1.0
 40
1.0
 40
1.0
 40
1.0
 10
30.3834
 20
-5.7441
 30
0.0
 10
30.3834
 20
-5.7441
 30
0.0
 10
30.3834
 20
-20.9464
 30
0.0
 10
30.3834
 20
-20.9464
 30
0.0
  0
SPLINE
  5
10D
330
1F
100
AcDbEntity
  8
DEFAULT_1
 62
   250
100
AcDbSpline
210
0.0
220
0.0
230
1.0
 70
    24
 71
     3
 72
     8
 73
     4
 74
     0
 42
0.0000000001
 43
0.0000000001
 40
0.0
 40
0.0
 40
0.0
 40
0.0
 40
1.0
 40
1.0
 40
1.0
 40
1.0
 10
29.7987
 20
-6.3288
 30
0.0
 10
29.7987
 20
-6.3288
 30
0.0
 10
30.3834
 20
-5.7441
 30
0.0
 10
30.3834
 20
-5.7441
 30
0.0
  0
SPLINE
  5
10E
330
1F
100
AcDbEntity
  8
DEFAULT_1
 62
   250
100
AcDbSpline
210
0.0
220
0.0
230
1.0
 70
    24
 71
     3
 72
     8
 73
     4
 74
     0
 42
0.0000000001
 43
0.0000000001
 40
0.0
 40
0.0
 40
0.0
 40
0.0
 40
1.0
 40
1.0
 40
1.0
 40
1.0
 10
42.0775
 20
-18.2178
 30
0.0
 10
42.0775
 20
-18.2178
 30
0.0
 10
42.0775
 20
-8.4727
 30
0.0
 10
42.0775
 20
-8.4727
 30
0.0
  0
SPLINE
  5
10F
330
1F
100
AcDbEntity
  8
DEFAULT_1
 62
   250
100
AcDbSpline
210
0.0
220
0.0
230
1.0
 70
     8
 71
     3
 72
     8
 73
     4
 74
     0
 42
0.0000000001
 43
0.0000000001
 40
0.0
 40
0.0
 40
0.0
 40
0.0
 40
1.0
 40
1.0
 40
1.0
 40
1.0
 10
27.0701
 20
-6.3288
 30
0.0
 10
26.1013
 20
-6.3288
 30
0.0
 10
25.316
 20
-7.1141
 30
0.0
 10
25.316
 20
-8.0829
 30
0.0
  0
SPLINE
  5
110
330
1F
100
AcDbEntity
  8
DEFAULT_1
 62
   250
100
AcDbSpline
210
0.0
220
0.0
230
1.0
 70
     8
 71
     3
 72
     8
 73
     4
 74
     0
 42
0.0000000001
 43
0.0000000001
 40
0.0
 40
0.0
 40
0.0
 40
0.0
 40
1.0
 40
1.0
 40
1.0
 40
1.0
 10
25.316
 20
-18.6076
 30
0.0
 10
25.316
 20
-19.5763
 30
0.0
 10
26.1013
 20
-20.3617
 30
0.0
 10
27.0701
 20
-20.3617
 30
0.0
  0
SPLINE
  5
111
330
1F
100
AcDbEntity
  8
DEFAULT_1
 62
   250
100
AcDbSpline
210
0.0
220
0.0
230
1.0
 70
     8
 71
     3
 72
     8
 73
     4
 74
     0
 42
0.0000000001
 43
0.0000000001
 40
0.0
 40
0.0
 40
0.0
 40
0.0
 40
1.0
 40
1.0
 40
1.0
 40
1.0
 10
-8.5968
 20
-9.4472
 30
0.0
 10
-10.7497
 20
-9.4472
 30
0.0
 10
-12.4949
 20
-11.1924
 30
0.0
 10
-12.4949
 20
-13.3452
 30
0.0
  0
SPLINE
  5
112
330
1F
100
AcDbEntity
  8
DEFAULT_1
 62
   250
100
AcDbSpline
210
0.0
220
0.0
230
1.0
 70
     8
 71
     3
 72
    40
 73
    36
 74
     0
 42
0.0000000001
 43
0.0000000001
 40
0.0
 40
0.0
 40
0.0
 40
0.0
 40
0.1
 40
0.1
 40
0.1
 40
0.1
 40
0.2
 40
0.2
 40
0.2
 40
0.2
 40
0.3
 40
0.3
 40
0.3
 40
0.3
 40
0.4
 40
0.4
 40
0.4
 40
0.4
 40
0.5
 40
0.5
 40
0.5
 40
0.5
 40
0.6
 40
0.6
 40
0.6
 40
0.6
 40
0.7
 40
0.7
 40
0.7
 40
0.7
 40
0.8
 40
0.8
 40
0.8
 40
0.8
 40
1.0
 40
1.0
 40
1.0
 40
1.0
 10
-4.6988
 20
-17.2433
 30
0.0
 10
-4.6988
 20
-17.2433
 30
0.0
 10
-4.7445
 20
-17.1976
 30
0.0
 10
-4.7445
 20
-17.1976
 30
0.0
 10
-4.7445
 20
-17.1976
 30
0.0
 10
-4.7445
 20
-17.1976
 30
0.0
 10
-4.8825
 20
-17.0596
 30
0.0
 10
-4.8825
 20
-17.0596
 30
0.0
 10
-4.8825
 20
-17.0596
 30
0.0
 10
-4.8825
 20
-17.0596
 30
0.0
 10
-5.1148
 20
-16.8273
 30
0.0
 10
-5.1148
 20
-16.8273
 30
0.0
 10
-5.1148
 20
-16.8273
 30
0.0
 10
-5.1148
 20
-16.8273
 30
0.0
 10
-5.4547
 20
-16.4873
 30
0.0
 10
-5.4547
 20
-16.4873
 30
0.0
 10
-5.4547
 20
-16.4873
 30
0.0
 10
-5.4547
 20
-16.4873
 30
0.0
 10
-5.9136
 20
-16.0284
 30
0.0
 10
-5.9136
 20
-16.0284
 30
0.0
 10
-5.9136
 20
-16.0284
 30
0.0
 10
-5.9136
 20
-16.0284
 30
0.0
 10
-6.5006
 20
-15.4414
 30
0.0
 10
-6.5006
 20
-15.4414
 30
0.0
 10
-6.5006
 20
-15.4414
 30
0.0
 10
-6.5006
 20
-15.4414
 30
0.0
 10
-7.1808
 20
-14.7613
 30
0.0
 10
-7.1808
 20
-14.7613
 30
0.0
 10
-7.1808
 20
-14.7613
 30
0.0
 10
-7.1808
 20
-14.7613
 30
0.0
 10
-7.8999
 20
-14.0422
 30
0.0
 10
-7.8999
 20
-14.0422
 30
0.0
 10
-7.8999
 20
-14.0422
 30
0.0
 10
-7.8999
 20
-14.0422
 30
0.0
 10
-8.5968
 20
-13.3452
 30
0.0
 10
-8.5968
 20
-13.3452
 30
0.0
  0
SPLINE
  5
113
330
1F
100
AcDbEntity
  8
DEFAULT_1
  6
NEW_LINE4
 62
   250
100
AcDbSpline
210
0.0
220
0.0
230
1.0
 70
    24
 71
     3
 72
     8
 73
     4
 74
     0
 42
0.0000000001
 43
0.0000000001
 40
0.0
 40
0.0
 40
0.0
 40
0.0
 40
1.0
 40
1.0
 40
1.0
 40
1.0
 10
-35.2816
 20
18.6447
 30
0.0
 10
-35.2816
 20
18.6447
 30
0.0
 10
-20.5508
 20
14.6976
 30
0.0
 10
-20.5508
 20
14.6976
 30
0.0
  0
SPLINE
  5
115
330
1F
100
AcDbEntity
  8
DEFAULT_1
  6
NEW_LINE5
 62
   250
100
AcDbSpline
210
0.0
220
0.0
230
1.0
 70
    24
 71
     3
 72
     8
 73
     4
 74
     0
 42
0.0000000001
 43
0.0000000001
 40
0.0
 40
0.0
 40
0.0
 40
0.0
 40
1.0
 40
1.0
 40
1.0
 40
1.0
 10
-34.7374
 20
18.832
 30
0.0
 10
-34.7374
 20
18.832
 30
0.0
 10
-37.6287
 20
8.0417
 30
0.0
 10
-37.6287
 20
8.0417
 30
0.0
  0
SPLINE
  5
117
330
1F
100
AcDbEntity
  8
DEFAULT_1
 62
   250
100
AcDbSpline
210
0.0
220
0.0
230
1.0
 70
    11
 71
     3
 72
   120
 73
   116
 74
     0
 42
0.0000000001
 43
0.0000000001
 40
0.0
 40
0.0
 40
0.0
 40
0.0
 40
0.0333333333333333
 40
0.0333333333333333
 40
0.0333333333333333
 40
0.0333333333333333
 40
0.0666666666666667
 40
0.0666666666666667
 40
0.0666666666666667
 40
0.0666666666666667
 40
0.1
 40
0.1
 40
0.1
 40
0.1
 40
0.1333333333333333
 40
0.1333333333333333
 40
0.1333333333333333
 40
0.1333333333333333
 40
0.1666666666666667
 40
0.1666666666666667
 40
0.1666666666666667
 40
0.1666666666666667
 40
0.2
 40
0.2
 40
0.2
 40
0.2
 40
0.2333333333333333
 40
0.2333333333333333
 40
0.2333333333333333
 40
0.2333333333333333
 40
0.2666666666666667
 40
0.2666666666666667
 40
0.2666666666666667
 40
0.2666666666666667
 40
0.3
 40
0.3
 40
0.3
 40
0.3
 40
0.3333333333333333
 40
0.3333333333333333
 40
0.3333333333333333
 40
0.3333333333333333
 40
0.3666666666666666
 40
0.3666666666666666
 40
0.3666666666666666
 40
0.3666666666666666
 40
0.4
 40
0.4
 40
0.4
 40
0.4
 40
0.4333333333333333
 40
0.4333333333333333
 40
0.4333333333333333
 40
0.4333333333333333
 40
0.4666666666666667
 40
0.4666666666666667
 40
0.4666666666666667
 40
0.4666666666666667
 40
0.5
 40
0.5
 40
0.5
 40
0.5
 40
0.5333333333333333
 40
0.5333333333333333
 40
0.5333333333333333
 40
0.5333333333333333
 40
0.5666666666666667
 40
0.5666666666666667
 40
0.5666666666666667
 40
0.5666666666666667
 40
0.6
 40
0.6
 40
0.6
 40
0.6
 40
0.6333333333333333
 40
0.6333333333333333
 40
0.6333333333333333
 40
0.6333333333333333
 40
0.6666666666666666
 40
0.6666666666666666
 40
0.6666666666666666
 40
0.6666666666666666
 40
0.7
 40
0.7
 40
0.7
 40
0.7
 40
0.7333333333333333
 40
0.7333333333333333
 40
0.7333333333333333
 40
0.7333333333333333
 40
0.7666666666666667
 40
0.7666666666666667
 40
0.7666666666666667
 40
0.7666666666666667
 40
0.8
 40
0.8
 40
0.8
 40
0.8
 40
0.8333333333333334
 40
0.8333333333333334
 40
0.8333333333333334
 40
0.8333333333333334
 40
0.8666666666666667
 40
0.8666666666666667
 40
0.8666666666666667
 40
0.8666666666666667
 40
0.9
 40
0.9
 40
0.9
 40
0.9
 40
0.9333333333333333
 40
0.9333333333333333
 40
0.9333333333333333
 40
0.9333333333333333
 40
1.0
 40
1.0
 40
1.0
 40
1.0
 10
-22.9771
 20
34.6932
 30
0.0
 10
-22.9771
 20
34.6932
 30
0.0
 10
-22.9771
 20
34.9298
 30
0.0
 10
-22.9771
 20
34.9298
 30
0.0
 10
-22.9771
 20
34.9298
 30
0.0
 10
-22.9771
 20
34.9298
 30
0.0
 10
-22.1215
 20
34.9312
 30
0.0
 10
-22.1215
 20
34.9312
 30
0.0
 10
-22.1215
 20
34.9312
 30
0.0
 10
-22.1215
 20
34.9312
 30
0.0
 10
-22.1215
 20
34.1819
 30
0.0
 10
-22.1215
 20
34.1819
 30
0.0
 10
-22.1215
 20
34.1819
 30
0.0
 10
-22.2527
 20
34.077
 30
0.0
 10
-22.3882
 20
33.9984
 30
0.0
 10
-22.5279
 20
33.9453
 30
0.0
 10
-22.5279
 20
33.9453
 30
0.0
 10
-22.6676
 20
33.8926
 30
0.0
 10
-22.811
 20
33.8663
 30
0.0
 10
-22.9578
 20
33.8663
 30
0.0
 10
-22.9578
 20
33.8663
 30
0.0
 10
-23.1563
 20
33.8663
 30
0.0
 10
-23.3369
 20
33.9086
 30
0.0
 10
-23.4987
 20
33.9937
 30
0.0
 10
-23.4987
 20
33.9937
 30
0.0
 10
-23.661
 20
34.0784
 30
0.0
 10
-23.7833
 20
34.2016
 30
0.0
 10
-23.8661
 20
34.362
 30
0.0
 10
-23.8661
 20
34.362
 30
0.0
 10
-23.9489
 20
34.5229
 30
0.0
 10
-23.9903
 20
34.7026
 30
0.0
 10
-23.9903
 20
34.9011
 30
0.0
 10
-23.9903
 20
34.9011
 30
0.0
 10
-23.9903
 20
35.0977
 30
0.0
 10
-23.9489
 20
35.2811
 30
0.0
 10
-23.8665
 20
35.4514
 30
0.0
 10
-23.8665
 20
35.4514
 30
0.0
 10
-23.7847
 20
35.6221
 30
0.0
 10
-23.6662
 20
35.7487
 30
0.0
 10
-23.5119
 20
35.8315
 30
0.0
 10
-23.5119
 20
35.8315
 30
0.0
 10
-23.3576
 20
35.9138
 30
0.0
 10
-23.1798
 20
35.9552
 30
0.0
 10
-22.9785
 20
35.9552
 30
0.0
 10
-22.9785
 20
35.9552
 30
0.0
 10
-22.8327
 20
35.9552
 30
0.0
 10
-22.7005
 20
35.9316
 30
0.0
 10
-22.5824
 20
35.8841
 30
0.0
 10
-22.5824
 20
35.8841
 30
0.0
 10
-22.4644
 20
35.8371
 30
0.0
 10
-22.3717
 20
35.7712
 30
0.0
 10
-22.3049
 20
35.6866
 30
0.0
 10
-22.3049
 20
35.6866
 30
0.0
 10
-22.2377
 20
35.6019
 30
0.0
 10
-22.1869
 20
35.4919
 30
0.0
 10
-22.1516
 20
35.3559
 30
0.0
 10
-22.1516
 20
35.3559
 30
0.0
 10
-22.1516
 20
35.3559
 30
0.0
 10
-22.3929
 20
35.2896
 30
0.0
 10
-22.3929
 20
35.2896
 30
0.0
 10
-22.3929
 20
35.2896
 30
0.0
 10
-22.4235
 20
35.3926
 30
0.0
 10
-22.4611
 20
35.4735
 30
0.0
 10
-22.5058
 20
35.5323
 30
0.0
 10
-22.5058
 20
35.5323
 30
0.0
 10
-22.5509
 20
35.5911
 30
0.0
 10
-22.6154
 20
35.6381
 30
0.0
 10
-22.6991
 20
35.6734
 30
0.0
 10
-22.6991
 20
35.6734
 30
0.0
 10
-22.7824
 20
35.7087
 30
0.0
 10
-22.8755
 20
35.7266
 30
0.0
 10
-22.9771
 20
35.7266
 30
0.0
 10
-22.9771
 20
35.7266
 30
0.0
 10
-23.0994
 20
35.7266
 30
0.0
 10
-23.2052
 20
35.7077
 30
0.0
 10
-23.2941
 20
35.6706
 30
0.0
 10
-23.2941
 20
35.6706
 30
0.0
 10
-23.3835
 20
35.6334
 30
0.0
 10
-23.455
 20
35.5845
 30
0.0
 10
-23.51
 20
35.5238
 30
0.0
 10
-23.51
 20
35.5238
 30
0.0
 10
-23.5646
 20
35.4632
 30
0.0
 10
-23.6069
 20
35.3968
 30
0.0
 10
-23.6375
 20
35.3239
 30
0.0
 10
-23.6375
 20
35.3239
 30
0.0
 10
-23.6887
 20
35.1993
 30
0.0
 10
-23.7146
 20
35.0638
 30
0.0
 10
-23.7146
 20
34.9175
 30
0.0
 10
-23.7146
 20
34.9175
 30
0.0
 10
-23.7146
 20
34.7374
 30
0.0
 10
-23.6836
 20
34.5869
 30
0.0
 10
-23.6215
 20
34.4655
 30
0.0
 10
-23.6215
 20
34.4655
 30
0.0
 10
-23.5594
 20
34.3442
 30
0.0
 10
-23.4691
 20
34.2543
 30
0.0
 10
-23.3506
 20
34.1955
 30
0.0
 10
-23.3506
 20
34.1955
 30
0.0
 10
-23.232
 20
34.1367
 30
0.0
 10
-23.1064
 20
34.1071
 30
0.0
 10
-22.9733
 20
34.1071
 30
0.0
 10
-22.9733
 20
34.1071
 30
0.0
 10
-22.8571
 20
34.1071
 30
0.0
 10
-22.7443
 20
34.1297
 30
0.0
 10
-22.6342
 20
34.1744
 30
0.0
 10
-22.6342
 20
34.1744
 30
0.0
 10
-22.5236
 20
34.2186
 30
0.0
 10
-22.4404
 20
34.2661
 30
0.0
 10
-22.3835
 20
34.3169
 30
0.0
 10
-22.3835
 20
34.3169
 30
0.0
 10
-22.3835
 20
34.3169
 30
0.0
 10
-22.3835
 20
34.6932
 30
0.0
 10
-22.3835
 20
34.6932
 30
0.0
 10
-22.3835
 20
34.6932
 30
0.0
 10
-22.3835
 20
34.6932
 30
0.0
 10
-22.9771
 20
34.6932
 30
0.0
 10
-22.9771
 20
34.6932
 30
0.0
  0
SPLINE
  5
118
330
1F
100
AcDbEntity
  8
DEFAULT_1
 62
   250
100
AcDbSpline
210
0.0
220
0.0
230
1.0
 70
    11
 71
     3
 72
    80
 73
    76
 74
     0
 42
0.0000000001
 43
0.0000000001
 40
0.0
 40
0.0
 40
0.0
 40
0.0
 40
0.05
 40
0.05
 40
0.05
 40
0.05
 40
0.1
 40
0.1
 40
0.1
 40
0.1
 40
0.15
 40
0.15
 40
0.15
 40
0.15
 40
0.2
 40
0.2
 40
0.2
 40
0.2
 40
0.25
 40
0.25
 40
0.25
 40
0.25
 40
0.3
 40
0.3
 40
0.3
 40
0.3
 40
0.35
 40
0.35
 40
0.35
 40
0.35
 40
0.4
 40
0.4
 40
0.4
 40
0.4
 40
0.45
 40
0.45
 40
0.45
 40
0.45
 40
0.5
 40
0.5
 40
0.5
 40
0.5
 40
0.55
 40
0.55
 40
0.55
 40
0.55
 40
0.6
 40
0.6
 40
0.6
 40
0.6
 40
0.65
 40
0.65
 40
0.65
 40
0.65
 40
0.7
 40
0.7
 40
0.7
 40
0.7
 40
0.75
 40
0.75
 40
0.75
 40
0.75
 40
0.8
 40
0.8
 40
0.8
 40
0.8
 40
0.85
 40
0.85
 40
0.85
 40
0.85
 40
0.9
 40
0.9
 40
0.9
 40
0.9
 40
1.0
 40
1.0
 40
1.0
 40
1.0
 10
-19.757
 20
35.426
 30
0.0
 10
-19.757
 20
35.426
 30
0.0
 10
-20.0034
 20
35.4067
 30
0.0
 10
-20.0034
 20
35.4067
 30
0.0
 10
-20.0034
 20
35.4067
 30
0.0
 10
-20.0255
 20
35.5041
 30
0.0
 10
-20.0566
 20
35.5751
 30
0.0
 10
-20.097
 20
35.6188
 30
0.0
 10
-20.097
 20
35.6188
 30
0.0
 10
-20.1643
 20
35.6899
 30
0.0
 10
-20.2471
 20
35.7252
 30
0.0
 10
-20.3454
 20
35.7252
 30
0.0
 10
-20.3454
 20
35.7252
 30
0.0
 10
-20.4244
 20
35.7252
 30
0.0
 10
-20.4935
 20
35.703
 30
0.0
 10
-20.5533
 20
35.6588
 30
0.0
 10
-20.5533
 20
35.6588
 30
0.0
 10
-20.6314
 20
35.6019
 30
0.0
 10
-20.693
 20
35.5187
 30
0.0
 10
-20.7381
 20
35.4095
 30
0.0
 10
-20.7381
 20
35.4095
 30
0.0
 10
-20.7828
 20
35.3004
 30
0.0
 10
-20.8063
 20
35.1447
 30
0.0
 10
-20.8082
 20
34.9425
 30
0.0
 10
-20.8082
 20
34.9425
 30
0.0
 10
-20.7485
 20
35.0332
 30
0.0
 10
-20.6756
 20
35.101
 30
0.0
 10
-20.589
 20
35.1452
 30
0.0
 10
-20.589
 20
35.1452
 30
0.0
 10
-20.503
 20
35.1889
 30
0.0
 10
-20.4122
 20
35.211
 30
0.0
 10
-20.3176
 20
35.211
 30
0.0
 10
-20.3176
 20
35.211
 30
0.0
 10
-20.1521
 20
35.211
 30
0.0
 10
-20.0114
 20
35.1504
 30
0.0
 10
-19.8952
 20
35.0285
 30
0.0
 10
-19.8952
 20
35.0285
 30
0.0
 10
-19.7791
 20
34.9067
 30
0.0
 10
-19.7207
 20
34.7496
 30
0.0
 10
-19.7207
 20
34.5568
 30
0.0
 10
-19.7207
 20
34.5568
 30
0.0
 10
-19.7207
 20
34.4298
 30
0.0
 10
-19.7485
 20
34.3122
 30
0.0
 10
-19.8031
 20
34.203
 30
0.0
 10
-19.8031
 20
34.203
 30
0.0
 10
-19.8576
 20
34.0944
 30
0.0
 10
-19.9329
 20
34.0107
 30
0.0
 10
-20.0284
 20
33.9528
 30
0.0
 10
-20.0284
 20
33.9528
 30
0.0
 10
-20.1238
 20
33.895
 30
0.0
 10
-20.232
 20
33.8663
 30
0.0
 10
-20.3534
 20
33.8663
 30
0.0
 10
-20.3534
 20
33.8663
 30
0.0
 10
-20.5603
 20
33.8663
 30
0.0
 10
-20.7287
 20
33.942
 30
0.0
 10
-20.859
 20
34.0944
 30
0.0
 10
-20.859
 20
34.0944
 30
0.0
 10
-20.9898
 20
34.2463
 30
0.0
 10
-21.0547
 20
34.497
 30
0.0
 10
-21.0547
 20
34.846
 30
0.0
 10
-21.0547
 20
34.846
 30
0.0
 10
-21.0547
 20
35.2364
 30
0.0
 10
-20.9827
 20
35.5201
 30
0.0
 10
-20.8383
 20
35.6974
 30
0.0
 10
-20.8383
 20
35.6974
 30
0.0
 10
-20.7127
 20
35.8517
 30
0.0
 10
-20.5434
 20
35.9293
 30
0.0
 10
-20.3299
 20
35.9293
 30
0.0
 10
-20.3299
 20
35.9293
 30
0.0
 10
-20.1713
 20
35.9293
 30
0.0
 10
-20.0411
 20
35.8846
 30
0.0
 10
-19.9395
 20
35.7952
 30
0.0
 10
-19.9395
 20
35.7952
 30
0.0
 10
-19.8379
 20
35.7063
 30
0.0
 10
-19.7772
 20
35.5831
 30
0.0
 10
-19.757
 20
35.426
 30
0.0
  0
SPLINE
  5
119
330
1F
100
AcDbEntity
  8
DEFAULT_1
 62
   250
100
AcDbSpline
210
0.0
220
0.0
230
1.0
 70
    11
 71
     3
 72
    40
 73
    36
 74
     0
 42
0.0000000001
 43
0.0000000001
 40
0.0
 40
0.0
 40
0.0
 40
0.0
 40
0.1
 40
0.1
 40
0.1
 40
0.1
 40
0.2
 40
0.2
 40
0.2
 40
0.2
 40
0.3
 40
0.3
 40
0.3
 40
0.3
 40
0.4
 40
0.4
 40
0.4
 40
0.4
 40
0.5
 40
0.5
 40
0.5
 40
0.5
 40
0.6
 40
0.6
 40
0.6
 40
0.6
 40
0.7
 40
0.7
 40
0.7
 40
0.7
 40
0.8
 40
0.8
 40
0.8
 40
0.8
 40
1.0
 40
1.0
 40
1.0
 40
1.0
 10
-20.7697
 20
34.5554
 30
0.0
 10
-20.7697
 20
34.4697
 30
0.0
 10
-20.7513
 20
34.3879
 30
0.0
 10
-20.7151
 20
34.3098
 30
0.0
 10
-20.7151
 20
34.3098
 30
0.0
 10
-20.6789
 20
34.2317
 30
0.0
 10
-20.6281
 20
34.1725
 30
0.0
 10
-20.5632
 20
34.1316
 30
0.0
 10
-20.5632
 20
34.1316
 30
0.0
 10
-20.4978
 20
34.0906
 30
0.0
 10
-20.4291
 20
34.0699
 30
0.0
 10
-20.3576
 20
34.0699
 30
0.0
 10
-20.3576
 20
34.0699
 30
0.0
 10
-20.2527
 20
34.0699
 30
0.0
 10
-20.1629
 20
34.1123
 30
0.0
 10
-20.0876
 20
34.1969
 30
0.0
 10
-20.0876
 20
34.1969
 30
0.0
 10
-20.0124
 20
34.2816
 30
0.0
 10
-19.9747
 20
34.3964
 30
0.0
 10
-19.9747
 20
34.5412
 30
0.0
 10
-19.9747
 20
34.5412
 30
0.0
 10
-19.9747
 20
34.6809
 30
0.0
 10
-20.0119
 20
34.791
 30
0.0
 10
-20.0862
 20
34.8714
 30
0.0
 10
-20.0862
 20
34.8714
 30
0.0
 10
-20.1605
 20
34.9519
 30
0.0
 10
-20.2541
 20
34.9919
 30
0.0
 10
-20.367
 20
34.9919
 30
0.0
 10
-20.367
 20
34.9919
 30
0.0
 10
-20.4794
 20
34.9919
 30
0.0
 10
-20.5745
 20
34.9519
 30
0.0
 10
-20.6525
 20
34.8714
 30
0.0
 10
-20.6525
 20
34.8714
 30
0.0
 10
-20.7306
 20
34.791
 30
0.0
 10
-20.7697
 20
34.6856
 30
0.0
 10
-20.7697
 20
34.5554
 30
0.0
  0
SPLINE
  5
11A
330
1F
100
AcDbEntity
  8
DEFAULT_1
 62
   250
100
AcDbSpline
210
0.0
220
0.0
230
1.0
 70
    11
 71
     3
 72
    20
 73
    16
 74
     0
 42
0.0000000001
 43
0.0000000001
 40
0.0
 40
0.0
 40
0.0
 40
0.0
 40
0.2
 40
0.2
 40
0.2
 40
0.2
 40
0.4
 40
0.4
 40
0.4
 40
0.4
 40
0.6
 40
0.6
 40
0.6
 40
0.6
 40
1.0
 40
1.0
 40
1.0
 40
1.0
 10
-19.5914
 20
33.8663
 30
0.0
 10
-19.5914
 20
33.8663
 30
0.0
 10
-19.0058
 20
35.9552
 30
0.0
 10
-19.0058
 20
35.9552
 30
0.0
 10
-19.0058
 20
35.9552
 30
0.0
 10
-19.0058
 20
35.9552
 30
0.0
 10
-18.8073
 20
35.9552
 30
0.0
 10
-18.8073
 20
35.9552
 30
0.0
 10
-18.8073
 20
35.9552
 30
0.0
 10
-18.8073
 20
35.9552
 30
0.0
 10
-19.3915
 20
33.8663
 30
0.0
 10
-19.3915
 20
33.8663
 30
0.0
 10
-19.3915
 20
33.8663
 30
0.0
 10
-19.3915
 20
33.8663
 30
0.0
 10
-19.5914
 20
33.8663
 30
0.0
 10
-19.5914
 20
33.8663
 30
0.0
  0
SPLINE
  5
11B
330
1F
100
AcDbEntity
  8
DEFAULT_1
 62
   250
100
AcDbSpline
210
0.0
220
0.0
230
1.0
 70
    11
 71
     3
 72
    48
 73
    44
 74
     0
 42
0.0000000001
 43
0.0000000001
 40
0.0
 40
0.0
 40
0.0
 40
0.0
 40
0.0833333333333333
 40
0.0833333333333333
 40
0.0833333333333333
 40
0.0833333333333333
 40
0.1666666666666667
 40
0.1666666666666667
 40
0.1666666666666667
 40
0.1666666666666667
 40
0.25
 40
0.25
 40
0.25
 40
0.25
 40
0.3333333333333333
 40
0.3333333333333333
 40
0.3333333333333333
 40
0.3333333333333333
 40
0.4166666666666667
 40
0.4166666666666667
 40
0.4166666666666667
 40
0.4166666666666667
 40
0.5
 40
0.5
 40
0.5
 40
0.5
 40
0.5833333333333334
 40
0.5833333333333334
 40
0.5833333333333334
 40
0.5833333333333334
 40
0.6666666666666666
 40
0.6666666666666666
 40
0.6666666666666666
 40
0.6666666666666666
 40
0.75
 40
0.75
 40
0.75
 40
0.75
 40
0.8333333333333334
 40
0.8333333333333334
 40
0.8333333333333334
 40
0.8333333333333334
 40
1.0
 40
1.0
 40
1.0
 40
1.0
 10
-17.8953
 20
33.9006
 30
0.0
 10
-17.8953
 20
33.9006
 30
0.0
 10
-17.8953
 20
34.3841
 30
0.0
 10
-17.8953
 20
34.3841
 30
0.0
 10
-17.8953
 20
34.3841
 30
0.0
 10
-17.8953
 20
34.3841
 30
0.0
 10
-18.7716
 20
34.3841
 30
0.0
 10
-18.7716
 20
34.3841
 30
0.0
 10
-18.7716
 20
34.3841
 30
0.0
 10
-18.7716
 20
34.3841
 30
0.0
 10
-18.7716
 20
34.6118
 30
0.0
 10
-18.7716
 20
34.6118
 30
0.0
 10
-18.7716
 20
34.6118
 30
0.0
 10
-18.7716
 20
34.6118
 30
0.0
 10
-17.8496
 20
35.9208
 30
0.0
 10
-17.8496
 20
35.9208
 30
0.0
 10
-17.8496
 20
35.9208
 30
0.0
 10
-17.8496
 20
35.9208
 30
0.0
 10
-17.6469
 20
35.9208
 30
0.0
 10
-17.6469
 20
35.9208
 30
0.0
 10
-17.6469
 20
35.9208
 30
0.0
 10
-17.6469
 20
35.9208
 30
0.0
 10
-17.6469
 20
34.6118
 30
0.0
 10
-17.6469
 20
34.6118
 30
0.0
 10
-17.6469
 20
34.6118
 30
0.0
 10
-17.6469
 20
34.6118
 30
0.0
 10
-17.3741
 20
34.6118
 30
0.0
 10
-17.3741
 20
34.6118
 30
0.0
 10
-17.3741
 20
34.6118
 30
0.0
 10
-17.3741
 20
34.6118
 30
0.0
 10
-17.3741
 20
34.3841
 30
0.0
 10
-17.3741
 20
34.3841
 30
0.0
 10
-17.3741
 20
34.3841
 30
0.0
 10
-17.3741
 20
34.3841
 30
0.0
 10
-17.6469
 20
34.3841
 30
0.0
 10
-17.6469
 20
34.3841
 30
0.0
 10
-17.6469
 20
34.3841
 30
0.0
 10
-17.6469
 20
34.3841
 30
0.0
 10
-17.6469
 20
33.9006
 30
0.0
 10
-17.6469
 20
33.9006
 30
0.0
 10
-17.6469
 20
33.9006
 30
0.0
 10
-17.6469
 20
33.9006
 30
0.0
 10
-17.8953
 20
33.9006
 30
0.0
 10
-17.8953
 20
33.9006
 30
0.0
  0
SPLINE
  5
11C
330
1F
100
AcDbEntity
  8
DEFAULT_1
 62
   250
100
AcDbSpline
210
0.0
220
0.0
230
1.0
 70
    11
 71
     3
 72
    16
 73
    12
 74
     0
 42
0.0000000001
 43
0.0000000001
 40
0.0
 40
0.0
 40
0.0
 40
0.0
 40
0.25
 40
0.25
 40
0.25
 40
0.25
 40
0.5
 40
0.5
 40
0.5
 40
0.5
 40
1.0
 40
1.0
 40
1.0
 40
1.0
 10
-17.8953
 20
34.6118
 30
0.0
 10
-17.8953
 20
34.6118
 30
0.0
 10
-17.8953
 20
35.5224
 30
0.0
 10
-17.8953
 20
35.5224
 30
0.0
 10
-17.8953
 20
35.5224
 30
0.0
 10
-17.8953
 20
35.5224
 30
0.0
 10
-18.5274
 20
34.6118
 30
0.0
 10
-18.5274
 20
34.6118
 30
0.0
 10
-18.5274
 20
34.6118
 30
0.0
 10
-18.5274
 20
34.6118
 30
0.0
 10
-17.8953
 20
34.6118
 30
0.0
 10
-17.8953
 20
34.6118
 30
0.0
  0
SPLINE
  5
11D
330
1F
100
AcDbEntity
  8
DEFAULT_1
 62
   250
100
AcDbSpline
210
0.0
220
0.0
230
1.0
 70
    11
 71
     3
 72
    28
 73
    24
 74
     0
 42
0.0000000001
 43
0.0000000001
 40
0.0
 40
0.0
 40
0.0
 40
0.0
 40
0.1428571428571428
 40
0.1428571428571428
 40
0.1428571428571428
 40
0.1428571428571428
 40
0.2857142857142857
 40
0.2857142857142857
 40
0.2857142857142857
 40
0.2857142857142857
 40
0.4285714285714285
 40
0.4285714285714285
 40
0.4285714285714285
 40
0.4285714285714285
 40
0.5714285714285714
 40
0.5714285714285714
 40
0.5714285714285714
 40
0.5714285714285714
 40
0.7142857142857143
 40
0.7142857142857143
 40
0.7142857142857143
 40
0.7142857142857143
 40
1.0
 40
1.0
 40
1.0
 40
1.0
 10
-17.0392
 20
35.2054
 30
0.0
 10
-17.0392
 20
35.2054
 30
0.0
 10
-17.1083
 20
35.5902
 30
0.0
 10
-17.1083
 20
35.5902
 30
0.0
 10
-17.1083
 20
35.5902
 30
0.0
 10
-17.1083
 20
35.5902
 30
0.0
 10
-17.1083
 20
35.9208
 30
0.0
 10
-17.1083
 20
35.9208
 30
0.0
 10
-17.1083
 20
35.9208
 30
0.0
 10
-17.1083
 20
35.9208
 30
0.0
 10
-16.8257
 20
35.9208
 30
0.0
 10
-16.8257
 20
35.9208
 30
0.0
 10
-16.8257
 20
35.9208
 30
0.0
 10
-16.8257
 20
35.9208
 30
0.0
 10
-16.8257
 20
35.5902
 30
0.0
 10
-16.8257
 20
35.5902
 30
0.0
 10
-16.8257
 20
35.5902
 30
0.0
 10
-16.8257
 20
35.5902
 30
0.0
 10
-16.8877
 20
35.2054
 30
0.0
 10
-16.8877
 20
35.2054
 30
0.0
 10
-16.8877
 20
35.2054
 30
0.0
 10
-16.8877
 20
35.2054
 30
0.0
 10
-17.0392
 20
35.2054
 30
0.0
 10
-17.0392
 20
35.2054
 30
0.0
  0
SPLINE
  5
11E
330
1F
100
AcDbEntity
  8
DEFAULT_1
 62
   250
100
AcDbSpline
210
0.0
220
0.0
230
1.0
 70
    11
 71
     3
 72
    28
 73
    24
 74
     0
 42
0.0000000001
 43
0.0000000001
 40
0.0
 40
0.0
 40
0.0
 40
0.0
 40
0.1428571428571428
 40
0.1428571428571428
 40
0.1428571428571428
 40
0.1428571428571428
 40
0.2857142857142857
 40
0.2857142857142857
 40
0.2857142857142857
 40
0.2857142857142857
 40
0.4285714285714285
 40
0.4285714285714285
 40
0.4285714285714285
 40
0.4285714285714285
 40
0.5714285714285714
 40
0.5714285714285714
 40
0.5714285714285714
 40
0.5714285714285714
 40
0.7142857142857143
 40
0.7142857142857143
 40
0.7142857142857143
 40
0.7142857142857143
 40
1.0
 40
1.0
 40
1.0
 40
1.0
 10
-16.5829
 20
35.2054
 30
0.0
 10
-16.5829
 20
35.2054
 30
0.0
 10
-16.6507
 20
35.5902
 30
0.0
 10
-16.6507
 20
35.5902
 30
0.0
 10
-16.6507
 20
35.5902
 30
0.0
 10
-16.6507
 20
35.5902
 30
0.0
 10
-16.6507
 20
35.9208
 30
0.0
 10
-16.6507
 20
35.9208
 30
0.0
 10
-16.6507
 20
35.9208
 30
0.0
 10
-16.6507
 20
35.9208
 30
0.0
 10
-16.368
 20
35.9208
 30
0.0
 10
-16.368
 20
35.9208
 30
0.0
 10
-16.368
 20
35.9208
 30
0.0
 10
-16.368
 20
35.9208
 30
0.0
 10
-16.368
 20
35.5902
 30
0.0
 10
-16.368
 20
35.5902
 30
0.0
 10
-16.368
 20
35.5902
 30
0.0
 10
-16.368
 20
35.5902
 30
0.0
 10
-16.4343
 20
35.2054
 30
0.0
 10
-16.4343
 20
35.2054
 30
0.0
 10
-16.4343
 20
35.2054
 30
0.0
 10
-16.4343
 20
35.2054
 30
0.0
 10
-16.5829
 20
35.2054
 30
0.0
 10
-16.5829
 20
35.2054
 30
0.0
  0
SPLINE
  5
11F
330
1F
100
AcDbEntity
  8
DEFAULT_1
 62
   250
100
AcDbSpline
210
0.0
220
0.0
230
1.0
 70
    11
 71
     3
 72
    40
 73
    36
 74
     0
 42
0.0000000001
 43
0.0000000001
 40
0.0
 40
0.0
 40
0.0
 40
0.0
 40
0.1
 40
0.1
 40
0.1
 40
0.1
 40
0.2
 40
0.2
 40
0.2
 40
0.2
 40
0.3
 40
0.3
 40
0.3
 40
0.3
 40
0.4
 40
0.4
 40
0.4
 40
0.4
 40
0.5
 40
0.5
 40
0.5
 40
0.5
 40
0.6
 40
0.6
 40
0.6
 40
0.6
 40
0.7
 40
0.7
 40
0.7
 40
0.7
 40
0.8
 40
0.8
 40
0.8
 40
0.8
 40
1.0
 40
1.0
 40
1.0
 40
1.0
 10
-41.5726
 20
-25.4907
 30
0.0
 10
-41.5726
 20
-25.4907
 30
0.0
 10
-41.5726
 20
-25.7386
 30
0.0
 10
-41.5726
 20
-25.7386
 30
0.0
 10
-41.5726
 20
-25.7386
 30
0.0
 10
-41.5726
 20
-25.7386
 30
0.0
 10
-43.153
 20
-25.7386
 30
0.0
 10
-43.153
 20
-25.7386
 30
0.0
 10
-43.153
 20
-25.7386
 30
0.0
 10
-43.0961
 20
-25.7984
 30
0.0
 10
-43.0392
 20
-25.8764
 30
0.0
 10
-42.9823
 20
-25.9733
 30
0.0
 10
-42.9823
 20
-25.9733
 30
0.0
 10
-42.9254
 20
-26.0707
 30
0.0
 10
-42.8826
 20
-26.1577
 30
0.0
 10
-42.8543
 20
-26.2349
 30
0.0
 10
-42.8543
 20
-26.2349
 30
0.0
 10
-42.8543
 20
-26.2349
 30
0.0
 10
-43.0938
 20
-26.2349
 30
0.0
 10
-43.0938
 20
-26.2349
 30
0.0
 10
-43.0938
 20
-26.2349
 30
0.0
 10
-43.1591
 20
-26.0961
 30
0.0
 10
-43.2382
 20
-25.9747
 30
0.0
 10
-43.3308
 20
-25.8708
 30
0.0
 10
-43.3308
 20
-25.8708
 30
0.0
 10
-43.424
 20
-25.7673
 30
0.0
 10
-43.5138
 20
-25.6935
 30
0.0
 10
-43.6013
 20
-25.6502
 30
0.0
 10
-43.6013
 20
-25.6502
 30
0.0
 10
-43.6013
 20
-25.6502
 30
0.0
 10
-43.6013
 20
-25.4907
 30
0.0
 10
-43.6013
 20
-25.4907
 30
0.0
 10
-43.6013
 20
-25.4907
 30
0.0
 10
-43.6013
 20
-25.4907
 30
0.0
 10
-41.5726
 20
-25.4907
 30
0.0
 10
-41.5726
 20
-25.4907
 30
0.0
  0
SPLINE
  5
120
330
1F
100
AcDbEntity
  8
DEFAULT_1
 62
   250
100
AcDbSpline
210
0.0
220
0.0
230
1.0
 70
    11
 71
     3
 72
    40
 73
    36
 74
     0
 42
0.0000000001
 43
0.0000000001
 40
0.0
 40
0.0
 40
0.0
 40
0.0
 40
0.1
 40
0.1
 40
0.1
 40
0.1
 40
0.2
 40
0.2
 40
0.2
 40
0.2
 40
0.3
 40
0.3
 40
0.3
 40
0.3
 40
0.4
 40
0.4
 40
0.4
 40
0.4
 40
0.5
 40
0.5
 40
0.5
 40
0.5
 40
0.6
 40
0.6
 40
0.6
 40
0.6
 40
0.7
 40
0.7
 40
0.7
 40
0.7
 40
0.8
 40
0.8
 40
0.8
 40
0.8
 40
1.0
 40
1.0
 40
1.0
 40
1.0
 10
-41.5726
 20
-24.1304
 30
0.0
 10
-41.5726
 20
-24.1304
 30
0.0
 10
-41.5726
 20
-24.3783
 30
0.0
 10
-41.5726
 20
-24.3783
 30
0.0
 10
-41.5726
 20
-24.3783
 30
0.0
 10
-41.5726
 20
-24.3783
 30
0.0
 10
-43.153
 20
-24.3783
 30
0.0
 10
-43.153
 20
-24.3783
 30
0.0
 10
-43.153
 20
-24.3783
 30
0.0
 10
-43.0961
 20
-24.4381
 30
0.0
 10
-43.0392
 20
-24.5161
 30
0.0
 10
-42.9823
 20
-24.613
 30
0.0
 10
-42.9823
 20
-24.613
 30
0.0
 10
-42.9254
 20
-24.7104
 30
0.0
 10
-42.8826
 20
-24.7974
 30
0.0
 10
-42.8543
 20
-24.8746
 30
0.0
 10
-42.8543
 20
-24.8746
 30
0.0
 10
-42.8543
 20
-24.8746
 30
0.0
 10
-43.0938
 20
-24.8746
 30
0.0
 10
-43.0938
 20
-24.8746
 30
0.0
 10
-43.0938
 20
-24.8746
 30
0.0
 10
-43.1591
 20
-24.7358
 30
0.0
 10
-43.2382
 20
-24.6144
 30
0.0
 10
-43.3308
 20
-24.5105
 30
0.0
 10
-43.3308
 20
-24.5105
 30
0.0
 10
-43.424
 20
-24.407
 30
0.0
 10
-43.5138
 20
-24.3332
 30
0.0
 10
-43.6013
 20
-24.2899
 30
0.0
 10
-43.6013
 20
-24.2899
 30
0.0
 10
-43.6013
 20
-24.2899
 30
0.0
 10
-43.6013
 20
-24.1304
 30
0.0
 10
-43.6013
 20
-24.1304
 30
0.0
 10
-43.6013
 20
-24.1304
 30
0.0
 10
-43.6013
 20
-24.1304
 30
0.0
 10
-41.5726
 20
-24.1304
 30
0.0
 10
-41.5726
 20
-24.1304
 30
0.0
  0
SPLINE
  5
121
330
1F
100
AcDbEntity
  8
DEFAULT_1
 62
   250
100
AcDbSpline
210
0.0
220
0.0
230
1.0
 70
    11
 71
     3
 72
    92
 73
    88
 74
     0
 42
0.0000000001
 43
0.0000000001
 40
0.0
 40
0.0
 40
0.0
 40
0.0
 40
0.0434782608695652
 40
0.0434782608695652
 40
0.0434782608695652
 40
0.0434782608695652
 40
0.0869565217391304
 40
0.0869565217391304
 40
0.0869565217391304
 40
0.0869565217391304
 40
0.1304347826086956
 40
0.1304347826086956
 40
0.1304347826086956
 40
0.1304347826086956
 40
0.1739130434782609
 40
0.1739130434782609
 40
0.1739130434782609
 40
0.1739130434782609
 40
0.2173913043478261
 40
0.2173913043478261
 40
0.2173913043478261
 40
0.2173913043478261
 40
0.2608695652173913
 40
0.2608695652173913
 40
0.2608695652173913
 40
0.2608695652173913
 40
0.3043478260869565
 40
0.3043478260869565
 40
0.3043478260869565
 40
0.3043478260869565
 40
0.3478260869565217
 40
0.3478260869565217
 40
0.3478260869565217
 40
0.3478260869565217
 40
0.391304347826087
 40
0.391304347826087
 40
0.391304347826087
 40
0.391304347826087
 40
0.4347826086956522
 40
0.4347826086956522
 40
0.4347826086956522
 40
0.4347826086956522
 40
0.4782608695652174
 40
0.4782608695652174
 40
0.4782608695652174
 40
0.4782608695652174
 40
0.5217391304347826
 40
0.5217391304347826
 40
0.5217391304347826
 40
0.5217391304347826
 40
0.5652173913043478
 40
0.5652173913043478
 40
0.5652173913043478
 40
0.5652173913043478
 40
0.6086956521739131
 40
0.6086956521739131
 40
0.6086956521739131
 40
0.6086956521739131
 40
0.6521739130434783
 40
0.6521739130434783
 40
0.6521739130434783
 40
0.6521739130434783
 40
0.6956521739130435
 40
0.6956521739130435
 40
0.6956521739130435
 40
0.6956521739130435
 40
0.7391304347826086
 40
0.7391304347826086
 40
0.7391304347826086
 40
0.7391304347826086
 40
0.782608695652174
 40
0.782608695652174
 40
0.782608695652174
 40
0.782608695652174
 40
0.8260869565217391
 40
0.8260869565217391
 40
0.8260869565217391
 40
0.8260869565217391
 40
0.8695652173913043
 40
0.8695652173913043
 40
0.8695652173913043
 40
0.8695652173913043
 40
0.9130434782608695
 40
0.9130434782608695
 40
0.9130434782608695
 40
0.9130434782608695
 40
1.0
 40
1.0
 40
1.0
 40
1.0
 10
-42.1018
 20
-23.495
 30
0.0
 10
-42.1018
 20
-23.495
 30
0.0
 10
-42.1239
 20
-23.2344
 30
0.0
 10
-42.1239
 20
-23.2344
 30
0.0
 10
-42.1239
 20
-23.2344
 30
0.0
 10
-41.9969
 20
-23.2151
 30
0.0
 10
-41.9019
 20
-23.1704
 30
0.0
 10
-41.8379
 20
-23.1003
 30
0.0
 10
-41.8379
 20
-23.1003
 30
0.0
 10
-41.7739
 20
-23.0298
 30
0.0
 10
-41.7419
 20
-22.9451
 30
0.0
 10
-41.7419
 20
-22.8459
 30
0.0
 10
-41.7419
 20
-22.8459
 30
0.0
 10
-41.7419
 20
-22.7264
 30
0.0
 10
-41.7871
 20
-22.6253
 30
0.0
 10
-41.8769
 20
-22.543
 30
0.0
 10
-41.8769
 20
-22.543
 30
0.0
 10
-41.9672
 20
-22.4602
 30
0.0
 10
-42.0867
 20
-22.4188
 30
0.0
 10
-42.2353
 20
-22.4188
 30
0.0
 10
-42.2353
 20
-22.4188
 30
0.0
 10
-42.3769
 20
-22.4188
 30
0.0
 10
-42.4884
 20
-22.4583
 30
0.0
 10
-42.5702
 20
-22.5378
 30
0.0
 10
-42.5702
 20
-22.5378
 30
0.0
 10
-42.6521
 20
-22.6173
 30
0.0
 10
-42.693
 20
-22.7212
 30
0.0
 10
-42.693
 20
-22.8501
 30
0.0
 10
-42.693
 20
-22.8501
 30
0.0
 10
-42.693
 20
-22.9301
 30
0.0
 10
-42.6747
 20
-23.002
 30
0.0
 10
-42.6385
 20
-23.0665
 30
0.0
 10
-42.6385
 20
-23.0665
 30
0.0
 10
-42.6022
 20
-23.1309
 30
0.0
 10
-42.5552
 20
-23.1812
 30
0.0
 10
-42.4973
 20
-23.2179
 30
0.0
 10
-42.4973
 20
-23.2179
 30
0.0
 10
-42.4973
 20
-23.2179
 30
0.0
 10
-42.5274
 20
-23.4508
 30
0.0
 10
-42.5274
 20
-23.4508
 30
0.0
 10
-42.5274
 20
-23.4508
 30
0.0
 10
-42.5274
 20
-23.4508
 30
0.0
 10
-43.5651
 20
-23.2551
 30
0.0
 10
-43.5651
 20
-23.2551
 30
0.0
 10
-43.5651
 20
-23.2551
 30
0.0
 10
-43.5651
 20
-23.2551
 30
0.0
 10
-43.5651
 20
-22.2504
 30
0.0
 10
-43.5651
 20
-22.2504
 30
0.0
 10
-43.5651
 20
-22.2504
 30
0.0
 10
-43.5651
 20
-22.2504
 30
0.0
 10
-43.328
 20
-22.2504
 30
0.0
 10
-43.328
 20
-22.2504
 30
0.0
 10
-43.328
 20
-22.2504
 30
0.0
 10
-43.328
 20
-22.2504
 30
0.0
 10
-43.328
 20
-23.0566
 30
0.0
 10
-43.328
 20
-23.0566
 30
0.0
 10
-43.328
 20
-23.0566
 30
0.0
 10
-43.328
 20
-23.0566
 30
0.0
 10
-42.7852
 20
-23.1657
 30
0.0
 10
-42.7852
 20
-23.1657
 30
0.0
 10
-42.7852
 20
-23.1657
 30
0.0
 10
-42.8699
 20
-23.0444
 30
0.0
 10
-42.9122
 20
-22.9169
 30
0.0
 10
-42.9122
 20
-22.7838
 30
0.0
 10
-42.9122
 20
-22.7838
 30
0.0
 10
-42.9122
 20
-22.6074
 30
0.0
 10
-42.8511
 20
-22.4588
 30
0.0
 10
-42.7288
 20
-22.3374
 30
0.0
 10
-42.7288
 20
-22.3374
 30
0.0
 10
-42.6065
 20
-22.2161
 30
0.0
 10
-42.4494
 20
-22.1554
 30
0.0
 10
-42.2575
 20
-22.1554
 30
0.0
 10
-42.2575
 20
-22.1554
 30
0.0
 10
-42.0745
 20
-22.1554
 30
0.0
 10
-41.9164
 20
-22.209
 30
0.0
 10
-41.7833
 20
-22.3153
 30
0.0
 10
-41.7833
 20
-22.3153
 30
0.0
 10
-41.6201
 20
-22.4451
 30
0.0
 10
-41.5383
 20
-22.622
 30
0.0
 10
-41.5383
 20
-22.8459
 30
0.0
 10
-41.5383
 20
-22.8459
 30
0.0
 10
-41.5383
 20
-23.0298
 30
0.0
 10
-41.5895
 20
-23.1798
 30
0.0
 10
-41.6925
 20
-23.296
 30
0.0
 10
-41.6925
 20
-23.296
 30
0.0
 10
-41.7956
 20
-23.4122
 30
0.0
 10
-41.932
 20
-23.4785
 30
0.0
 10
-42.1018
 20
-23.495
 30
0.0
  0
SPLINE
  5
122
330
1F
100
AcDbEntity
  8
DEFAULT_1
 62
   250
100
AcDbSpline
210
0.0
220
0.0
230
1.0
 70
    11
 71
     3
 72
    92
 73
    88
 74
     0
 42
0.0000000001
 43
0.0000000001
 40
0.0
 40
0.0
 40
0.0
 40
0.0
 40
0.0434782608695652
 40
0.0434782608695652
 40
0.0434782608695652
 40
0.0434782608695652
 40
0.0869565217391304
 40
0.0869565217391304
 40
0.0869565217391304
 40
0.0869565217391304
 40
0.1304347826086956
 40
0.1304347826086956
 40
0.1304347826086956
 40
0.1304347826086956
 40
0.1739130434782609
 40
0.1739130434782609
 40
0.1739130434782609
 40
0.1739130434782609
 40
0.2173913043478261
 40
0.2173913043478261
 40
0.2173913043478261
 40
0.2173913043478261
 40
0.2608695652173913
 40
0.2608695652173913
 40
0.2608695652173913
 40
0.2608695652173913
 40
0.3043478260869565
 40
0.3043478260869565
 40
0.3043478260869565
 40
0.3043478260869565
 40
0.3478260869565217
 40
0.3478260869565217
 40
0.3478260869565217
 40
0.3478260869565217
 40
0.391304347826087
 40
0.391304347826087
 40
0.391304347826087
 40
0.391304347826087
 40
0.4347826086956522
 40
0.4347826086956522
 40
0.4347826086956522
 40
0.4347826086956522
 40
0.4782608695652174
 40
0.4782608695652174
 40
0.4782608695652174
 40
0.4782608695652174
 40
0.5217391304347826
 40
0.5217391304347826
 40
0.5217391304347826
 40
0.5217391304347826
 40
0.5652173913043478
 40
0.5652173913043478
 40
0.5652173913043478
 40
0.5652173913043478
 40
0.6086956521739131
 40
0.6086956521739131
 40
0.6086956521739131
 40
0.6086956521739131
 40
0.6521739130434783
 40
0.6521739130434783
 40
0.6521739130434783
 40
0.6521739130434783
 40
0.6956521739130435
 40
0.6956521739130435
 40
0.6956521739130435
 40
0.6956521739130435
 40
0.7391304347826086
 40
0.7391304347826086
 40
0.7391304347826086
 40
0.7391304347826086
 40
0.782608695652174
 40
0.782608695652174
 40
0.782608695652174
 40
0.782608695652174
 40
0.8260869565217391
 40
0.8260869565217391
 40
0.8260869565217391
 40
0.8260869565217391
 40
0.8695652173913043
 40
0.8695652173913043
 40
0.8695652173913043
 40
0.8695652173913043
 40
0.9130434782608695
 40
0.9130434782608695
 40
0.9130434782608695
 40
0.9130434782608695
 40
1.0
 40
1.0
 40
1.0
 40
1.0
 10
-41.935
 20
2.1291
 30
0.0
 10
-41.935
 20
2.1291
 30
0.0
 10
-41.6965
 20
2.1291
 30
0.0
 10
-41.6965
 20
2.1291
 30
0.0
 10
-41.6965
 20
2.1291
 30
0.0
 10
-41.6965
 20
2.1291
 30
0.0
 10
-41.6965
 20
0.7937
 30
0.0
 10
-41.6965
 20
0.7937
 30
0.0
 10
-41.6965
 20
0.7937
 30
0.0
 10
-41.7562
 20
0.7918
 30
0.0
 10
-41.8136
 20
0.8012
 30
0.0
 10
-41.8687
 20
0.8224
 30
0.0
 10
-41.8687
 20
0.8224
 30
0.0
 10
-41.9599
 20
0.8563
 30
0.0
 10
-42.0493
 20
0.9108
 30
0.0
 10
-42.1377
 20
0.9856
 30
0.0
 10
-42.1377
 20
0.9856
 30
0.0
 10
-42.2257
 20
1.0609
 30
0.0
 10
-42.3277
 20
1.1691
 30
0.0
 10
-42.4434
 20
1.3102
 30
0.0
 10
-42.4434
 20
1.3102
 30
0.0
 10
-42.6236
 20
1.5298
 30
0.0
 10
-42.7661
 20
1.6785
 30
0.0
 10
-42.8715
 20
1.7556
 30
0.0
 10
-42.8715
 20
1.7556
 30
0.0
 10
-42.9764
 20
1.8327
 30
0.0
 10
-43.0761
 20
1.8713
 30
0.0
 10
-43.1697
 20
1.8713
 30
0.0
 10
-43.1697
 20
1.8713
 30
0.0
 10
-43.268
 20
1.8713
 30
0.0
 10
-43.3508
 20
1.836
 30
0.0
 10
-43.4185
 20
1.766
 30
0.0
 10
-43.4185
 20
1.766
 30
0.0
 10
-43.4858
 20
1.6954
 30
0.0
 10
-43.5196
 20
1.6037
 30
0.0
 10
-43.5196
 20
1.4908
 30
0.0
 10
-43.5196
 20
1.4908
 30
0.0
 10
-43.5196
 20
1.3713
 30
0.0
 10
-43.4839
 20
1.2758
 30
0.0
 10
-43.4119
 20
1.2043
 30
0.0
 10
-43.4119
 20
1.2043
 30
0.0
 10
-43.3404
 20
1.1324
 30
0.0
 10
-43.2412
 20
1.0962
 30
0.0
 10
-43.1147
 20
1.0952
 30
0.0
 10
-43.1147
 20
1.0952
 30
0.0
 10
-43.1147
 20
1.0952
 30
0.0
 10
-43.1405
 20
0.8403
 30
0.0
 10
-43.1405
 20
0.8403
 30
0.0
 10
-43.1405
 20
0.8403
 30
0.0
 10
-43.331
 20
0.8577
 30
0.0
 10
-43.4759
 20
0.9235
 30
0.0
 10
-43.5756
 20
1.0374
 30
0.0
 10
-43.5756
 20
1.0374
 30
0.0
 10
-43.6753
 20
1.1512
 30
0.0
 10
-43.7252
 20
1.3045
 30
0.0
 10
-43.7252
 20
1.4964
 30
0.0
 10
-43.7252
 20
1.4964
 30
0.0
 10
-43.7252
 20
1.6902
 30
0.0
 10
-43.6711
 20
1.8436
 30
0.0
 10
-43.5639
 20
1.9565
 30
0.0
 10
-43.5639
 20
1.9565
 30
0.0
 10
-43.4561
 20
2.0698
 30
0.0
 10
-43.323
 20
2.1263
 30
0.0
 10
-43.164
 20
2.1263
 30
0.0
 10
-43.164
 20
2.1263
 30
0.0
 10
-43.0831
 20
2.1263
 30
0.0
 10
-43.0036
 20
2.1098
 30
0.0
 10
-42.9256
 20
2.0764
 30
0.0
 10
-42.9256
 20
2.0764
 30
0.0
 10
-42.8475
 20
2.0435
 30
0.0
 10
-42.7652
 20
1.9884
 30
0.0
 10
-42.6791
 20
1.9118
 30
0.0
 10
-42.6791
 20
1.9118
 30
0.0
 10
-42.5925
 20
1.8351
 30
0.0
 10
-42.474
 20
1.7076
 30
0.0
 10
-42.3235
 20
1.5294
 30
0.0
 10
-42.3235
 20
1.5294
 30
0.0
 10
-42.1984
 20
1.3807
 30
0.0
 10
-42.1137
 20
1.2852
 30
0.0
 10
-42.069
 20
1.2429
 30
0.0
 10
-42.069
 20
1.2429
 30
0.0
 10
-42.0248
 20
1.2006
 30
0.0
 10
-41.9801
 20
1.1658
 30
0.0
 10
-41.935
 20
1.138
 30
0.0
 10
-41.935
 20
1.138
 30
0.0
 10
-41.935
 20
1.138
 30
0.0
 10
-41.935
 20
2.1291
 30
0.0
 10
-41.935
 20
2.1291
 30
0.0
  0
SPLINE
  5
123
330
1F
100
AcDbEntity
  8
DEFAULT_1
 62
   250
100
AcDbSpline
210
0.0
220
0.0
230
1.0
 70
    11
 71
     3
 72
    52
 73
    48
 74
     0
 42
0.0000000001
 43
0.0000000001
 40
0.0
 40
0.0
 40
0.0
 40
0.0
 40
0.0769230769230769
 40
0.0769230769230769
 40
0.0769230769230769
 40
0.0769230769230769
 40
0.1538461538461539
 40
0.1538461538461539
 40
0.1538461538461539
 40
0.1538461538461539
 40
0.2307692307692308
 40
0.2307692307692308
 40
0.2307692307692308
 40
0.2307692307692308
 40
0.3076923076923077
 40
0.3076923076923077
 40
0.3076923076923077
 40
0.3076923076923077
 40
0.3846153846153846
 40
0.3846153846153846
 40
0.3846153846153846
 40
0.3846153846153846
 40
0.4615384615384616
 40
0.4615384615384616
 40
0.4615384615384616
 40
0.4615384615384616
 40
0.5384615384615384
 40
0.5384615384615384
 40
0.5384615384615384
 40
0.5384615384615384
 40
0.6153846153846154
 40
0.6153846153846154
 40
0.6153846153846154
 40
0.6153846153846154
 40
0.6923076923076923
 40
0.6923076923076923
 40
0.6923076923076923
 40
0.6923076923076923
 40
0.7692307692307693
 40
0.7692307692307693
 40
0.7692307692307693
 40
0.7692307692307693
 40
0.8461538461538461
 40
0.8461538461538461
 40
0.8461538461538461
 40
0.8461538461538461
 40
1.0
 40
1.0
 40
1.0
 40
1.0
 10
-42.6927
 20
2.3948
 30
0.0
 10
-42.9317
 20
2.3948
 30
0.0
 10
-43.1241
 20
2.4193
 30
0.0
 10
-43.2694
 20
2.4687
 30
0.0
 10
-43.2694
 20
2.4687
 30
0.0
 10
-43.4152
 20
2.5176
 30
0.0
 10
-43.5276
 20
2.591
 30
0.0
 10
-43.6067
 20
2.6879
 30
0.0
 10
-43.6067
 20
2.6879
 30
0.0
 10
-43.6857
 20
2.7848
 30
0.0
 10
-43.7252
 20
2.9066
 30
0.0
 10
-43.7252
 20
3.0533
 30
0.0
 10
-43.7252
 20
3.0533
 30
0.0
 10
-43.7252
 20
3.162
 30
0.0
 10
-43.7031
 20
3.257
 30
0.0
 10
-43.6593
 20
3.3388
 30
0.0
 10
-43.6593
 20
3.3388
 30
0.0
 10
-43.6161
 20
3.4207
 30
0.0
 10
-43.553
 20
3.488
 30
0.0
 10
-43.4707
 20
3.5416
 30
0.0
 10
-43.4707
 20
3.5416
 30
0.0
 10
-43.3884
 20
3.5947
 30
0.0
 10
-43.2882
 20
3.6366
 30
0.0
 10
-43.1702
 20
3.6667
 30
0.0
 10
-43.1702
 20
3.6667
 30
0.0
 10
-43.0521
 20
3.6973
 30
0.0
 10
-42.8931
 20
3.7123
 30
0.0
 10
-42.6927
 20
3.7123
 30
0.0
 10
-42.6927
 20
3.7123
 30
0.0
 10
-42.4557
 20
3.7123
 30
0.0
 10
-42.2647
 20
3.6879
 30
0.0
 10
-42.1189
 20
3.6394
 30
0.0
 10
-42.1189
 20
3.6394
 30
0.0
 10
-41.9731
 20
3.5905
 30
0.0
 10
-41.8607
 20
3.5176
 30
0.0
 10
-41.7812
 20
3.4207
 30
0.0
 10
-41.7812
 20
3.4207
 30
0.0
 10
-41.7017
 20
3.3238
 30
0.0
 10
-41.6622
 20
3.2015
 30
0.0
 10
-41.6622
 20
3.0533
 30
0.0
 10
-41.6622
 20
3.0533
 30
0.0
 10
-41.6622
 20
2.8586
 30
0.0
 10
-41.7318
 20
2.7057
 30
0.0
 10
-41.8715
 20
2.5947
 30
0.0
 10
-41.8715
 20
2.5947
 30
0.0
 10
-42.0394
 20
2.4616
 30
0.0
 10
-42.3136
 20
2.3948
 30
0.0
 10
-42.6927
 20
2.3948
 30
0.0
  0
SPLINE
  5
124
330
1F
100
AcDbEntity
  8
DEFAULT_1
 62
   250
100
AcDbSpline
210
0.0
220
0.0
230
1.0
 70
    11
 71
     3
 72
    36
 73
    32
 74
     0
 42
0.0000000001
 43
0.0000000001
 40
0.0
 40
0.0
 40
0.0
 40
0.0
 40
0.1111111111111111
 40
0.1111111111111111
 40
0.1111111111111111
 40
0.1111111111111111
 40
0.2222222222222222
 40
0.2222222222222222
 40
0.2222222222222222
 40
0.2222222222222222
 40
0.3333333333333333
 40
0.3333333333333333
 40
0.3333333333333333
 40
0.3333333333333333
 40
0.4444444444444444
 40
0.4444444444444444
 40
0.4444444444444444
 40
0.4444444444444444
 40
0.5555555555555556
 40
0.5555555555555556
 40
0.5555555555555556
 40
0.5555555555555556
 40
0.6666666666666666
 40
0.6666666666666666
 40
0.6666666666666666
 40
0.6666666666666666
 40
0.7777777777777778
 40
0.7777777777777778
 40
0.7777777777777778
 40
0.7777777777777778
 40
1.0
 40
1.0
 40
1.0
 40
1.0
 10
-42.6927
 20
2.6498
 30
0.0
 10
-42.3611
 20
2.6498
 30
0.0
 10
-42.1405
 20
2.6888
 30
0.0
 10
-42.0305
 20
2.7664
 30
0.0
 10
-42.0305
 20
2.7664
 30
0.0
 10
-41.9209
 20
2.844
 30
0.0
 10
-41.8658
 20
2.9395
 30
0.0
 10
-41.8658
 20
3.0533
 30
0.0
 10
-41.8658
 20
3.0533
 30
0.0
 10
-41.8658
 20
3.1676
 30
0.0
 10
-41.9213
 20
3.2631
 30
0.0
 10
-42.0314
 20
3.3407
 30
0.0
 10
-42.0314
 20
3.3407
 30
0.0
 10
-42.1415
 20
3.4183
 30
0.0
 10
-42.3621
 20
3.4574
 30
0.0
 10
-42.6927
 20
3.4574
 30
0.0
 10
-42.6927
 20
3.4574
 30
0.0
 10
-43.0253
 20
3.4574
 30
0.0
 10
-43.2464
 20
3.4183
 30
0.0
 10
-43.3555
 20
3.3407
 30
0.0
 10
-43.3555
 20
3.3407
 30
0.0
 10
-43.4651
 20
3.2631
 30
0.0
 10
-43.5196
 20
3.1667
 30
0.0
 10
-43.5196
 20
3.051
 30
0.0
 10
-43.5196
 20
3.051
 30
0.0
 10
-43.5196
 20
2.9367
 30
0.0
 10
-43.4712
 20
2.8459
 30
0.0
 10
-43.3748
 20
2.7777
 30
0.0
 10
-43.3748
 20
2.7777
 30
0.0
 10
-43.252
 20
2.6926
 30
0.0
 10
-43.0243
 20
2.6498
 30
0.0
 10
-42.6927
 20
2.6498
 30
0.0
  0
SPLINE
  5
125
330
1F
100
AcDbEntity
  8
DEFAULT_1
 62
   250
100
AcDbSpline
210
0.0
220
0.0
230
1.0
 70
    11
 71
     3
 72
    52
 73
    48
 74
     0
 42
0.0000000001
 43
0.0000000001
 40
0.0
 40
0.0
 40
0.0
 40
0.0
 40
0.0769230769230769
 40
0.0769230769230769
 40
0.0769230769230769
 40
0.0769230769230769
 40
0.1538461538461539
 40
0.1538461538461539
 40
0.1538461538461539
 40
0.1538461538461539
 40
0.2307692307692308
 40
0.2307692307692308
 40
0.2307692307692308
 40
0.2307692307692308
 40
0.3076923076923077
 40
0.3076923076923077
 40
0.3076923076923077
 40
0.3076923076923077
 40
0.3846153846153846
 40
0.3846153846153846
 40
0.3846153846153846
 40
0.3846153846153846
 40
0.4615384615384616
 40
0.4615384615384616
 40
0.4615384615384616
 40
0.4615384615384616
 40
0.5384615384615384
 40
0.5384615384615384
 40
0.5384615384615384
 40
0.5384615384615384
 40
0.6153846153846154
 40
0.6153846153846154
 40
0.6153846153846154
 40
0.6153846153846154
 40
0.6923076923076923
 40
0.6923076923076923
 40
0.6923076923076923
 40
0.6923076923076923
 40
0.7692307692307693
 40
0.7692307692307693
 40
0.7692307692307693
 40
0.7692307692307693
 40
0.8461538461538461
 40
0.8461538461538461
 40
0.8461538461538461
 40
0.8461538461538461
 40
1.0
 40
1.0
 40
1.0
 40
1.0
 10
-42.6927
 20
3.9644
 30
0.0
 10
-42.9317
 20
3.9644
 30
0.0
 10
-43.1241
 20
3.9889
 30
0.0
 10
-43.2694
 20
4.0383
 30
0.0
 10
-43.2694
 20
4.0383
 30
0.0
 10
-43.4152
 20
4.0872
 30
0.0
 10
-43.5276
 20
4.1606
 30
0.0
 10
-43.6067
 20
4.2575
 30
0.0
 10
-43.6067
 20
4.2575
 30
0.0
 10
-43.6857
 20
4.3544
 30
0.0
 10
-43.7252
 20
4.4762
 30
0.0
 10
-43.7252
 20
4.6229
 30
0.0
 10
-43.7252
 20
4.6229
 30
0.0
 10
-43.7252
 20
4.7316
 30
0.0
 10
-43.7031
 20
4.8266
 30
0.0
 10
-43.6593
 20
4.9084
 30
0.0
 10
-43.6593
 20
4.9084
 30
0.0
 10
-43.6161
 20
4.9903
 30
0.0
 10
-43.553
 20
5.0576
 30
0.0
 10
-43.4707
 20
5.1112
 30
0.0
 10
-43.4707
 20
5.1112
 30
0.0
 10
-43.3884
 20
5.1643
 30
0.0
 10
-43.2882
 20
5.2062
 30
0.0
 10
-43.1702
 20
5.2363
 30
0.0
 10
-43.1702
 20
5.2363
 30
0.0
 10
-43.0521
 20
5.2669
 30
0.0
 10
-42.8931
 20
5.2819
 30
0.0
 10
-42.6927
 20
5.2819
 30
0.0
 10
-42.6927
 20
5.2819
 30
0.0
 10
-42.4557
 20
5.2819
 30
0.0
 10
-42.2647
 20
5.2575
 30
0.0
 10
-42.1189
 20
5.209
 30
0.0
 10
-42.1189
 20
5.209
 30
0.0
 10
-41.9731
 20
5.1601
 30
0.0
 10
-41.8607
 20
5.0872
 30
0.0
 10
-41.7812
 20
4.9903
 30
0.0
 10
-41.7812
 20
4.9903
 30
0.0
 10
-41.7017
 20
4.8934
 30
0.0
 10
-41.6622
 20
4.7711
 30
0.0
 10
-41.6622
 20
4.6229
 30
0.0
 10
-41.6622
 20
4.6229
 30
0.0
 10
-41.6622
 20
4.4282
 30
0.0
 10
-41.7318
 20
4.2753
 30
0.0
 10
-41.8715
 20
4.1643
 30
0.0
 10
-41.8715
 20
4.1643
 30
0.0
 10
-42.0394
 20
4.0312
 30
0.0
 10
-42.3136
 20
3.9644
 30
0.0
 10
-42.6927
 20
3.9644
 30
0.0
  0
SPLINE
  5
126
330
1F
100
AcDbEntity
  8
DEFAULT_1
 62
   250
100
AcDbSpline
210
0.0
220
0.0
230
1.0
 70
    11
 71
     3
 72
    36
 73
    32
 74
     0
 42
0.0000000001
 43
0.0000000001
 40
0.0
 40
0.0
 40
0.0
 40
0.0
 40
0.1111111111111111
 40
0.1111111111111111
 40
0.1111111111111111
 40
0.1111111111111111
 40
0.2222222222222222
 40
0.2222222222222222
 40
0.2222222222222222
 40
0.2222222222222222
 40
0.3333333333333333
 40
0.3333333333333333
 40
0.3333333333333333
 40
0.3333333333333333
 40
0.4444444444444444
 40
0.4444444444444444
 40
0.4444444444444444
 40
0.4444444444444444
 40
0.5555555555555556
 40
0.5555555555555556
 40
0.5555555555555556
 40
0.5555555555555556
 40
0.6666666666666666
 40
0.6666666666666666
 40
0.6666666666666666
 40
0.6666666666666666
 40
0.7777777777777778
 40
0.7777777777777778
 40
0.7777777777777778
 40
0.7777777777777778
 40
1.0
 40
1.0
 40
1.0
 40
1.0
 10
-42.6927
 20
4.2194
 30
0.0
 10
-42.3611
 20
4.2194
 30
0.0
 10
-42.1405
 20
4.2584
 30
0.0
 10
-42.0305
 20
4.336
 30
0.0
 10
-42.0305
 20
4.336
 30
0.0
 10
-41.9209
 20
4.4136
 30
0.0
 10
-41.8658
 20
4.5091
 30
0.0
 10
-41.8658
 20
4.6229
 30
0.0
 10
-41.8658
 20
4.6229
 30
0.0
 10
-41.8658
 20
4.7372
 30
0.0
 10
-41.9213
 20
4.8327
 30
0.0
 10
-42.0314
 20
4.9103
 30
0.0
 10
-42.0314
 20
4.9103
 30
0.0
 10
-42.1415
 20
4.9879
 30
0.0
 10
-42.3621
 20
5.027
 30
0.0
 10
-42.6927
 20
5.027
 30
0.0
 10
-42.6927
 20
5.027
 30
0.0
 10
-43.0253
 20
5.027
 30
0.0
 10
-43.2464
 20
4.9879
 30
0.0
 10
-43.3555
 20
4.9103
 30
0.0
 10
-43.3555
 20
4.9103
 30
0.0
 10
-43.4651
 20
4.8327
 30
0.0
 10
-43.5196
 20
4.7363
 30
0.0
 10
-43.5196
 20
4.6206
 30
0.0
 10
-43.5196
 20
4.6206
 30
0.0
 10
-43.5196
 20
4.5063
 30
0.0
 10
-43.4712
 20
4.4155
 30
0.0
 10
-43.3748
 20
4.3473
 30
0.0
 10
-43.3748
 20
4.3473
 30
0.0
 10
-43.252
 20
4.2622
 30
0.0
 10
-43.0243
 20
4.2194
 30
0.0
 10
-42.6927
 20
4.2194
 30
0.0
  0
SPLINE
  5
127
330
1F
100
AcDbEntity
  8
DEFAULT_1
 62
   250
100
AcDbSpline
210
0.0
220
0.0
230
1.0
 70
    11
 71
     3
 72
    20
 73
    16
 74
     0
 42
0.0000000001
 43
0.0000000001
 40
0.0
 40
0.0
 40
0.0
 40
0.0
 40
0.2
 40
0.2
 40
0.2
 40
0.2
 40
0.4
 40
0.4
 40
0.4
 40
0.4
 40
0.6
 40
0.6
 40
0.6
 40
0.6
 40
1.0
 40
1.0
 40
1.0
 40
1.0
 10
-42.3028
 20
6.2904
 30
0.0
 10
-42.3028
 20
6.2904
 30
0.0
 10
-42.5521
 20
6.2904
 30
0.0
 10
-42.5521
 20
6.2904
 30
0.0
 10
-42.5521
 20
6.2904
 30
0.0
 10
-42.5521
 20
6.2904
 30
0.0
 10
-42.5521
 20
7.0528
 30
0.0
 10
-42.5521
 20
7.0528
 30
0.0
 10
-42.5521
 20
7.0528
 30
0.0
 10
-42.5521
 20
7.0528
 30
0.0
 10
-42.3028
 20
7.0528
 30
0.0
 10
-42.3028
 20
7.0528
 30
0.0
 10
-42.3028
 20
7.0528
 30
0.0
 10
-42.3028
 20
7.0528
 30
0.0
 10
-42.3028
 20
6.2904
 30
0.0
 10
-42.3028
 20
6.2904
 30
0.0
  0
SPLINE
  5
128
330
1F
100
AcDbEntity
  8
DEFAULT_1
 62
   250
100
AcDbSpline
210
0.0
220
0.0
230
1.0
 70
    11
 71
     3
 72
    92
 73
    88
 74
     0
 42
0.0000000001
 43
0.0000000001
 40
0.0
 40
0.0
 40
0.0
 40
0.0
 40
0.0434782608695652
 40
0.0434782608695652
 40
0.0434782608695652
 40
0.0434782608695652
 40
0.0869565217391304
 40
0.0869565217391304
 40
0.0869565217391304
 40
0.0869565217391304
 40
0.1304347826086956
 40
0.1304347826086956
 40
0.1304347826086956
 40
0.1304347826086956
 40
0.1739130434782609
 40
0.1739130434782609
 40
0.1739130434782609
 40
0.1739130434782609
 40
0.2173913043478261
 40
0.2173913043478261
 40
0.2173913043478261
 40
0.2173913043478261
 40
0.2608695652173913
 40
0.2608695652173913
 40
0.2608695652173913
 40
0.2608695652173913
 40
0.3043478260869565
 40
0.3043478260869565
 40
0.3043478260869565
 40
0.3043478260869565
 40
0.3478260869565217
 40
0.3478260869565217
 40
0.3478260869565217
 40
0.3478260869565217
 40
0.391304347826087
 40
0.391304347826087
 40
0.391304347826087
 40
0.391304347826087
 40
0.4347826086956522
 40
0.4347826086956522
 40
0.4347826086956522
 40
0.4347826086956522
 40
0.4782608695652174
 40
0.4782608695652174
 40
0.4782608695652174
 40
0.4782608695652174
 40
0.5217391304347826
 40
0.5217391304347826
 40
0.5217391304347826
 40
0.5217391304347826
 40
0.5652173913043478
 40
0.5652173913043478
 40
0.5652173913043478
 40
0.5652173913043478
 40
0.6086956521739131
 40
0.6086956521739131
 40
0.6086956521739131
 40
0.6086956521739131
 40
0.6521739130434783
 40
0.6521739130434783
 40
0.6521739130434783
 40
0.6521739130434783
 40
0.6956521739130435
 40
0.6956521739130435
 40
0.6956521739130435
 40
0.6956521739130435
 40
0.7391304347826086
 40
0.7391304347826086
 40
0.7391304347826086
 40
0.7391304347826086
 40
0.782608695652174
 40
0.782608695652174
 40
0.782608695652174
 40
0.782608695652174
 40
0.8260869565217391
 40
0.8260869565217391
 40
0.8260869565217391
 40
0.8260869565217391
 40
0.8695652173913043
 40
0.8695652173913043
 40
0.8695652173913043
 40
0.8695652173913043
 40
0.9130434782608695
 40
0.9130434782608695
 40
0.9130434782608695
 40
0.9130434782608695
 40
1.0
 40
1.0
 40
1.0
 40
1.0
 10
-41.935
 20
9.3459
 30
0.0
 10
-41.935
 20
9.3459
 30
0.0
 10
-41.6965
 20
9.3459
 30
0.0
 10
-41.6965
 20
9.3459
 30
0.0
 10
-41.6965
 20
9.3459
 30
0.0
 10
-41.6965
 20
9.3459
 30
0.0
 10
-41.6965
 20
8.0105
 30
0.0
 10
-41.6965
 20
8.0105
 30
0.0
 10
-41.6965
 20
8.0105
 30
0.0
 10
-41.7562
 20
8.0086
 30
0.0
 10
-41.8136
 20
8.018
 30
0.0
 10
-41.8687
 20
8.0392
 30
0.0
 10
-41.8687
 20
8.0392
 30
0.0
 10
-41.9599
 20
8.0731
 30
0.0
 10
-42.0493
 20
8.1276
 30
0.0
 10
-42.1377
 20
8.2024
 30
0.0
 10
-42.1377
 20
8.2024
 30
0.0
 10
-42.2257
 20
8.2777
 30
0.0
 10
-42.3277
 20
8.3859
 30
0.0
 10
-42.4434
 20
8.527
 30
0.0
 10
-42.4434
 20
8.527
 30
0.0
 10
-42.6236
 20
8.7466
 30
0.0
 10
-42.7661
 20
8.8953
 30
0.0
 10
-42.8715
 20
8.9724
 30
0.0
 10
-42.8715
 20
8.9724
 30
0.0
 10
-42.9764
 20
9.0495
 30
0.0
 10
-43.0761
 20
9.0881
 30
0.0
 10
-43.1697
 20
9.0881
 30
0.0
 10
-43.1697
 20
9.0881
 30
0.0
 10
-43.268
 20
9.0881
 30
0.0
 10
-43.3508
 20
9.0528
 30
0.0
 10
-43.4185
 20
8.9828
 30
0.0
 10
-43.4185
 20
8.9828
 30
0.0
 10
-43.4858
 20
8.9122
 30
0.0
 10
-43.5196
 20
8.8205
 30
0.0
 10
-43.5196
 20
8.7076
 30
0.0
 10
-43.5196
 20
8.7076
 30
0.0
 10
-43.5196
 20
8.5881
 30
0.0
 10
-43.4839
 20
8.4926
 30
0.0
 10
-43.4119
 20
8.4211
 30
0.0
 10
-43.4119
 20
8.4211
 30
0.0
 10
-43.3404
 20
8.3492
 30
0.0
 10
-43.2412
 20
8.313
 30
0.0
 10
-43.1147
 20
8.312
 30
0.0
 10
-43.1147
 20
8.312
 30
0.0
 10
-43.1147
 20
8.312
 30
0.0
 10
-43.1405
 20
8.0571
 30
0.0
 10
-43.1405
 20
8.0571
 30
0.0
 10
-43.1405
 20
8.0571
 30
0.0
 10
-43.331
 20
8.0745
 30
0.0
 10
-43.4759
 20
8.1403
 30
0.0
 10
-43.5756
 20
8.2542
 30
0.0
 10
-43.5756
 20
8.2542
 30
0.0
 10
-43.6753
 20
8.368
 30
0.0
 10
-43.7252
 20
8.5213
 30
0.0
 10
-43.7252
 20
8.7132
 30
0.0
 10
-43.7252
 20
8.7132
 30
0.0
 10
-43.7252
 20
8.907
 30
0.0
 10
-43.6711
 20
9.0604
 30
0.0
 10
-43.5639
 20
9.1733
 30
0.0
 10
-43.5639
 20
9.1733
 30
0.0
 10
-43.4561
 20
9.2866
 30
0.0
 10
-43.323
 20
9.3431
 30
0.0
 10
-43.164
 20
9.3431
 30
0.0
 10
-43.164
 20
9.3431
 30
0.0
 10
-43.0831
 20
9.3431
 30
0.0
 10
-43.0036
 20
9.3266
 30
0.0
 10
-42.9256
 20
9.2932
 30
0.0
 10
-42.9256
 20
9.2932
 30
0.0
 10
-42.8475
 20
9.2603
 30
0.0
 10
-42.7652
 20
9.2052
 30
0.0
 10
-42.6791
 20
9.1286
 30
0.0
 10
-42.6791
 20
9.1286
 30
0.0
 10
-42.5925
 20
9.0519
 30
0.0
 10
-42.474
 20
8.9244
 30
0.0
 10
-42.3235
 20
8.7462
 30
0.0
 10
-42.3235
 20
8.7462
 30
0.0
 10
-42.1984
 20
8.5975
 30
0.0
 10
-42.1137
 20
8.502
 30
0.0
 10
-42.069
 20
8.4597
 30
0.0
 10
-42.069
 20
8.4597
 30
0.0
 10
-42.0248
 20
8.4174
 30
0.0
 10
-41.9801
 20
8.3826
 30
0.0
 10
-41.935
 20
8.3548
 30
0.0
 10
-41.935
 20
8.3548
 30
0.0
 10
-41.935
 20
8.3548
 30
0.0
 10
-41.935
 20
9.3459
 30
0.0
 10
-41.935
 20
9.3459
 30
0.0
  0
SPLINE
  5
129
330
1F
100
AcDbEntity
  8
DEFAULT_1
 62
   250
100
AcDbSpline
210
0.0
220
0.0
230
1.0
 70
    11
 71
     3
 72
    48
 73
    44
 74
     0
 42
0.0000000001
 43
0.0000000001
 40
0.0
 40
0.0
 40
0.0
 40
0.0
 40
0.0833333333333333
 40
0.0833333333333333
 40
0.0833333333333333
 40
0.0833333333333333
 40
0.1666666666666667
 40
0.1666666666666667
 40
0.1666666666666667
 40
0.1666666666666667
 40
0.25
 40
0.25
 40
0.25
 40
0.25
 40
0.3333333333333333
 40
0.3333333333333333
 40
0.3333333333333333
 40
0.3333333333333333
 40
0.4166666666666667
 40
0.4166666666666667
 40
0.4166666666666667
 40
0.4166666666666667
 40
0.5
 40
0.5
 40
0.5
 40
0.5
 40
0.5833333333333334
 40
0.5833333333333334
 40
0.5833333333333334
 40
0.5833333333333334
 40
0.6666666666666666
 40
0.6666666666666666
 40
0.6666666666666666
 40
0.6666666666666666
 40
0.75
 40
0.75
 40
0.75
 40
0.75
 40
0.8333333333333334
 40
0.8333333333333334
 40
0.8333333333333334
 40
0.8333333333333334
 40
1.0
 40
1.0
 40
1.0
 40
1.0
 10
-41.6965
 20
10.4065
 30
0.0
 10
-41.6965
 20
10.4065
 30
0.0
 10
-42.18
 20
10.4065
 30
0.0
 10
-42.18
 20
10.4065
 30
0.0
 10
-42.18
 20
10.4065
 30
0.0
 10
-42.18
 20
10.4065
 30
0.0
 10
-42.18
 20
9.5302
 30
0.0
 10
-42.18
 20
9.5302
 30
0.0
 10
-42.18
 20
9.5302
 30
0.0
 10
-42.18
 20
9.5302
 30
0.0
 10
-42.4077
 20
9.5302
 30
0.0
 10
-42.4077
 20
9.5302
 30
0.0
 10
-42.4077
 20
9.5302
 30
0.0
 10
-42.4077
 20
9.5302
 30
0.0
 10
-43.7167
 20
10.4522
 30
0.0
 10
-43.7167
 20
10.4522
 30
0.0
 10
-43.7167
 20
10.4522
 30
0.0
 10
-43.7167
 20
10.4522
 30
0.0
 10
-43.7167
 20
10.6549
 30
0.0
 10
-43.7167
 20
10.6549
 30
0.0
 10
-43.7167
 20
10.6549
 30
0.0
 10
-43.7167
 20
10.6549
 30
0.0
 10
-42.4077
 20
10.6549
 30
0.0
 10
-42.4077
 20
10.6549
 30
0.0
 10
-42.4077
 20
10.6549
 30
0.0
 10
-42.4077
 20
10.6549
 30
0.0
 10
-42.4077
 20
10.9277
 30
0.0
 10
-42.4077
 20
10.9277
 30
0.0
 10
-42.4077
 20
10.9277
 30
0.0
 10
-42.4077
 20
10.9277
 30
0.0
 10
-42.18
 20
10.9277
 30
0.0
 10
-42.18
 20
10.9277
 30
0.0
 10
-42.18
 20
10.9277
 30
0.0
 10
-42.18
 20
10.9277
 30
0.0
 10
-42.18
 20
10.6549
 30
0.0
 10
-42.18
 20
10.6549
 30
0.0
 10
-42.18
 20
10.6549
 30
0.0
 10
-42.18
 20
10.6549
 30
0.0
 10
-41.6965
 20
10.6549
 30
0.0
 10
-41.6965
 20
10.6549
 30
0.0
 10
-41.6965
 20
10.6549
 30
0.0
 10
-41.6965
 20
10.6549
 30
0.0
 10
-41.6965
 20
10.4065
 30
0.0
 10
-41.6965
 20
10.4065
 30
0.0
  0
SPLINE
  5
12A
330
1F
100
AcDbEntity
  8
DEFAULT_1
 62
   250
100
AcDbSpline
210
0.0
220
0.0
230
1.0
 70
    11
 71
     3
 72
    16
 73
    12
 74
     0
 42
0.0000000001
 43
0.0000000001
 40
0.0
 40
0.0
 40
0.0
 40
0.0
 40
0.25
 40
0.25
 40
0.25
 40
0.25
 40
0.5
 40
0.5
 40
0.5
 40
0.5
 40
1.0
 40
1.0
 40
1.0
 40
1.0
 10
-42.4077
 20
10.4065
 30
0.0
 10
-42.4077
 20
10.4065
 30
0.0
 10
-43.3183
 20
10.4065
 30
0.0
 10
-43.3183
 20
10.4065
 30
0.0
 10
-43.3183
 20
10.4065
 30
0.0
 10
-43.3183
 20
10.4065
 30
0.0
 10
-42.4077
 20
9.7744
 30
0.0
 10
-42.4077
 20
9.7744
 30
0.0
 10
-42.4077
 20
9.7744
 30
0.0
 10
-42.4077
 20
9.7744
 30
0.0
 10
-42.4077
 20
10.4065
 30
0.0
 10
-42.4077
 20
10.4065
 30
0.0
  0
SPLINE
  5
12B
330
1F
100
AcDbEntity
  8
DEFAULT_1
 62
   250
100
AcDbSpline
210
0.0
220
0.0
230
1.0
 70
    11
 71
     3
 72
    52
 73
    48
 74
     0
 42
0.0000000001
 43
0.0000000001
 40
0.0
 40
0.0
 40
0.0
 40
0.0
 40
0.0769230769230769
 40
0.0769230769230769
 40
0.0769230769230769
 40
0.0769230769230769
 40
0.1538461538461539
 40
0.1538461538461539
 40
0.1538461538461539
 40
0.1538461538461539
 40
0.2307692307692308
 40
0.2307692307692308
 40
0.2307692307692308
 40
0.2307692307692308
 40
0.3076923076923077
 40
0.3076923076923077
 40
0.3076923076923077
 40
0.3076923076923077
 40
0.3846153846153846
 40
0.3846153846153846
 40
0.3846153846153846
 40
0.3846153846153846
 40
0.4615384615384616
 40
0.4615384615384616
 40
0.4615384615384616
 40
0.4615384615384616
 40
0.5384615384615384
 40
0.5384615384615384
 40
0.5384615384615384
 40
0.5384615384615384
 40
0.6153846153846154
 40
0.6153846153846154
 40
0.6153846153846154
 40
0.6153846153846154
 40
0.6923076923076923
 40
0.6923076923076923
 40
0.6923076923076923
 40
0.6923076923076923
 40
0.7692307692307693
 40
0.7692307692307693
 40
0.7692307692307693
 40
0.7692307692307693
 40
0.8461538461538461
 40
0.8461538461538461
 40
0.8461538461538461
 40
0.8461538461538461
 40
1.0
 40
1.0
 40
1.0
 40
1.0
 10
-42.6927
 20
11.1812
 30
0.0
 10
-42.9317
 20
11.1812
 30
0.0
 10
-43.1241
 20
11.2057
 30
0.0
 10
-43.2694
 20
11.2551
 30
0.0
 10
-43.2694
 20
11.2551
 30
0.0
 10
-43.4152
 20
11.304
 30
0.0
 10
-43.5276
 20
11.3774
 30
0.0
 10
-43.6067
 20
11.4743
 30
0.0
 10
-43.6067
 20
11.4743
 30
0.0
 10
-43.6857
 20
11.5712
 30
0.0
 10
-43.7252
 20
11.693
 30
0.0
 10
-43.7252
 20
11.8397
 30
0.0
 10
-43.7252
 20
11.8397
 30
0.0
 10
-43.7252
 20
11.9484
 30
0.0
 10
-43.7031
 20
12.0434
 30
0.0
 10
-43.6593
 20
12.1252
 30
0.0
 10
-43.6593
 20
12.1252
 30
0.0
 10
-43.6161
 20
12.2071
 30
0.0
 10
-43.553
 20
12.2744
 30
0.0
 10
-43.4707
 20
12.328
 30
0.0
 10
-43.4707
 20
12.328
 30
0.0
 10
-43.3884
 20
12.3811
 30
0.0
 10
-43.2882
 20
12.423
 30
0.0
 10
-43.1702
 20
12.4531
 30
0.0
 10
-43.1702
 20
12.4531
 30
0.0
 10
-43.0521
 20
12.4837
 30
0.0
 10
-42.8931
 20
12.4987
 30
0.0
 10
-42.6927
 20
12.4987
 30
0.0
 10
-42.6927
 20
12.4987
 30
0.0
 10
-42.4557
 20
12.4987
 30
0.0
 10
-42.2647
 20
12.4743
 30
0.0
 10
-42.1189
 20
12.4258
 30
0.0
 10
-42.1189
 20
12.4258
 30
0.0
 10
-41.9731
 20
12.3769
 30
0.0
 10
-41.8607
 20
12.304
 30
0.0
 10
-41.7812
 20
12.2071
 30
0.0
 10
-41.7812
 20
12.2071
 30
0.0
 10
-41.7017
 20
12.1102
 30
0.0
 10
-41.6622
 20
11.9879
 30
0.0
 10
-41.6622
 20
11.8397
 30
0.0
 10
-41.6622
 20
11.8397
 30
0.0
 10
-41.6622
 20
11.645
 30
0.0
 10
-41.7318
 20
11.4921
 30
0.0
 10
-41.8715
 20
11.3811
 30
0.0
 10
-41.8715
 20
11.3811
 30
0.0
 10
-42.0394
 20
11.248
 30
0.0
 10
-42.3136
 20
11.1812
 30
0.0
 10
-42.6927
 20
11.1812
 30
0.0
  0
SPLINE
  5
12C
330
1F
100
AcDbEntity
  8
DEFAULT_1
 62
   250
100
AcDbSpline
210
0.0
220
0.0
230
1.0
 70
    11
 71
     3
 72
    36
 73
    32
 74
     0
 42
0.0000000001
 43
0.0000000001
 40
0.0
 40
0.0
 40
0.0
 40
0.0
 40
0.1111111111111111
 40
0.1111111111111111
 40
0.1111111111111111
 40
0.1111111111111111
 40
0.2222222222222222
 40
0.2222222222222222
 40
0.2222222222222222
 40
0.2222222222222222
 40
0.3333333333333333
 40
0.3333333333333333
 40
0.3333333333333333
 40
0.3333333333333333
 40
0.4444444444444444
 40
0.4444444444444444
 40
0.4444444444444444
 40
0.4444444444444444
 40
0.5555555555555556
 40
0.5555555555555556
 40
0.5555555555555556
 40
0.5555555555555556
 40
0.6666666666666666
 40
0.6666666666666666
 40
0.6666666666666666
 40
0.6666666666666666
 40
0.7777777777777778
 40
0.7777777777777778
 40
0.7777777777777778
 40
0.7777777777777778
 40
1.0
 40
1.0
 40
1.0
 40
1.0
 10
-42.6927
 20
11.4362
 30
0.0
 10
-42.3611
 20
11.4362
 30
0.0
 10
-42.1405
 20
11.4752
 30
0.0
 10
-42.0305
 20
11.5528
 30
0.0
 10
-42.0305
 20
11.5528
 30
0.0
 10
-41.9209
 20
11.6304
 30
0.0
 10
-41.8658
 20
11.7259
 30
0.0
 10
-41.8658
 20
11.8397
 30
0.0
 10
-41.8658
 20
11.8397
 30
0.0
 10
-41.8658
 20
11.954
 30
0.0
 10
-41.9213
 20
12.0495
 30
0.0
 10
-42.0314
 20
12.1271
 30
0.0
 10
-42.0314
 20
12.1271
 30
0.0
 10
-42.1415
 20
12.2047
 30
0.0
 10
-42.3621
 20
12.2438
 30
0.0
 10
-42.6927
 20
12.2438
 30
0.0
 10
-42.6927
 20
12.2438
 30
0.0
 10
-43.0253
 20
12.2438
 30
0.0
 10
-43.2464
 20
12.2047
 30
0.0
 10
-43.3555
 20
12.1271
 30
0.0
 10
-43.3555
 20
12.1271
 30
0.0
 10
-43.4651
 20
12.0495
 30
0.0
 10
-43.5196
 20
11.9531
 30
0.0
 10
-43.5196
 20
11.8374
 30
0.0
 10
-43.5196
 20
11.8374
 30
0.0
 10
-43.5196
 20
11.7231
 30
0.0
 10
-43.4712
 20
11.6323
 30
0.0
 10
-43.3748
 20
11.5641
 30
0.0
 10
-43.3748
 20
11.5641
 30
0.0
 10
-43.252
 20
11.479
 30
0.0
 10
-43.0243
 20
11.4362
 30
0.0
 10
-42.6927
 20
11.4362
 30
0.0
  0
SPLINE
  5
12D
330
1F
100
AcDbEntity
  8
DEFAULT_1
 62
   250
100
AcDbSpline
210
0.0
220
0.0
230
1.0
 70
    11
 71
     3
 72
   116
 73
   112
 74
     0
 42
0.0000000001
 43
0.0000000001
 40
0.0
 40
0.0
 40
0.0
 40
0.0
 40
0.0344827586206897
 40
0.0344827586206897
 40
0.0344827586206897
 40
0.0344827586206897
 40
0.0689655172413793
 40
0.0689655172413793
 40
0.0689655172413793
 40
0.0689655172413793
 40
0.103448275862069
 40
0.103448275862069
 40
0.103448275862069
 40
0.103448275862069
 40
0.1379310344827586
 40
0.1379310344827586
 40
0.1379310344827586
 40
0.1379310344827586
 40
0.1724137931034483
 40
0.1724137931034483
 40
0.1724137931034483
 40
0.1724137931034483
 40
0.2068965517241379
 40
0.2068965517241379
 40
0.2068965517241379
 40
0.2068965517241379
 40
0.2413793103448276
 40
0.2413793103448276
 40
0.2413793103448276
 40
0.2413793103448276
 40
0.2758620689655172
 40
0.2758620689655172
 40
0.2758620689655172
 40
0.2758620689655172
 40
0.3103448275862069
 40
0.3103448275862069
 40
0.3103448275862069
 40
0.3103448275862069
 40
0.3448275862068966
 40
0.3448275862068966
 40
0.3448275862068966
 40
0.3448275862068966
 40
0.3793103448275862
 40
0.3793103448275862
 40
0.3793103448275862
 40
0.3793103448275862
 40
0.4137931034482759
 40
0.4137931034482759
 40
0.4137931034482759
 40
0.4137931034482759
 40
0.4482758620689655
 40
0.4482758620689655
 40
0.4482758620689655
 40
0.4482758620689655
 40
0.4827586206896552
 40
0.4827586206896552
 40
0.4827586206896552
 40
0.4827586206896552
 40
0.5172413793103449
 40
0.5172413793103449
 40
0.5172413793103449
 40
0.5172413793103449
 40
0.5517241379310345
 40
0.5517241379310345
 40
0.5517241379310345
 40
0.5517241379310345
 40
0.5862068965517241
 40
0.5862068965517241
 40
0.5862068965517241
 40
0.5862068965517241
 40
0.6206896551724138
 40
0.6206896551724138
 40
0.6206896551724138
 40
0.6206896551724138
 40
0.6551724137931034
 40
0.6551724137931034
 40
0.6551724137931034
 40
0.6551724137931034
 40
0.6896551724137931
 40
0.6896551724137931
 40
0.6896551724137931
 40
0.6896551724137931
 40
0.7241379310344828
 40
0.7241379310344828
 40
0.7241379310344828
 40
0.7241379310344828
 40
0.7586206896551724
 40
0.7586206896551724
 40
0.7586206896551724
 40
0.7586206896551724
 40
0.7931034482758621
 40
0.7931034482758621
 40
0.7931034482758621
 40
0.7931034482758621
 40
0.8275862068965517
 40
0.8275862068965517
 40
0.8275862068965517
 40
0.8275862068965517
 40
0.8620689655172413
 40
0.8620689655172413
 40
0.8620689655172413
 40
0.8620689655172413
 40
0.896551724137931
 40
0.896551724137931
 40
0.896551724137931
 40
0.896551724137931
 40
0.9310344827586207
 40
0.9310344827586207
 40
0.9310344827586207
 40
0.9310344827586207
 40
1.0
 40
1.0
 40
1.0
 40
1.0
 10
6.2097
 20
0.699
 30
0.0
 10
6.2097
 20
0.699
 30
0.0
 10
6.2097
 20
2.1623
 30
0.0
 10
6.2097
 20
2.1623
 30
0.0
 10
6.2097
 20
2.1623
 30
0.0
 10
6.2097
 20
2.1623
 30
0.0
 10
6.4312
 20
2.1623
 30
0.0
 10
6.4312
 20
2.1623
 30
0.0
 10
6.4312
 20
2.1623
 30
0.0
 10
6.4312
 20
2.1623
 30
0.0
 10
6.4312
 20
1.9572
 30
0.0
 10
6.4312
 20
1.9572
 30
0.0
 10
6.4312
 20
1.9572
 30
0.0
 10
6.4773
 20
2.0287
 30
0.0
 10
6.5385
 20
2.0866
 30
0.0
 10
6.6147
 20
2.1299
 30
0.0
 10
6.6147
 20
2.1299
 30
0.0
 10
6.6909
 20
2.1736
 30
0.0
 10
6.7779
 20
2.1957
 30
0.0
 10
6.8752
 20
2.1957
 30
0.0
 10
6.8752
 20
2.1957
 30
0.0
 10
6.9834
 20
2.1957
 30
0.0
 10
7.0723
 20
2.1731
 30
0.0
 10
7.1415
 20
2.128
 30
0.0
 10
7.1415
 20
2.128
 30
0.0
 10
7.2111
 20
2.0828
 30
0.0
 10
7.26
 20
2.0203
 30
0.0
 10
7.2882
 20
1.9394
 30
0.0
 10
7.2882
 20
1.9394
 30
0.0
 10
7.4044
 20
2.1101
 30
0.0
 10
7.5549
 20
2.1957
 30
0.0
 10
7.7402
 20
2.1957
 30
0.0
 10
7.7402
 20
2.1957
 30
0.0
 10
7.8856
 20
2.1957
 30
0.0
 10
7.9971
 20
2.1553
 30
0.0
 10
8.0751
 20
2.0748
 30
0.0
 10
8.0751
 20
2.0748
 30
0.0
 10
8.1532
 20
1.9944
 30
0.0
 10
8.1923
 20
1.8707
 30
0.0
 10
8.1923
 20
1.7037
 30
0.0
 10
8.1923
 20
1.7037
 30
0.0
 10
8.1923
 20
1.7037
 30
0.0
 10
8.1923
 20
0.699
 30
0.0
 10
8.1923
 20
0.699
 30
0.0
 10
8.1923
 20
0.699
 30
0.0
 10
8.1923
 20
0.699
 30
0.0
 10
7.9458
 20
0.699
 30
0.0
 10
7.9458
 20
0.699
 30
0.0
 10
7.9458
 20
0.699
 30
0.0
 10
7.9458
 20
0.699
 30
0.0
 10
7.9458
 20
1.6209
 30
0.0
 10
7.9458
 20
1.6209
 30
0.0
 10
7.9458
 20
1.6209
 30
0.0
 10
7.9458
 20
1.7202
 30
0.0
 10
7.9378
 20
1.7917
 30
0.0
 10
7.9218
 20
1.8354
 30
0.0
 10
7.9218
 20
1.8354
 30
0.0
 10
7.9053
 20
1.8787
 30
0.0
 10
7.8762
 20
1.914
 30
0.0
 10
7.8343
 20
1.9408
 30
0.0
 10
7.8343
 20
1.9408
 30
0.0
 10
7.792
 20
1.9671
 30
0.0
 10
7.7421
 20
1.9807
 30
0.0
 10
7.6852
 20
1.9807
 30
0.0
 10
7.6852
 20
1.9807
 30
0.0
 10
7.5822
 20
1.9807
 30
0.0
 10
7.4971
 20
1.9464
 30
0.0
 10
7.4289
 20
1.8777
 30
0.0
 10
7.4289
 20
1.8777
 30
0.0
 10
7.3611
 20
1.8095
 30
0.0
 10
7.3268
 20
1.6999
 30
0.0
 10
7.3268
 20
1.5494
 30
0.0
 10
7.3268
 20
1.5494
 30
0.0
 10
7.3268
 20
1.5494
 30
0.0
 10
7.3268
 20
0.699
 30
0.0
 10
7.3268
 20
0.699
 30
0.0
 10
7.3268
 20
0.699
 30
0.0
 10
7.3268
 20
0.699
 30
0.0
 10
7.0789
 20
0.699
 30
0.0
 10
7.0789
 20
0.699
 30
0.0
 10
7.0789
 20
0.699
 30
0.0
 10
7.0789
 20
0.699
 30
0.0
 10
7.0789
 20
1.6496
 30
0.0
 10
7.0789
 20
1.6496
 30
0.0
 10
7.0789
 20
1.6496
 30
0.0
 10
7.0789
 20
1.7601
 30
0.0
 10
7.0587
 20
1.8429
 30
0.0
 10
7.0182
 20
1.898
 30
0.0
 10
7.0182
 20
1.898
 30
0.0
 10
6.9778
 20
1.953
 30
0.0
 10
6.9119
 20
1.9807
 30
0.0
 10
6.8197
 20
1.9807
 30
0.0
 10
6.8197
 20
1.9807
 30
0.0
 10
6.7501
 20
1.9807
 30
0.0
 10
6.6857
 20
1.9624
 30
0.0
 10
6.6264
 20
1.9252
 30
0.0
 10
6.6264
 20
1.9252
 30
0.0
 10
6.5671
 20
1.8886
 30
0.0
 10
6.5239
 20
1.8349
 30
0.0
 10
6.4975
 20
1.7644
 30
0.0
 10
6.4975
 20
1.7644
 30
0.0
 10
6.4707
 20
1.6934
 30
0.0
 10
6.4575
 20
1.5913
 30
0.0
 10
6.4575
 20
1.4582
 30
0.0
 10
6.4575
 20
1.4582
 30
0.0
 10
6.4575
 20
1.4582
 30
0.0
 10
6.4575
 20
0.699
 30
0.0
 10
6.4575
 20
0.699
 30
0.0
 10
6.4575
 20
0.699
 30
0.0
 10
6.4575
 20
0.699
 30
0.0
 10
6.2097
 20
0.699
 30
0.0
 10
6.2097
 20
0.699
 30
0.0
  0
SPLINE
  5
12E
330
1F
100
AcDbEntity
  8
DEFAULT_1
 62
   250
100
AcDbSpline
210
0.0
220
0.0
230
1.0
 70
    11
 71
     3
 72
   112
 73
   108
 74
     0
 42
0.0000000001
 43
0.0000000001
 40
0.0
 40
0.0
 40
0.0
 40
0.0
 40
0.0357142857142857
 40
0.0357142857142857
 40
0.0357142857142857
 40
0.0357142857142857
 40
0.0714285714285714
 40
0.0714285714285714
 40
0.0714285714285714
 40
0.0714285714285714
 40
0.1071428571428571
 40
0.1071428571428571
 40
0.1071428571428571
 40
0.1071428571428571
 40
0.1428571428571428
 40
0.1428571428571428
 40
0.1428571428571428
 40
0.1428571428571428
 40
0.1785714285714286
 40
0.1785714285714286
 40
0.1785714285714286
 40
0.1785714285714286
 40
0.2142857142857143
 40
0.2142857142857143
 40
0.2142857142857143
 40
0.2142857142857143
 40
0.25
 40
0.25
 40
0.25
 40
0.25
 40
0.2857142857142857
 40
0.2857142857142857
 40
0.2857142857142857
 40
0.2857142857142857
 40
0.3214285714285715
 40
0.3214285714285715
 40
0.3214285714285715
 40
0.3214285714285715
 40
0.3571428571428572
 40
0.3571428571428572
 40
0.3571428571428572
 40
0.3571428571428572
 40
0.3928571428571428
 40
0.3928571428571428
 40
0.3928571428571428
 40
0.3928571428571428
 40
0.4285714285714285
 40
0.4285714285714285
 40
0.4285714285714285
 40
0.4285714285714285
 40
0.4642857142857143
 40
0.4642857142857143
 40
0.4642857142857143
 40
0.4642857142857143
 40
0.5
 40
0.5
 40
0.5
 40
0.5
 40
0.5357142857142857
 40
0.5357142857142857
 40
0.5357142857142857
 40
0.5357142857142857
 40
0.5714285714285714
 40
0.5714285714285714
 40
0.5714285714285714
 40
0.5714285714285714
 40
0.6071428571428571
 40
0.6071428571428571
 40
0.6071428571428571
 40
0.6071428571428571
 40
0.6428571428571429
 40
0.6428571428571429
 40
0.6428571428571429
 40
0.6428571428571429
 40
0.6785714285714286
 40
0.6785714285714286
 40
0.6785714285714286
 40
0.6785714285714286
 40
0.7142857142857143
 40
0.7142857142857143
 40
0.7142857142857143
 40
0.7142857142857143
 40
0.75
 40
0.75
 40
0.75
 40
0.75
 40
0.7857142857142857
 40
0.7857142857142857
 40
0.7857142857142857
 40
0.7857142857142857
 40
0.8214285714285714
 40
0.8214285714285714
 40
0.8214285714285714
 40
0.8214285714285714
 40
0.8571428571428571
 40
0.8571428571428571
 40
0.8571428571428571
 40
0.8571428571428571
 40
0.8928571428571429
 40
0.8928571428571429
 40
0.8928571428571429
 40
0.8928571428571429
 40
0.9285714285714286
 40
0.9285714285714286
 40
0.9285714285714286
 40
0.9285714285714286
 40
1.0
 40
1.0
 40
1.0
 40
1.0
 10
9.5154
 20
0.8796
 30
0.0
 10
9.4232
 20
0.8015
 30
0.0
 10
9.3348
 20
0.7465
 30
0.0
 10
9.2501
 20
0.7141
 30
0.0
 10
9.2501
 20
0.7141
 30
0.0
 10
9.165
 20
0.6821
 30
0.0
 10
9.0737
 20
0.6661
 30
0.0
 10
8.9764
 20
0.6661
 30
0.0
 10
8.9764
 20
0.6661
 30
0.0
 10
8.8155
 20
0.6661
 30
0.0
 10
8.6923
 20
0.7051
 30
0.0
 10
8.6057
 20
0.7837
 30
0.0
 10
8.6057
 20
0.7837
 30
0.0
 10
8.5196
 20
0.8622
 30
0.0
 10
8.4764
 20
0.9629
 30
0.0
 10
8.4764
 20
1.0847
 30
0.0
 10
8.4764
 20
1.0847
 30
0.0
 10
8.4764
 20
1.1567
 30
0.0
 10
8.4924
 20
1.222
 30
0.0
 10
8.5253
 20
1.2813
 30
0.0
 10
8.5253
 20
1.2813
 30
0.0
 10
8.5577
 20
1.3406
 30
0.0
 10
8.6005
 20
1.3881
 30
0.0
 10
8.6532
 20
1.4238
 30
0.0
 10
8.6532
 20
1.4238
 30
0.0
 10
8.7064
 20
1.4596
 30
0.0
 10
8.7656
 20
1.4869
 30
0.0
 10
8.832
 20
1.5052
 30
0.0
 10
8.832
 20
1.5052
 30
0.0
 10
8.8804
 20
1.5179
 30
0.0
 10
8.9538
 20
1.5306
 30
0.0
 10
9.0521
 20
1.5424
 30
0.0
 10
9.0521
 20
1.5424
 30
0.0
 10
9.2525
 20
1.5664
 30
0.0
 10
9.4002
 20
1.5946
 30
0.0
 10
9.4947
 20
1.628
 30
0.0
 10
9.4947
 20
1.628
 30
0.0
 10
9.4957
 20
1.6618
 30
0.0
 10
9.4961
 20
1.6835
 30
0.0
 10
9.4961
 20
1.6924
 30
0.0
 10
9.4961
 20
1.6924
 30
0.0
 10
9.4961
 20
1.7935
 30
0.0
 10
9.4726
 20
1.865
 30
0.0
 10
9.4256
 20
1.906
 30
0.0
 10
9.4256
 20
1.906
 30
0.0
 10
9.3625
 20
1.9624
 30
0.0
 10
9.268
 20
1.9902
 30
0.0
 10
9.1433
 20
1.9902
 30
0.0
 10
9.1433
 20
1.9902
 30
0.0
 10
9.0267
 20
1.9902
 30
0.0
 10
8.9406
 20
1.9699
 30
0.0
 10
8.8846
 20
1.929
 30
0.0
 10
8.8846
 20
1.929
 30
0.0
 10
8.8291
 20
1.8881
 30
0.0
 10
8.7882
 20
1.8157
 30
0.0
 10
8.7614
 20
1.7117
 30
0.0
 10
8.7614
 20
1.7117
 30
0.0
 10
8.7614
 20
1.7117
 30
0.0
 10
8.5192
 20
1.7451
 30
0.0
 10
8.5192
 20
1.7451
 30
0.0
 10
8.5192
 20
1.7451
 30
0.0
 10
8.5413
 20
1.8486
 30
0.0
 10
8.5775
 20
1.9328
 30
0.0
 10
8.6278
 20
1.9963
 30
0.0
 10
8.6278
 20
1.9963
 30
0.0
 10
8.6782
 20
2.0602
 30
0.0
 10
8.7515
 20
2.1096
 30
0.0
 10
8.847
 20
2.144
 30
0.0
 10
8.847
 20
2.144
 30
0.0
 10
8.9425
 20
2.1783
 30
0.0
 10
9.053
 20
2.1957
 30
0.0
 10
9.1791
 20
2.1957
 30
0.0
 10
9.1791
 20
2.1957
 30
0.0
 10
9.3042
 20
2.1957
 30
0.0
 10
9.4053
 20
2.1807
 30
0.0
 10
9.4834
 20
2.1515
 30
0.0
 10
9.4834
 20
2.1515
 30
0.0
 10
9.5615
 20
2.1219
 30
0.0
 10
9.6189
 20
2.0852
 30
0.0
 10
9.656
 20
2.0405
 30
0.0
 10
9.656
 20
2.0405
 30
0.0
 10
9.6927
 20
1.9958
 30
0.0
 10
9.7181
 20
1.9398
 30
0.0
 10
9.7332
 20
1.8716
 30
0.0
 10
9.7332
 20
1.8716
 30
0.0
 10
9.7412
 20
1.8293
 30
0.0
 10
9.7454
 20
1.7531
 30
0.0
 10
9.7454
 20
1.643
 30
0.0
 10
9.7454
 20
1.643
 30
0.0
 10
9.7454
 20
1.643
 30
0.0
 10
9.7454
 20
1.3124
 30
0.0
 10
9.7454
 20
1.3124
 30
0.0
 10
9.7454
 20
1.3124
 30
0.0
 10
9.7454
 20
1.0814
 30
0.0
 10
9.7506
 20
0.9356
 30
0.0
 10
9.7614
 20
0.8749
 30
0.0
 10
9.7614
 20
0.8749
 30
0.0
 10
9.7718
 20
0.8138
 30
0.0
 10
9.7929
 20
0.755
 30
0.0
 10
9.824
 20
0.699
 30
0.0
 10
9.824
 20
0.699
 30
0.0
 10
9.824
 20
0.699
 30
0.0
 10
9.5648
 20
0.699
 30
0.0
 10
9.5648
 20
0.699
 30
0.0
 10
9.5648
 20
0.699
 30
0.0
 10
9.5394
 20
0.7503
 30
0.0
 10
9.5225
 20
0.8105
 30
0.0
 10
9.5154
 20
0.8796
 30
0.0
  0
SPLINE
  5
12F
330
1F
100
AcDbEntity
  8
DEFAULT_1
 62
   250
100
AcDbSpline
210
0.0
220
0.0
230
1.0
 70
    11
 71
     3
 72
    44
 73
    40
 74
     0
 42
0.0000000001
 43
0.0000000001
 40
0.0
 40
0.0
 40
0.0
 40
0.0
 40
0.0909090909090909
 40
0.0909090909090909
 40
0.0909090909090909
 40
0.0909090909090909
 40
0.1818181818181818
 40
0.1818181818181818
 40
0.1818181818181818
 40
0.1818181818181818
 40
0.2727272727272727
 40
0.2727272727272727
 40
0.2727272727272727
 40
0.2727272727272727
 40
0.3636363636363636
 40
0.3636363636363636
 40
0.3636363636363636
 40
0.3636363636363636
 40
0.4545454545454545
 40
0.4545454545454545
 40
0.4545454545454545
 40
0.4545454545454545
 40
0.5454545454545454
 40
0.5454545454545454
 40
0.5454545454545454
 40
0.5454545454545454
 40
0.6363636363636364
 40
0.6363636363636364
 40
0.6363636363636364
 40
0.6363636363636364
 40
0.7272727272727273
 40
0.7272727272727273
 40
0.7272727272727273
 40
0.7272727272727273
 40
0.8181818181818182
 40
0.8181818181818182
 40
0.8181818181818182
 40
0.8181818181818182
 40
1.0
 40
1.0
 40
1.0
 40
1.0
 10
9.4947
 20
1.4337
 30
0.0
 10
9.4044
 20
1.3966
 30
0.0
 10
9.2694
 20
1.3655
 30
0.0
 10
9.0897
 20
1.3396
 30
0.0
 10
9.0897
 20
1.3396
 30
0.0
 10
8.9877
 20
1.3251
 30
0.0
 10
8.9152
 20
1.3086
 30
0.0
 10
8.8734
 20
1.2903
 30
0.0
 10
8.8734
 20
1.2903
 30
0.0
 10
8.831
 20
1.2719
 30
0.0
 10
8.7981
 20
1.2451
 30
0.0
 10
8.7755
 20
1.2093
 30
0.0
 10
8.7755
 20
1.2093
 30
0.0
 10
8.7525
 20
1.1741
 30
0.0
 10
8.7407
 20
1.135
 30
0.0
 10
8.7407
 20
1.0918
 30
0.0
 10
8.7407
 20
1.0918
 30
0.0
 10
8.7407
 20
1.0254
 30
0.0
 10
8.7661
 20
0.9704
 30
0.0
 10
8.816
 20
0.9262
 30
0.0
 10
8.816
 20
0.9262
 30
0.0
 10
8.8658
 20
0.8824
 30
0.0
 10
8.9392
 20
0.8603
 30
0.0
 10
9.0356
 20
0.8603
 30
0.0
 10
9.0356
 20
0.8603
 30
0.0
 10
9.1311
 20
0.8603
 30
0.0
 10
9.2163
 20
0.881
 30
0.0
 10
9.2906
 20
0.9229
 30
0.0
 10
9.2906
 20
0.9229
 30
0.0
 10
9.3649
 20
0.9648
 30
0.0
 10
9.4199
 20
1.0221
 30
0.0
 10
9.4547
 20
1.0946
 30
0.0
 10
9.4547
 20
1.0946
 30
0.0
 10
9.4815
 20
1.1506
 30
0.0
 10
9.4947
 20
1.2333
 30
0.0
 10
9.4947
 20
1.3425
 30
0.0
 10
9.4947
 20
1.3425
 30
0.0
 10
9.4947
 20
1.3425
 30
0.0
 10
9.4947
 20
1.4337
 30
0.0
 10
9.4947
 20
1.4337
 30
0.0
  0
SPLINE
  5
130
330
1F
100
AcDbEntity
  8
DEFAULT_1
 62
   250
100
AcDbSpline
210
0.0
220
0.0
230
1.0
 70
    11
 71
     3
 72
    64
 73
    60
 74
     0
 42
0.0000000001
 43
0.0000000001
 40
0.0
 40
0.0
 40
0.0
 40
0.0
 40
0.0625
 40
0.0625
 40
0.0625
 40
0.0625
 40
0.125
 40
0.125
 40
0.125
 40
0.125
 40
0.1875
 40
0.1875
 40
0.1875
 40
0.1875
 40
0.25
 40
0.25
 40
0.25
 40
0.25
 40
0.3125
 40
0.3125
 40
0.3125
 40
0.3125
 40
0.375
 40
0.375
 40
0.375
 40
0.375
 40
0.4375
 40
0.4375
 40
0.4375
 40
0.4375
 40
0.5
 40
0.5
 40
0.5
 40
0.5
 40
0.5625
 40
0.5625
 40
0.5625
 40
0.5625
 40
0.625
 40
0.625
 40
0.625
 40
0.625
 40
0.6875
 40
0.6875
 40
0.6875
 40
0.6875
 40
0.75
 40
0.75
 40
0.75
 40
0.75
 40
0.8125
 40
0.8125
 40
0.8125
 40
0.8125
 40
0.875
 40
0.875
 40
0.875
 40
0.875
 40
1.0
 40
1.0
 40
1.0
 40
1.0
 10
9.9646
 20
0.699
 30
0.0
 10
9.9646
 20
0.699
 30
0.0
 10
10.4994
 20
1.4596
 30
0.0
 10
10.4994
 20
1.4596
 30
0.0
 10
10.4994
 20
1.4596
 30
0.0
 10
10.4994
 20
1.4596
 30
0.0
 10
10.0046
 20
2.1623
 30
0.0
 10
10.0046
 20
2.1623
 30
0.0
 10
10.0046
 20
2.1623
 30
0.0
 10
10.0046
 20
2.1623
 30
0.0
 10
10.3145
 20
2.1623
 30
0.0
 10
10.3145
 20
2.1623
 30
0.0
 10
10.3145
 20
2.1623
 30
0.0
 10
10.3145
 20
2.1623
 30
0.0
 10
10.5394
 20
1.8194
 30
0.0
 10
10.5394
 20
1.8194
 30
0.0
 10
10.5394
 20
1.8194
 30
0.0
 10
10.5812
 20
1.754
 30
0.0
 10
10.6156
 20
1.6995
 30
0.0
 10
10.641
 20
1.6553
 30
0.0
 10
10.641
 20
1.6553
 30
0.0
 10
10.6814
 20
1.7159
 30
0.0
 10
10.7186
 20
1.7696
 30
0.0
 10
10.7529
 20
1.8166
 30
0.0
 10
10.7529
 20
1.8166
 30
0.0
 10
10.7529
 20
1.8166
 30
0.0
 10
10.9994
 20
2.1623
 30
0.0
 10
10.9994
 20
2.1623
 30
0.0
 10
10.9994
 20
2.1623
 30
0.0
 10
10.9994
 20
2.1623
 30
0.0
 10
11.2957
 20
2.1623
 30
0.0
 10
11.2957
 20
2.1623
 30
0.0
 10
11.2957
 20
2.1623
 30
0.0
 10
11.2957
 20
2.1623
 30
0.0
 10
10.7901
 20
1.4732
 30
0.0
 10
10.7901
 20
1.4732
 30
0.0
 10
10.7901
 20
1.4732
 30
0.0
 10
10.7901
 20
1.4732
 30
0.0
 10
11.3343
 20
0.699
 30
0.0
 10
11.3343
 20
0.699
 30
0.0
 10
11.3343
 20
0.699
 30
0.0
 10
11.3343
 20
0.699
 30
0.0
 10
11.03
 20
0.699
 30
0.0
 10
11.03
 20
0.699
 30
0.0
 10
11.03
 20
0.699
 30
0.0
 10
11.03
 20
0.699
 30
0.0
 10
10.7294
 20
1.1538
 30
0.0
 10
10.7294
 20
1.1538
 30
0.0
 10
10.7294
 20
1.1538
 30
0.0
 10
10.7294
 20
1.1538
 30
0.0
 10
10.6495
 20
1.2766
 30
0.0
 10
10.6495
 20
1.2766
 30
0.0
 10
10.6495
 20
1.2766
 30
0.0
 10
10.6495
 20
1.2766
 30
0.0
 10
10.2652
 20
0.699
 30
0.0
 10
10.2652
 20
0.699
 30
0.0
 10
10.2652
 20
0.699
 30
0.0
 10
10.2652
 20
0.699
 30
0.0
 10
9.9646
 20
0.699
 30
0.0
 10
9.9646
 20
0.699
 30
0.0
  0
SPLINE
  5
131
330
1F
100
AcDbEntity
  8
DEFAULT_1
 62
   250
100
AcDbSpline
210
0.0
220
0.0
230
1.0
 70
    11
 71
     3
 72
   124
 73
   120
 74
     0
 42
0.0000000001
 43
0.0000000001
 40
0.0
 40
0.0
 40
0.0
 40
0.0
 40
0.032258064516129
 40
0.032258064516129
 40
0.032258064516129
 40
0.032258064516129
 40
0.0645161290322581
 40
0.0645161290322581
 40
0.0645161290322581
 40
0.0645161290322581
 40
0.0967741935483871
 40
0.0967741935483871
 40
0.0967741935483871
 40
0.0967741935483871
 40
0.1290322580645161
 40
0.1290322580645161
 40
0.1290322580645161
 40
0.1290322580645161
 40
0.1612903225806452
 40
0.1612903225806452
 40
0.1612903225806452
 40
0.1612903225806452
 40
0.1935483870967742
 40
0.1935483870967742
 40
0.1935483870967742
 40
0.1935483870967742
 40
0.2258064516129032
 40
0.2258064516129032
 40
0.2258064516129032
 40
0.2258064516129032
 40
0.2580645161290323
 40
0.2580645161290323
 40
0.2580645161290323
 40
0.2580645161290323
 40
0.2903225806451613
 40
0.2903225806451613
 40
0.2903225806451613
 40
0.2903225806451613
 40
0.3225806451612903
 40
0.3225806451612903
 40
0.3225806451612903
 40
0.3225806451612903
 40
0.3548387096774194
 40
0.3548387096774194
 40
0.3548387096774194
 40
0.3548387096774194
 40
0.3870967741935484
 40
0.3870967741935484
 40
0.3870967741935484
 40
0.3870967741935484
 40
0.4193548387096774
 40
0.4193548387096774
 40
0.4193548387096774
 40
0.4193548387096774
 40
0.4516129032258064
 40
0.4516129032258064
 40
0.4516129032258064
 40
0.4516129032258064
 40
0.4838709677419355
 40
0.4838709677419355
 40
0.4838709677419355
 40
0.4838709677419355
 40
0.5161290322580645
 40
0.5161290322580645
 40
0.5161290322580645
 40
0.5161290322580645
 40
0.5483870967741935
 40
0.5483870967741935
 40
0.5483870967741935
 40
0.5483870967741935
 40
0.5806451612903226
 40
0.5806451612903226
 40
0.5806451612903226
 40
0.5806451612903226
 40
0.6129032258064516
 40
0.6129032258064516
 40
0.6129032258064516
 40
0.6129032258064516
 40
0.6451612903225806
 40
0.6451612903225806
 40
0.6451612903225806
 40
0.6451612903225806
 40
0.6774193548387096
 40
0.6774193548387096
 40
0.6774193548387096
 40
0.6774193548387096
 40
0.7096774193548387
 40
0.7096774193548387
 40
0.7096774193548387
 40
0.7096774193548387
 40
0.7419354838709677
 40
0.7419354838709677
 40
0.7419354838709677
 40
0.7419354838709677
 40
0.7741935483870968
 40
0.7741935483870968
 40
0.7741935483870968
 40
0.7741935483870968
 40
0.8064516129032258
 40
0.8064516129032258
 40
0.8064516129032258
 40
0.8064516129032258
 40
0.8387096774193549
 40
0.8387096774193549
 40
0.8387096774193549
 40
0.8387096774193549
 40
0.8709677419354839
 40
0.8709677419354839
 40
0.8709677419354839
 40
0.8709677419354839
 40
0.9032258064516129
 40
0.9032258064516129
 40
0.9032258064516129
 40
0.9032258064516129
 40
0.9354838709677419
 40
0.9354838709677419
 40
0.9354838709677419
 40
0.9354838709677419
 40
1.0
 40
1.0
 40
1.0
 40
1.0
 10
12.2576
 20
1.2324
 30
0.0
 10
12.2576
 20
1.2324
 30
0.0
 10
12.5055
 20
1.2653
 30
0.0
 10
12.5055
 20
1.2653
 30
0.0
 10
12.5055
 20
1.2653
 30
0.0
 10
12.5342
 20
1.1247
 30
0.0
 10
12.5827
 20
1.0236
 30
0.0
 10
12.6509
 20
0.9615
 30
0.0
 10
12.6509
 20
0.9615
 30
0.0
 10
12.7195
 20
0.8994
 30
0.0
 10
12.8028
 20
0.8683
 30
0.0
 10
12.9011
 20
0.8683
 30
0.0
 10
12.9011
 20
0.8683
 30
0.0
 10
13.0177
 20
0.8683
 30
0.0
 10
13.1165
 20
0.9088
 30
0.0
 10
13.197
 20
0.9897
 30
0.0
 10
13.197
 20
0.9897
 30
0.0
 10
13.2769
 20
1.0706
 30
0.0
 10
13.3174
 20
1.1708
 30
0.0
 10
13.3174
 20
1.2903
 30
0.0
 10
13.3174
 20
1.2903
 30
0.0
 10
13.3174
 20
1.4041
 30
0.0
 10
13.2802
 20
1.4982
 30
0.0
 10
13.2059
 20
1.572
 30
0.0
 10
13.2059
 20
1.572
 30
0.0
 10
13.1311
 20
1.6458
 30
0.0
 10
13.0366
 20
1.683
 30
0.0
 10
12.9218
 20
1.683
 30
0.0
 10
12.9218
 20
1.683
 30
0.0
 10
12.8748
 20
1.683
 30
0.0
 10
12.8164
 20
1.6736
 30
0.0
 10
12.7468
 20
1.6553
 30
0.0
 10
12.7468
 20
1.6553
 30
0.0
 10
12.7468
 20
1.6553
 30
0.0
 10
12.7746
 20
1.873
 30
0.0
 10
12.7746
 20
1.873
 30
0.0
 10
12.7746
 20
1.873
 30
0.0
 10
12.791
 20
1.8712
 30
0.0
 10
12.8042
 20
1.8702
 30
0.0
 10
12.8145
 20
1.8702
 30
0.0
 10
12.8145
 20
1.8702
 30
0.0
 10
12.9199
 20
1.8702
 30
0.0
 10
13.0149
 20
1.898
 30
0.0
 10
13.0996
 20
1.953
 30
0.0
 10
13.0996
 20
1.953
 30
0.0
 10
13.1843
 20
2.008
 30
0.0
 10
13.2266
 20
2.0932
 30
0.0
 10
13.2266
 20
2.2079
 30
0.0
 10
13.2266
 20
2.2079
 30
0.0
 10
13.2266
 20
2.2987
 30
0.0
 10
13.1955
 20
2.3744
 30
0.0
 10
13.1339
 20
2.4337
 30
0.0
 10
13.1339
 20
2.4337
 30
0.0
 10
13.0723
 20
2.4934
 30
0.0
 10
12.9928
 20
2.5236
 30
0.0
 10
12.8954
 20
2.5236
 30
0.0
 10
12.8954
 20
2.5236
 30
0.0
 10
12.799
 20
2.5236
 30
0.0
 10
12.7186
 20
2.493
 30
0.0
 10
12.6546
 20
2.4328
 30
0.0
 10
12.6546
 20
2.4328
 30
0.0
 10
12.5902
 20
2.3721
 30
0.0
 10
12.5488
 20
2.2808
 30
0.0
 10
12.5304
 20
2.1595
 30
0.0
 10
12.5304
 20
2.1595
 30
0.0
 10
12.5304
 20
2.1595
 30
0.0
 10
12.2826
 20
2.2037
 30
0.0
 10
12.2826
 20
2.2037
 30
0.0
 10
12.2826
 20
2.2037
 30
0.0
 10
12.3127
 20
2.3702
 30
0.0
 10
12.3818
 20
2.4991
 30
0.0
 10
12.4891
 20
2.5903
 30
0.0
 10
12.4891
 20
2.5903
 30
0.0
 10
12.5968
 20
2.6816
 30
0.0
 10
12.7304
 20
2.7277
 30
0.0
 10
12.8903
 20
2.7277
 30
0.0
 10
12.8903
 20
2.7277
 30
0.0
 10
13.0003
 20
2.7277
 30
0.0
 10
13.1019
 20
2.7037
 30
0.0
 10
13.1946
 20
2.6567
 30
0.0
 10
13.1946
 20
2.6567
 30
0.0
 10
13.2873
 20
2.6092
 30
0.0
 10
13.3583
 20
2.5447
 30
0.0
 10
13.4077
 20
2.4629
 30
0.0
 10
13.4077
 20
2.4629
 30
0.0
 10
13.4566
 20
2.381
 30
0.0
 10
13.4815
 20
2.2945
 30
0.0
 10
13.4815
 20
2.2023
 30
0.0
 10
13.4815
 20
2.2023
 30
0.0
 10
13.4815
 20
2.1153
 30
0.0
 10
13.458
 20
2.0358
 30
0.0
 10
13.411
 20
1.9638
 30
0.0
 10
13.411
 20
1.9638
 30
0.0
 10
13.3639
 20
1.8923
 30
0.0
 10
13.2948
 20
1.8354
 30
0.0
 10
13.2031
 20
1.7931
 30
0.0
 10
13.2031
 20
1.7931
 30
0.0
 10
13.3225
 20
1.7658
 30
0.0
 10
13.4152
 20
1.7084
 30
0.0
 10
13.4815
 20
1.6214
 30
0.0
 10
13.4815
 20
1.6214
 30
0.0
 10
13.5474
 20
1.5348
 30
0.0
 10
13.5803
 20
1.4262
 30
0.0
 10
13.5803
 20
1.2959
 30
0.0
 10
13.5803
 20
1.2959
 30
0.0
 10
13.5803
 20
1.1195
 30
0.0
 10
13.5163
 20
0.9699
 30
0.0
 10
13.3875
 20
0.8472
 30
0.0
 10
13.3875
 20
0.8472
 30
0.0
 10
13.259
 20
0.7244
 30
0.0
 10
13.0963
 20
0.6633
 30
0.0
 10
12.8997
 20
0.6633
 30
0.0
 10
12.8997
 20
0.6633
 30
0.0
 10
12.7224
 20
0.6633
 30
0.0
 10
12.5751
 20
0.7159
 30
0.0
 10
12.458
 20
0.8218
 30
0.0
 10
12.458
 20
0.8218
 30
0.0
 10
12.3409
 20
0.9271
 30
0.0
 10
12.2741
 20
1.064
 30
0.0
 10
12.2576
 20
1.2324
 30
0.0
  0
SPLINE
  5
132
330
1F
100
AcDbEntity
  8
DEFAULT_1
 62
   250
100
AcDbSpline
210
0.0
220
0.0
230
1.0
 70
    11
 71
     3
 72
    92
 73
    88
 74
     0
 42
0.0000000001
 43
0.0000000001
 40
0.0
 40
0.0
 40
0.0
 40
0.0
 40
0.0434782608695652
 40
0.0434782608695652
 40
0.0434782608695652
 40
0.0434782608695652
 40
0.0869565217391304
 40
0.0869565217391304
 40
0.0869565217391304
 40
0.0869565217391304
 40
0.1304347826086956
 40
0.1304347826086956
 40
0.1304347826086956
 40
0.1304347826086956
 40
0.1739130434782609
 40
0.1739130434782609
 40
0.1739130434782609
 40
0.1739130434782609
 40
0.2173913043478261
 40
0.2173913043478261
 40
0.2173913043478261
 40
0.2173913043478261
 40
0.2608695652173913
 40
0.2608695652173913
 40
0.2608695652173913
 40
0.2608695652173913
 40
0.3043478260869565
 40
0.3043478260869565
 40
0.3043478260869565
 40
0.3043478260869565
 40
0.3478260869565217
 40
0.3478260869565217
 40
0.3478260869565217
 40
0.3478260869565217
 40
0.391304347826087
 40
0.391304347826087
 40
0.391304347826087
 40
0.391304347826087
 40
0.4347826086956522
 40
0.4347826086956522
 40
0.4347826086956522
 40
0.4347826086956522
 40
0.4782608695652174
 40
0.4782608695652174
 40
0.4782608695652174
 40
0.4782608695652174
 40
0.5217391304347826
 40
0.5217391304347826
 40
0.5217391304347826
 40
0.5217391304347826
 40
0.5652173913043478
 40
0.5652173913043478
 40
0.5652173913043478
 40
0.5652173913043478
 40
0.6086956521739131
 40
0.6086956521739131
 40
0.6086956521739131
 40
0.6086956521739131
 40
0.6521739130434783
 40
0.6521739130434783
 40
0.6521739130434783
 40
0.6521739130434783
 40
0.6956521739130435
 40
0.6956521739130435
 40
0.6956521739130435
 40
0.6956521739130435
 40
0.7391304347826086
 40
0.7391304347826086
 40
0.7391304347826086
 40
0.7391304347826086
 40
0.782608695652174
 40
0.782608695652174
 40
0.782608695652174
 40
0.782608695652174
 40
0.8260869565217391
 40
0.8260869565217391
 40
0.8260869565217391
 40
0.8260869565217391
 40
0.8695652173913043
 40
0.8695652173913043
 40
0.8695652173913043
 40
0.8695652173913043
 40
0.9130434782608695
 40
0.9130434782608695
 40
0.9130434782608695
 40
0.9130434782608695
 40
1.0
 40
1.0
 40
1.0
 40
1.0
 10
15.1297
 20
0.9375
 30
0.0
 10
15.1297
 20
0.9375
 30
0.0
 10
15.1297
 20
0.699
 30
0.0
 10
15.1297
 20
0.699
 30
0.0
 10
15.1297
 20
0.699
 30
0.0
 10
15.1297
 20
0.699
 30
0.0
 10
13.7943
 20
0.699
 30
0.0
 10
13.7943
 20
0.699
 30
0.0
 10
13.7943
 20
0.699
 30
0.0
 10
13.7924
 20
0.7587
 30
0.0
 10
13.8018
 20
0.8161
 30
0.0
 10
13.823
 20
0.8712
 30
0.0
 10
13.823
 20
0.8712
 30
0.0
 10
13.8569
 20
0.9624
 30
0.0
 10
13.9114
 20
1.0518
 30
0.0
 10
13.9862
 20
1.1402
 30
0.0
 10
13.9862
 20
1.1402
 30
0.0
 10
14.0615
 20
1.2282
 30
0.0
 10
14.1697
 20
1.3302
 30
0.0
 10
14.3108
 20
1.4459
 30
0.0
 10
14.3108
 20
1.4459
 30
0.0
 10
14.5304
 20
1.6261
 30
0.0
 10
14.6791
 20
1.7686
 30
0.0
 10
14.7562
 20
1.874
 30
0.0
 10
14.7562
 20
1.874
 30
0.0
 10
14.8333
 20
1.9789
 30
0.0
 10
14.8719
 20
2.0786
 30
0.0
 10
14.8719
 20
2.1722
 30
0.0
 10
14.8719
 20
2.1722
 30
0.0
 10
14.8719
 20
2.2705
 30
0.0
 10
14.8366
 20
2.3533
 30
0.0
 10
14.7666
 20
2.421
 30
0.0
 10
14.7666
 20
2.421
 30
0.0
 10
14.696
 20
2.4883
 30
0.0
 10
14.6043
 20
2.5221
 30
0.0
 10
14.4914
 20
2.5221
 30
0.0
 10
14.4914
 20
2.5221
 30
0.0
 10
14.3719
 20
2.5221
 30
0.0
 10
14.2764
 20
2.4864
 30
0.0
 10
14.2049
 20
2.4144
 30
0.0
 10
14.2049
 20
2.4144
 30
0.0
 10
14.133
 20
2.3429
 30
0.0
 10
14.0968
 20
2.2437
 30
0.0
 10
14.0958
 20
2.1172
 30
0.0
 10
14.0958
 20
2.1172
 30
0.0
 10
14.0958
 20
2.1172
 30
0.0
 10
13.8409
 20
2.143
 30
0.0
 10
13.8409
 20
2.143
 30
0.0
 10
13.8409
 20
2.143
 30
0.0
 10
13.8583
 20
2.3335
 30
0.0
 10
13.9241
 20
2.4784
 30
0.0
 10
14.038
 20
2.5781
 30
0.0
 10
14.038
 20
2.5781
 30
0.0
 10
14.1518
 20
2.6778
 30
0.0
 10
14.3051
 20
2.7277
 30
0.0
 10
14.497
 20
2.7277
 30
0.0
 10
14.497
 20
2.7277
 30
0.0
 10
14.6908
 20
2.7277
 30
0.0
 10
14.8442
 20
2.6736
 30
0.0
 10
14.9571
 20
2.5664
 30
0.0
 10
14.9571
 20
2.5664
 30
0.0
 10
15.0704
 20
2.4586
 30
0.0
 10
15.1269
 20
2.3255
 30
0.0
 10
15.1269
 20
2.1665
 30
0.0
 10
15.1269
 20
2.1665
 30
0.0
 10
15.1269
 20
2.0856
 30
0.0
 10
15.1104
 20
2.0061
 30
0.0
 10
15.077
 20
1.9281
 30
0.0
 10
15.077
 20
1.9281
 30
0.0
 10
15.0441
 20
1.85
 30
0.0
 10
14.989
 20
1.7677
 30
0.0
 10
14.9124
 20
1.6816
 30
0.0
 10
14.9124
 20
1.6816
 30
0.0
 10
14.8357
 20
1.595
 30
0.0
 10
14.7082
 20
1.4765
 30
0.0
 10
14.53
 20
1.326
 30
0.0
 10
14.53
 20
1.326
 30
0.0
 10
14.3813
 20
1.2009
 30
0.0
 10
14.2858
 20
1.1162
 30
0.0
 10
14.2435
 20
1.0715
 30
0.0
 10
14.2435
 20
1.0715
 30
0.0
 10
14.2012
 20
1.0273
 30
0.0
 10
14.1664
 20
0.9826
 30
0.0
 10
14.1386
 20
0.9375
 30
0.0
 10
14.1386
 20
0.9375
 30
0.0
 10
14.1386
 20
0.9375
 30
0.0
 10
15.1297
 20
0.9375
 30
0.0
 10
15.1297
 20
0.9375
 30
0.0
  0
SPLINE
  5
133
330
1F
100
AcDbEntity
  8
DEFAULT_1
 62
   250
100
AcDbSpline
210
0.0
220
0.0
230
1.0
 70
    11
 71
     3
 72
    52
 73
    48
 74
     0
 42
0.0000000001
 43
0.0000000001
 40
0.0
 40
0.0
 40
0.0
 40
0.0
 40
0.0769230769230769
 40
0.0769230769230769
 40
0.0769230769230769
 40
0.0769230769230769
 40
0.1538461538461539
 40
0.1538461538461539
 40
0.1538461538461539
 40
0.1538461538461539
 40
0.2307692307692308
 40
0.2307692307692308
 40
0.2307692307692308
 40
0.2307692307692308
 40
0.3076923076923077
 40
0.3076923076923077
 40
0.3076923076923077
 40
0.3076923076923077
 40
0.3846153846153846
 40
0.3846153846153846
 40
0.3846153846153846
 40
0.3846153846153846
 40
0.4615384615384616
 40
0.4615384615384616
 40
0.4615384615384616
 40
0.4615384615384616
 40
0.5384615384615384
 40
0.5384615384615384
 40
0.5384615384615384
 40
0.5384615384615384
 40
0.6153846153846154
 40
0.6153846153846154
 40
0.6153846153846154
 40
0.6153846153846154
 40
0.6923076923076923
 40
0.6923076923076923
 40
0.6923076923076923
 40
0.6923076923076923
 40
0.7692307692307693
 40
0.7692307692307693
 40
0.7692307692307693
 40
0.7692307692307693
 40
0.8461538461538461
 40
0.8461538461538461
 40
0.8461538461538461
 40
0.8461538461538461
 40
1.0
 40
1.0
 40
1.0
 40
1.0
 10
15.3954
 20
1.6952
 30
0.0
 10
15.3954
 20
1.9342
 30
0.0
 10
15.4199
 20
2.1266
 30
0.0
 10
15.4693
 20
2.2719
 30
0.0
 10
15.4693
 20
2.2719
 30
0.0
 10
15.5182
 20
2.4177
 30
0.0
 10
15.5916
 20
2.5301
 30
0.0
 10
15.6885
 20
2.6092
 30
0.0
 10
15.6885
 20
2.6092
 30
0.0
 10
15.7854
 20
2.6882
 30
0.0
 10
15.9072
 20
2.7277
 30
0.0
 10
16.0539
 20
2.7277
 30
0.0
 10
16.0539
 20
2.7277
 30
0.0
 10
16.1626
 20
2.7277
 30
0.0
 10
16.2576
 20
2.7056
 30
0.0
 10
16.3394
 20
2.6618
 30
0.0
 10
16.3394
 20
2.6618
 30
0.0
 10
16.4213
 20
2.6186
 30
0.0
 10
16.4886
 20
2.5555
 30
0.0
 10
16.5422
 20
2.4732
 30
0.0
 10
16.5422
 20
2.4732
 30
0.0
 10
16.5953
 20
2.3909
 30
0.0
 10
16.6372
 20
2.2907
 30
0.0
 10
16.6673
 20
2.1727
 30
0.0
 10
16.6673
 20
2.1727
 30
0.0
 10
16.6979
 20
2.0546
 30
0.0
 10
16.7129
 20
1.8956
 30
0.0
 10
16.7129
 20
1.6952
 30
0.0
 10
16.7129
 20
1.6952
 30
0.0
 10
16.7129
 20
1.4582
 30
0.0
 10
16.6885
 20
1.2672
 30
0.0
 10
16.64
 20
1.1214
 30
0.0
 10
16.64
 20
1.1214
 30
0.0
 10
16.5911
 20
0.9756
 30
0.0
 10
16.5182
 20
0.8632
 30
0.0
 10
16.4213
 20
0.7837
 30
0.0
 10
16.4213
 20
0.7837
 30
0.0
 10
16.3244
 20
0.7042
 30
0.0
 10
16.2021
 20
0.6647
 30
0.0
 10
16.0539
 20
0.6647
 30
0.0
 10
16.0539
 20
0.6647
 30
0.0
 10
15.8592
 20
0.6647
 30
0.0
 10
15.7063
 20
0.7343
 30
0.0
 10
15.5953
 20
0.874
 30
0.0
 10
15.5953
 20
0.874
 30
0.0
 10
15.4622
 20
1.0419
 30
0.0
 10
15.3954
 20
1.3161
 30
0.0
 10
15.3954
 20
1.6952
 30
0.0
  0
SPLINE
  5
134
330
1F
100
AcDbEntity
  8
DEFAULT_1
 62
   250
100
AcDbSpline
210
0.0
220
0.0
230
1.0
 70
    11
 71
     3
 72
    36
 73
    32
 74
     0
 42
0.0000000001
 43
0.0000000001
 40
0.0
 40
0.0
 40
0.0
 40
0.0
 40
0.1111111111111111
 40
0.1111111111111111
 40
0.1111111111111111
 40
0.1111111111111111
 40
0.2222222222222222
 40
0.2222222222222222
 40
0.2222222222222222
 40
0.2222222222222222
 40
0.3333333333333333
 40
0.3333333333333333
 40
0.3333333333333333
 40
0.3333333333333333
 40
0.4444444444444444
 40
0.4444444444444444
 40
0.4444444444444444
 40
0.4444444444444444
 40
0.5555555555555556
 40
0.5555555555555556
 40
0.5555555555555556
 40
0.5555555555555556
 40
0.6666666666666666
 40
0.6666666666666666
 40
0.6666666666666666
 40
0.6666666666666666
 40
0.7777777777777778
 40
0.7777777777777778
 40
0.7777777777777778
 40
0.7777777777777778
 40
1.0
 40
1.0
 40
1.0
 40
1.0
 10
15.6504
 20
1.6952
 30
0.0
 10
15.6504
 20
1.3636
 30
0.0
 10
15.6894
 20
1.143
 30
0.0
 10
15.767
 20
1.033
 30
0.0
 10
15.767
 20
1.033
 30
0.0
 10
15.8446
 20
0.9234
 30
0.0
 10
15.9401
 20
0.8683
 30
0.0
 10
16.0539
 20
0.8683
 30
0.0
 10
16.0539
 20
0.8683
 30
0.0
 10
16.1682
 20
0.8683
 30
0.0
 10
16.2637
 20
0.9238
 30
0.0
 10
16.3413
 20
1.0339
 30
0.0
 10
16.3413
 20
1.0339
 30
0.0
 10
16.4189
 20
1.144
 30
0.0
 10
16.458
 20
1.3646
 30
0.0
 10
16.458
 20
1.6952
 30
0.0
 10
16.458
 20
1.6952
 30
0.0
 10
16.458
 20
2.0278
 30
0.0
 10
16.4189
 20
2.2489
 30
0.0
 10
16.3413
 20
2.358
 30
0.0
 10
16.3413
 20
2.358
 30
0.0
 10
16.2637
 20
2.4676
 30
0.0
 10
16.1673
 20
2.5221
 30
0.0
 10
16.0516
 20
2.5221
 30
0.0
 10
16.0516
 20
2.5221
 30
0.0
 10
15.9373
 20
2.5221
 30
0.0
 10
15.8465
 20
2.4737
 30
0.0
 10
15.7783
 20
2.3773
 30
0.0
 10
15.7783
 20
2.3773
 30
0.0
 10
15.6932
 20
2.2545
 30
0.0
 10
15.6504
 20
2.0268
 30
0.0
 10
15.6504
 20
1.6952
 30
0.0
  0
SPLINE
  5
135
330
1F
100
AcDbEntity
  8
DEFAULT_1
 62
   250
100
AcDbSpline
210
0.0
220
0.0
230
1.0
 70
    11
 71
     3
 72
    80
 73
    76
 74
     0
 42
0.0000000001
 43
0.0000000001
 40
0.0
 40
0.0
 40
0.0
 40
0.0
 40
0.05
 40
0.05
 40
0.05
 40
0.05
 40
0.1
 40
0.1
 40
0.1
 40
0.1
 40
0.15
 40
0.15
 40
0.15
 40
0.15
 40
0.2
 40
0.2
 40
0.2
 40
0.2
 40
0.25
 40
0.25
 40
0.25
 40
0.25
 40
0.3
 40
0.3
 40
0.3
 40
0.3
 40
0.35
 40
0.35
 40
0.35
 40
0.35
 40
0.4
 40
0.4
 40
0.4
 40
0.4
 40
0.45
 40
0.45
 40
0.45
 40
0.45
 40
0.5
 40
0.5
 40
0.5
 40
0.5
 40
0.55
 40
0.55
 40
0.55
 40
0.55
 40
0.6
 40
0.6
 40
0.6
 40
0.6
 40
0.65
 40
0.65
 40
0.65
 40
0.65
 40
0.7
 40
0.7
 40
0.7
 40
0.7
 40
0.75
 40
0.75
 40
0.75
 40
0.75
 40
0.8
 40
0.8
 40
0.8
 40
0.8
 40
0.85
 40
0.85
 40
0.85
 40
0.85
 40
0.9
 40
0.9
 40
0.9
 40
0.9
 40
1.0
 40
1.0
 40
1.0
 40
1.0
 10
-14.4185
 20
-3.1099
 30
0.0
 10
-14.4185
 20
-3.1099
 30
0.0
 10
-14.6649
 20
-3.1292
 30
0.0
 10
-14.6649
 20
-3.1292
 30
0.0
 10
-14.6649
 20
-3.1292
 30
0.0
 10
-14.687
 20
-3.0318
 30
0.0
 10
-14.7181
 20
-2.9608
 30
0.0
 10
-14.7585
 20
-2.9171
 30
0.0
 10
-14.7585
 20
-2.9171
 30
0.0
 10
-14.8258
 20
-2.846
 30
0.0
 10
-14.9086
 20
-2.8107
 30
0.0
 10
-15.0069
 20
-2.8107
 30
0.0
 10
-15.0069
 20
-2.8107
 30
0.0
 10
-15.0859
 20
-2.8107
 30
0.0
 10
-15.155
 20
-2.8329
 30
0.0
 10
-15.2148
 20
-2.8771
 30
0.0
 10
-15.2148
 20
-2.8771
 30
0.0
 10
-15.2929
 20
-2.934
 30
0.0
 10
-15.3545
 20
-3.0172
 30
0.0
 10
-15.3996
 20
-3.1264
 30
0.0
 10
-15.3996
 20
-3.1264
 30
0.0
 10
-15.4443
 20
-3.2355
 30
0.0
 10
-15.4678
 20
-3.3912
 30
0.0
 10
-15.4697
 20
-3.5934
 30
0.0
 10
-15.4697
 20
-3.5934
 30
0.0
 10
-15.41
 20
-3.5027
 30
0.0
 10
-15.3371
 20
-3.4349
 30
0.0
 10
-15.2505
 20
-3.3907
 30
0.0
 10
-15.2505
 20
-3.3907
 30
0.0
 10
-15.1645
 20
-3.347
 30
0.0
 10
-15.0737
 20
-3.3249
 30
0.0
 10
-14.9791
 20
-3.3249
 30
0.0
 10
-14.9791
 20
-3.3249
 30
0.0
 10
-14.8136
 20
-3.3249
 30
0.0
 10
-14.6729
 20
-3.3855
 30
0.0
 10
-14.5567
 20
-3.5074
 30
0.0
 10
-14.5567
 20
-3.5074
 30
0.0
 10
-14.4406
 20
-3.6292
 30
0.0
 10
-14.3822
 20
-3.7863
 30
0.0
 10
-14.3822
 20
-3.9791
 30
0.0
 10
-14.3822
 20
-3.9791
 30
0.0
 10
-14.3822
 20
-4.1061
 30
0.0
 10
-14.41
 20
-4.2237
 30
0.0
 10
-14.4646
 20
-4.3329
 30
0.0
 10
-14.4646
 20
-4.3329
 30
0.0
 10
-14.5191
 20
-4.4415
 30
0.0
 10
-14.5944
 20
-4.5252
 30
0.0
 10
-14.6899
 20
-4.5831
 30
0.0
 10
-14.6899
 20
-4.5831
 30
0.0
 10
-14.7853
 20
-4.6409
 30
0.0
 10
-14.8935
 20
-4.6696
 30
0.0
 10
-15.0149
 20
-4.6696
 30
0.0
 10
-15.0149
 20
-4.6696
 30
0.0
 10
-15.2218
 20
-4.6696
 30
0.0
 10
-15.3902
 20
-4.5939
 30
0.0
 10
-15.5205
 20
-4.4415
 30
0.0
 10
-15.5205
 20
-4.4415
 30
0.0
 10
-15.6513
 20
-4.2896
 30
0.0
 10
-15.7162
 20
-4.0389
 30
0.0
 10
-15.7162
 20
-3.6899
 30
0.0
 10
-15.7162
 20
-3.6899
 30
0.0
 10
-15.7162
 20
-3.2995
 30
0.0
 10
-15.6442
 20
-3.0158
 30
0.0
 10
-15.4998
 20
-2.8385
 30
0.0
 10
-15.4998
 20
-2.8385
 30
0.0
 10
-15.3742
 20
-2.6842
 30
0.0
 10
-15.2049
 20
-2.6066
 30
0.0
 10
-14.9914
 20
-2.6066
 30
0.0
 10
-14.9914
 20
-2.6066
 30
0.0
 10
-14.8328
 20
-2.6066
 30
0.0
 10
-14.7026
 20
-2.6513
 30
0.0
 10
-14.601
 20
-2.7407
 30
0.0
 10
-14.601
 20
-2.7407
 30
0.0
 10
-14.4994
 20
-2.8296
 30
0.0
 10
-14.4387
 20
-2.9528
 30
0.0
 10
-14.4185
 20
-3.1099
 30
0.0
  0
SPLINE
  5
136
330
1F
100
AcDbEntity
  8
DEFAULT_1
 62
   250
100
AcDbSpline
210
0.0
220
0.0
230
1.0
 70
    11
 71
     3
 72
    40
 73
    36
 74
     0
 42
0.0000000001
 43
0.0000000001
 40
0.0
 40
0.0
 40
0.0
 40
0.0
 40
0.1
 40
0.1
 40
0.1
 40
0.1
 40
0.2
 40
0.2
 40
0.2
 40
0.2
 40
0.3
 40
0.3
 40
0.3
 40
0.3
 40
0.4
 40
0.4
 40
0.4
 40
0.4
 40
0.5
 40
0.5
 40
0.5
 40
0.5
 40
0.6
 40
0.6
 40
0.6
 40
0.6
 40
0.7
 40
0.7
 40
0.7
 40
0.7
 40
0.8
 40
0.8
 40
0.8
 40
0.8
 40
1.0
 40
1.0
 40
1.0
 40
1.0
 10
-15.4312
 20
-3.9805
 30
0.0
 10
-15.4312
 20
-4.0662
 30
0.0
 10
-15.4128
 20
-4.148
 30
0.0
 10
-15.3766
 20
-4.2261
 30
0.0
 10
-15.3766
 20
-4.2261
 30
0.0
 10
-15.3404
 20
-4.3042
 30
0.0
 10
-15.2896
 20
-4.3634
 30
0.0
 10
-15.2247
 20
-4.4043
 30
0.0
 10
-15.2247
 20
-4.4043
 30
0.0
 10
-15.1593
 20
-4.4453
 30
0.0
 10
-15.0906
 20
-4.466
 30
0.0
 10
-15.0191
 20
-4.466
 30
0.0
 10
-15.0191
 20
-4.466
 30
0.0
 10
-14.9142
 20
-4.466
 30
0.0
 10
-14.8244
 20
-4.4236
 30
0.0
 10
-14.7491
 20
-4.339
 30
0.0
 10
-14.7491
 20
-4.339
 30
0.0
 10
-14.6739
 20
-4.2543
 30
0.0
 10
-14.6362
 20
-4.1395
 30
0.0
 10
-14.6362
 20
-3.9947
 30
0.0
 10
-14.6362
 20
-3.9947
 30
0.0
 10
-14.6362
 20
-3.855
 30
0.0
 10
-14.6734
 20
-3.7449
 30
0.0
 10
-14.7477
 20
-3.6645
 30
0.0
 10
-14.7477
 20
-3.6645
 30
0.0
 10
-14.822
 20
-3.584
 30
0.0
 10
-14.9156
 20
-3.544
 30
0.0
 10
-15.0285
 20
-3.544
 30
0.0
 10
-15.0285
 20
-3.544
 30
0.0
 10
-15.1409
 20
-3.544
 30
0.0
 10
-15.236
 20
-3.584
 30
0.0
 10
-15.314
 20
-3.6645
 30
0.0
 10
-15.314
 20
-3.6645
 30
0.0
 10
-15.3921
 20
-3.7449
 30
0.0
 10
-15.4312
 20
-3.8503
 30
0.0
 10
-15.4312
 20
-3.9805
 30
0.0
  0
SPLINE
  5
137
330
1F
100
AcDbEntity
  8
DEFAULT_1
 62
   250
100
AcDbSpline
210
0.0
220
0.0
230
1.0
 70
    11
 71
     3
 72
    52
 73
    48
 74
     0
 42
0.0000000001
 43
0.0000000001
 40
0.0
 40
0.0
 40
0.0
 40
0.0
 40
0.0769230769230769
 40
0.0769230769230769
 40
0.0769230769230769
 40
0.0769230769230769
 40
0.1538461538461539
 40
0.1538461538461539
 40
0.1538461538461539
 40
0.1538461538461539
 40
0.2307692307692308
 40
0.2307692307692308
 40
0.2307692307692308
 40
0.2307692307692308
 40
0.3076923076923077
 40
0.3076923076923077
 40
0.3076923076923077
 40
0.3076923076923077
 40
0.3846153846153846
 40
0.3846153846153846
 40
0.3846153846153846
 40
0.3846153846153846
 40
0.4615384615384616
 40
0.4615384615384616
 40
0.4615384615384616
 40
0.4615384615384616
 40
0.5384615384615384
 40
0.5384615384615384
 40
0.5384615384615384
 40
0.5384615384615384
 40
0.6153846153846154
 40
0.6153846153846154
 40
0.6153846153846154
 40
0.6153846153846154
 40
0.6923076923076923
 40
0.6923076923076923
 40
0.6923076923076923
 40
0.6923076923076923
 40
0.7692307692307693
 40
0.7692307692307693
 40
0.7692307692307693
 40
0.7692307692307693
 40
0.8461538461538461
 40
0.8461538461538461
 40
0.8461538461538461
 40
0.8461538461538461
 40
1.0
 40
1.0
 40
1.0
 40
1.0
 10
-14.1358
 20
-3.6391
 30
0.0
 10
-14.1358
 20
-3.4001
 30
0.0
 10
-14.1113
 20
-3.2077
 30
0.0
 10
-14.0619
 20
-3.0624
 30
0.0
 10
-14.0619
 20
-3.0624
 30
0.0
 10
-14.013
 20
-2.9166
 30
0.0
 10
-13.9396
 20
-2.8042
 30
0.0
 10
-13.8427
 20
-2.7251
 30
0.0
 10
-13.8427
 20
-2.7251
 30
0.0
 10
-13.7458
 20
-2.6461
 30
0.0
 10
-13.624
 20
-2.6066
 30
0.0
 10
-13.4773
 20
-2.6066
 30
0.0
 10
-13.4773
 20
-2.6066
 30
0.0
 10
-13.3686
 20
-2.6066
 30
0.0
 10
-13.2736
 20
-2.6287
 30
0.0
 10
-13.1918
 20
-2.6725
 30
0.0
 10
-13.1918
 20
-2.6725
 30
0.0
 10
-13.1099
 20
-2.7157
 30
0.0
 10
-13.0426
 20
-2.7788
 30
0.0
 10
-12.989
 20
-2.8611
 30
0.0
 10
-12.989
 20
-2.8611
 30
0.0
 10
-12.9359
 20
-2.9434
 30
0.0
 10
-12.894
 20
-3.0436
 30
0.0
 10
-12.8639
 20
-3.1616
 30
0.0
 10
-12.8639
 20
-3.1616
 30
0.0
 10
-12.8333
 20
-3.2797
 30
0.0
 10
-12.8183
 20
-3.4387
 30
0.0
 10
-12.8183
 20
-3.6391
 30
0.0
 10
-12.8183
 20
-3.6391
 30
0.0
 10
-12.8183
 20
-3.8761
 30
0.0
 10
-12.8427
 20
-4.0671
 30
0.0
 10
-12.8912
 20
-4.2129
 30
0.0
 10
-12.8912
 20
-4.2129
 30
0.0
 10
-12.9401
 20
-4.3587
 30
0.0
 10
-13.013
 20
-4.4711
 30
0.0
 10
-13.1099
 20
-4.5506
 30
0.0
 10
-13.1099
 20
-4.5506
 30
0.0
 10
-13.2068
 20
-4.6301
 30
0.0
 10
-13.3291
 20
-4.6696
 30
0.0
 10
-13.4773
 20
-4.6696
 30
0.0
 10
-13.4773
 20
-4.6696
 30
0.0
 10
-13.672
 20
-4.6696
 30
0.0
 10
-13.8249
 20
-4.6
 30
0.0
 10
-13.9359
 20
-4.4603
 30
0.0
 10
-13.9359
 20
-4.4603
 30
0.0
 10
-14.069
 20
-4.2924
 30
0.0
 10
-14.1358
 20
-4.0182
 30
0.0
 10
-14.1358
 20
-3.6391
 30
0.0
  0
SPLINE
  5
138
330
1F
100
AcDbEntity
  8
DEFAULT_1
 62
   250
100
AcDbSpline
210
0.0
220
0.0
230
1.0
 70
    11
 71
     3
 72
    36
 73
    32
 74
     0
 42
0.0000000001
 43
0.0000000001
 40
0.0
 40
0.0
 40
0.0
 40
0.0
 40
0.1111111111111111
 40
0.1111111111111111
 40
0.1111111111111111
 40
0.1111111111111111
 40
0.2222222222222222
 40
0.2222222222222222
 40
0.2222222222222222
 40
0.2222222222222222
 40
0.3333333333333333
 40
0.3333333333333333
 40
0.3333333333333333
 40
0.3333333333333333
 40
0.4444444444444444
 40
0.4444444444444444
 40
0.4444444444444444
 40
0.4444444444444444
 40
0.5555555555555556
 40
0.5555555555555556
 40
0.5555555555555556
 40
0.5555555555555556
 40
0.6666666666666666
 40
0.6666666666666666
 40
0.6666666666666666
 40
0.6666666666666666
 40
0.7777777777777778
 40
0.7777777777777778
 40
0.7777777777777778
 40
0.7777777777777778
 40
1.0
 40
1.0
 40
1.0
 40
1.0
 10
-13.8808
 20
-3.6391
 30
0.0
 10
-13.8808
 20
-3.9707
 30
0.0
 10
-13.8418
 20
-4.1913
 30
0.0
 10
-13.7642
 20
-4.3013
 30
0.0
 10
-13.7642
 20
-4.3013
 30
0.0
 10
-13.6866
 20
-4.4109
 30
0.0
 10
-13.5911
 20
-4.466
 30
0.0
 10
-13.4773
 20
-4.466
 30
0.0
 10
-13.4773
 20
-4.466
 30
0.0
 10
-13.363
 20
-4.466
 30
0.0
 10
-13.2675
 20
-4.4105
 30
0.0
 10
-13.1899
 20
-4.3004
 30
0.0
 10
-13.1899
 20
-4.3004
 30
0.0
 10
-13.1123
 20
-4.1903
 30
0.0
 10
-13.0732
 20
-3.9697
 30
0.0
 10
-13.0732
 20
-3.6391
 30
0.0
 10
-13.0732
 20
-3.6391
 30
0.0
 10
-13.0732
 20
-3.3065
 30
0.0
 10
-13.1123
 20
-3.0854
 30
0.0
 10
-13.1899
 20
-2.9763
 30
0.0
 10
-13.1899
 20
-2.9763
 30
0.0
 10
-13.2675
 20
-2.8667
 30
0.0
 10
-13.3639
 20
-2.8122
 30
0.0
 10
-13.4796
 20
-2.8122
 30
0.0
 10
-13.4796
 20
-2.8122
 30
0.0
 10
-13.5939
 20
-2.8122
 30
0.0
 10
-13.6847
 20
-2.8606
 30
0.0
 10
-13.7529
 20
-2.957
 30
0.0
 10
-13.7529
 20
-2.957
 30
0.0
 10
-13.838
 20
-3.0798
 30
0.0
 10
-13.8808
 20
-3.3075
 30
0.0
 10
-13.8808
 20
-3.6391
 30
0.0
  0
SPLINE
  5
139
330
1F
100
AcDbEntity
  8
DEFAULT_1
 62
   250
100
AcDbSpline
210
0.0
220
0.0
230
1.0
 70
    11
 71
     3
 72
    84
 73
    80
 74
     0
 42
0.0000000001
 43
0.0000000001
 40
0.0
 40
0.0
 40
0.0
 40
0.0
 40
0.0476190476190476
 40
0.0476190476190476
 40
0.0476190476190476
 40
0.0476190476190476
 40
0.0952380952380952
 40
0.0952380952380952
 40
0.0952380952380952
 40
0.0952380952380952
 40
0.1428571428571428
 40
0.1428571428571428
 40
0.1428571428571428
 40
0.1428571428571428
 40
0.1904761904761905
 40
0.1904761904761905
 40
0.1904761904761905
 40
0.1904761904761905
 40
0.2380952380952381
 40
0.2380952380952381
 40
0.2380952380952381
 40
0.2380952380952381
 40
0.2857142857142857
 40
0.2857142857142857
 40
0.2857142857142857
 40
0.2857142857142857
 40
0.3333333333333333
 40
0.3333333333333333
 40
0.3333333333333333
 40
0.3333333333333333
 40
0.3809523809523809
 40
0.3809523809523809
 40
0.3809523809523809
 40
0.3809523809523809
 40
0.4285714285714285
 40
0.4285714285714285
 40
0.4285714285714285
 40
0.4285714285714285
 40
0.4761904761904762
 40
0.4761904761904762
 40
0.4761904761904762
 40
0.4761904761904762
 40
0.5238095238095238
 40
0.5238095238095238
 40
0.5238095238095238
 40
0.5238095238095238
 40
0.5714285714285714
 40
0.5714285714285714
 40
0.5714285714285714
 40
0.5714285714285714
 40
0.6190476190476191
 40
0.6190476190476191
 40
0.6190476190476191
 40
0.6190476190476191
 40
0.6666666666666666
 40
0.6666666666666666
 40
0.6666666666666666
 40
0.6666666666666666
 40
0.7142857142857143
 40
0.7142857142857143
 40
0.7142857142857143
 40
0.7142857142857143
 40
0.7619047619047619
 40
0.7619047619047619
 40
0.7619047619047619
 40
0.7619047619047619
 40
0.8095238095238095
 40
0.8095238095238095
 40
0.8095238095238095
 40
0.8095238095238095
 40
0.8571428571428571
 40
0.8571428571428571
 40
0.8571428571428571
 40
0.8571428571428571
 40
0.9047619047619048
 40
0.9047619047619048
 40
0.9047619047619048
 40
0.9047619047619048
 40
1.0
 40
1.0
 40
1.0
 40
1.0
 10
13.0916
 20
-23.0893
 30
0.0
 10
13.0916
 20
-23.0893
 30
0.0
 10
12.8325
 20
-22.8579
 30
0.0
 10
12.8325
 20
-22.8579
 30
0.0
 10
12.8325
 20
-22.8579
 30
0.0
 10
12.8325
 20
-22.8579
 30
0.0
 10
12.9482
 20
-22.7215
 30
0.0
 10
12.9482
 20
-22.7215
 30
0.0
 10
12.9482
 20
-22.7215
 30
0.0
 10
12.9482
 20
-22.7215
 30
0.0
 10
13.221
 20
-22.9637
 30
0.0
 10
13.221
 20
-22.9637
 30
0.0
 10
13.221
 20
-22.9637
 30
0.0
 10
13.3386
 20
-22.8847
 30
0.0
 10
13.4416
 20
-22.8316
 30
0.0
 10
13.5295
 20
-22.8038
 30
0.0
 10
13.5295
 20
-22.8038
 30
0.0
 10
13.6453
 20
-22.7671
 30
0.0
 10
13.7751
 20
-22.7488
 30
0.0
 10
13.9181
 20
-22.7488
 30
0.0
 10
13.9181
 20
-22.7488
 30
0.0
 10
14.125
 20
-22.7488
 30
0.0
 10
14.3094
 20
-22.7906
 30
0.0
 10
14.4707
 20
-22.8744
 30
0.0
 10
14.4707
 20
-22.8744
 30
0.0
 10
14.6326
 20
-22.9581
 30
0.0
 10
14.7548
 20
-23.0752
 30
0.0
 10
14.8376
 20
-23.2262
 30
0.0
 10
14.8376
 20
-23.2262
 30
0.0
 10
14.9199
 20
-23.3777
 30
0.0
 10
14.9613
 20
-23.538
 30
0.0
 10
14.9613
 20
-23.7078
 30
0.0
 10
14.9613
 20
-23.7078
 30
0.0
 10
14.9613
 20
-23.8348
 30
0.0
 10
14.9435
 20
-23.9496
 30
0.0
 10
14.9077
 20
-24.0526
 30
0.0
 10
14.9077
 20
-24.0526
 30
0.0
 10
14.88
 20
-24.1316
 30
0.0
 10
14.8273
 20
-24.2238
 30
0.0
 10
14.7492
 20
-24.3297
 30
0.0
 10
14.7492
 20
-24.3297
 30
0.0
 10
14.7492
 20
-24.3297
 30
0.0
 10
15.0084
 20
-24.5611
 30
0.0
 10
15.0084
 20
-24.5611
 30
0.0
 10
15.0084
 20
-24.5611
 30
0.0
 10
15.0084
 20
-24.5611
 30
0.0
 10
14.8927
 20
-24.6975
 30
0.0
 10
14.8927
 20
-24.6975
 30
0.0
 10
14.8927
 20
-24.6975
 30
0.0
 10
14.8927
 20
-24.6975
 30
0.0
 10
14.6213
 20
-24.4548
 30
0.0
 10
14.6213
 20
-24.4548
 30
0.0
 10
14.6213
 20
-24.4548
 30
0.0
 10
14.4844
 20
-24.5451
 30
0.0
 10
14.3673
 20
-24.6053
 30
0.0
 10
14.2704
 20
-24.6354
 30
0.0
 10
14.2704
 20
-24.6354
 30
0.0
 10
14.1735
 20
-24.6655
 30
0.0
 10
14.0568
 20
-24.681
 30
0.0
 10
13.9209
 20
-24.681
 30
0.0
 10
13.9209
 20
-24.681
 30
0.0
 10
13.7135
 20
-24.681
 30
0.0
 10
13.5286
 20
-24.6396
 30
0.0
 10
13.3663
 20
-24.5569
 30
0.0
 10
13.3663
 20
-24.5569
 30
0.0
 10
13.204
 20
-24.4741
 30
0.0
 10
13.0813
 20
-24.3584
 30
0.0
 10
12.9976
 20
-24.2088
 30
0.0
 10
12.9976
 20
-24.2088
 30
0.0
 10
12.9143
 20
-24.0597
 30
0.0
 10
12.8724
 20
-23.8936
 30
0.0
 10
12.8724
 20
-23.7107
 30
0.0
 10
12.8724
 20
-23.7107
 30
0.0
 10
12.8724
 20
-23.5874
 30
0.0
 10
12.8884
 20
-23.4797
 30
0.0
 10
12.9214
 20
-23.3875
 30
0.0
 10
12.9214
 20
-23.3875
 30
0.0
 10
12.9538
 20
-23.2953
 30
0.0
 10
13.0107
 20
-23.1956
 30
0.0
 10
13.0916
 20
-23.0893
 30
0.0
  0
SPLINE
  5
13A
330
1F
100
AcDbEntity
  8
DEFAULT_1
 62
   250
100
AcDbSpline
210
0.0
220
0.0
230
1.0
 70
    11
 71
     3
 72
    32
 73
    28
 74
     0
 42
0.0000000001
 43
0.0000000001
 40
0.0
 40
0.0
 40
0.0
 40
0.0
 40
0.125
 40
0.125
 40
0.125
 40
0.125
 40
0.25
 40
0.25
 40
0.25
 40
0.25
 40
0.375
 40
0.375
 40
0.375
 40
0.375
 40
0.5
 40
0.5
 40
0.5
 40
0.5
 40
0.625
 40
0.625
 40
0.625
 40
0.625
 40
0.75
 40
0.75
 40
0.75
 40
0.75
 40
1.0
 40
1.0
 40
1.0
 40
1.0
 10
13.2774
 20
-23.2544
 30
0.0
 10
13.2097
 20
-23.341
 30
0.0
 10
13.1631
 20
-23.4167
 30
0.0
 10
13.1382
 20
-23.4811
 30
0.0
 10
13.1382
 20
-23.4811
 30
0.0
 10
13.1137
 20
-23.546
 30
0.0
 10
13.101
 20
-23.6222
 30
0.0
 10
13.101
 20
-23.7093
 30
0.0
 10
13.101
 20
-23.7093
 30
0.0
 10
13.101
 20
-23.9106
 30
0.0
 10
13.1692
 20
-24.0766
 30
0.0
 10
13.3056
 20
-24.2083
 30
0.0
 10
13.3056
 20
-24.2083
 30
0.0
 10
13.4421
 20
-24.3396
 30
0.0
 10
13.6457
 20
-24.4054
 30
0.0
 10
13.9171
 20
-24.4054
 30
0.0
 10
13.9171
 20
-24.4054
 30
0.0
 10
14.0234
 20
-24.4054
 30
0.0
 10
14.118
 20
-24.3951
 30
0.0
 10
14.2008
 20
-24.3748
 30
0.0
 10
14.2008
 20
-24.3748
 30
0.0
 10
14.2624
 20
-24.3602
 30
0.0
 10
14.3381
 20
-24.3297
 30
0.0
 10
14.4279
 20
-24.2826
 30
0.0
 10
14.4279
 20
-24.2826
 30
0.0
 10
14.4279
 20
-24.2826
 30
0.0
 10
13.2774
 20
-23.2544
 30
0.0
 10
13.2774
 20
-23.2544
 30
0.0
  0
SPLINE
  5
13B
330
1F
100
AcDbEntity
  8
DEFAULT_1
 62
   250
100
AcDbSpline
210
0.0
220
0.0
230
1.0
 70
    11
 71
     3
 72
    28
 73
    24
 74
     0
 42
0.0000000001
 43
0.0000000001
 40
0.0
 40
0.0
 40
0.0
 40
0.0
 40
0.1428571428571428
 40
0.1428571428571428
 40
0.1428571428571428
 40
0.1428571428571428
 40
0.2857142857142857
 40
0.2857142857142857
 40
0.2857142857142857
 40
0.2857142857142857
 40
0.4285714285714285
 40
0.4285714285714285
 40
0.4285714285714285
 40
0.4285714285714285
 40
0.5714285714285714
 40
0.5714285714285714
 40
0.5714285714285714
 40
0.5714285714285714
 40
0.7142857142857143
 40
0.7142857142857143
 40
0.7142857142857143
 40
0.7142857142857143
 40
1.0
 40
1.0
 40
1.0
 40
1.0
 10
13.4195
 20
-23.1415
 30
0.0
 10
13.4195
 20
-23.1415
 30
0.0
 10
14.5658
 20
-24.1655
 30
0.0
 10
14.5658
 20
-24.1655
 30
0.0
 10
14.5658
 20
-24.1655
 30
0.0
 10
14.6236
 20
-24.095
 30
0.0
 10
14.6641
 20
-24.0296
 30
0.0
 10
14.6871
 20
-23.9698
 30
0.0
 10
14.6871
 20
-23.9698
 30
0.0
 10
14.7177
 20
-23.8918
 30
0.0
 10
14.7327
 20
-23.8071
 30
0.0
 10
14.7327
 20
-23.7163
 30
0.0
 10
14.7327
 20
-23.7163
 30
0.0
 10
14.7327
 20
-23.5159
 30
0.0
 10
14.6622
 20
-23.3508
 30
0.0
 10
14.5206
 20
-23.2201
 30
0.0
 10
14.5206
 20
-23.2201
 30
0.0
 10
14.379
 20
-23.0898
 30
0.0
 10
14.1805
 20
-23.0244
 30
0.0
 10
13.9251
 20
-23.0244
 30
0.0
 10
13.9251
 20
-23.0244
 30
0.0
 10
13.7342
 20
-23.0244
 30
0.0
 10
13.5653
 20
-23.0634
 30
0.0
 10
13.4195
 20
-23.1415
 30
0.0
  0
SPLINE
  5
13C
330
1F
100
AcDbEntity
  8
DEFAULT_1
 62
   250
100
AcDbSpline
210
0.0
220
0.0
230
1.0
 70
    11
 71
     3
 72
    92
 73
    88
 74
     0
 42
0.0000000001
 43
0.0000000001
 40
0.0
 40
0.0
 40
0.0
 40
0.0
 40
0.0434782608695652
 40
0.0434782608695652
 40
0.0434782608695652
 40
0.0434782608695652
 40
0.0869565217391304
 40
0.0869565217391304
 40
0.0869565217391304
 40
0.0869565217391304
 40
0.1304347826086956
 40
0.1304347826086956
 40
0.1304347826086956
 40
0.1304347826086956
 40
0.1739130434782609
 40
0.1739130434782609
 40
0.1739130434782609
 40
0.1739130434782609
 40
0.2173913043478261
 40
0.2173913043478261
 40
0.2173913043478261
 40
0.2173913043478261
 40
0.2608695652173913
 40
0.2608695652173913
 40
0.2608695652173913
 40
0.2608695652173913
 40
0.3043478260869565
 40
0.3043478260869565
 40
0.3043478260869565
 40
0.3043478260869565
 40
0.3478260869565217
 40
0.3478260869565217
 40
0.3478260869565217
 40
0.3478260869565217
 40
0.391304347826087
 40
0.391304347826087
 40
0.391304347826087
 40
0.391304347826087
 40
0.4347826086956522
 40
0.4347826086956522
 40
0.4347826086956522
 40
0.4347826086956522
 40
0.4782608695652174
 40
0.4782608695652174
 40
0.4782608695652174
 40
0.4782608695652174
 40
0.5217391304347826
 40
0.5217391304347826
 40
0.5217391304347826
 40
0.5217391304347826
 40
0.5652173913043478
 40
0.5652173913043478
 40
0.5652173913043478
 40
0.5652173913043478
 40
0.6086956521739131
 40
0.6086956521739131
 40
0.6086956521739131
 40
0.6086956521739131
 40
0.6521739130434783
 40
0.6521739130434783
 40
0.6521739130434783
 40
0.6521739130434783
 40
0.6956521739130435
 40
0.6956521739130435
 40
0.6956521739130435
 40
0.6956521739130435
 40
0.7391304347826086
 40
0.7391304347826086
 40
0.7391304347826086
 40
0.7391304347826086
 40
0.782608695652174
 40
0.782608695652174
 40
0.782608695652174
 40
0.782608695652174
 40
0.8260869565217391
 40
0.8260869565217391
 40
0.8260869565217391
 40
0.8260869565217391
 40
0.8695652173913043
 40
0.8695652173913043
 40
0.8695652173913043
 40
0.8695652173913043
 40
0.9130434782608695
 40
0.9130434782608695
 40
0.9130434782608695
 40
0.9130434782608695
 40
1.0
 40
1.0
 40
1.0
 40
1.0
 10
14.3978
 20
-22.4995
 30
0.0
 10
14.3978
 20
-22.4995
 30
0.0
 10
14.3757
 20
-22.2389
 30
0.0
 10
14.3757
 20
-22.2389
 30
0.0
 10
14.3757
 20
-22.2389
 30
0.0
 10
14.5027
 20
-22.2196
 30
0.0
 10
14.5977
 20
-22.1749
 30
0.0
 10
14.6617
 20
-22.1048
 30
0.0
 10
14.6617
 20
-22.1048
 30
0.0
 10
14.7257
 20
-22.0343
 30
0.0
 10
14.7577
 20
-21.9496
 30
0.0
 10
14.7577
 20
-21.8504
 30
0.0
 10
14.7577
 20
-21.8504
 30
0.0
 10
14.7577
 20
-21.7309
 30
0.0
 10
14.7125
 20
-21.6298
 30
0.0
 10
14.6227
 20
-21.5475
 30
0.0
 10
14.6227
 20
-21.5475
 30
0.0
 10
14.5324
 20
-21.4647
 30
0.0
 10
14.4129
 20
-21.4233
 30
0.0
 10
14.2643
 20
-21.4233
 30
0.0
 10
14.2643
 20
-21.4233
 30
0.0
 10
14.1227
 20
-21.4233
 30
0.0
 10
14.0112
 20
-21.4628
 30
0.0
 10
13.9294
 20
-21.5423
 30
0.0
 10
13.9294
 20
-21.5423
 30
0.0
 10
13.8475
 20
-21.6218
 30
0.0
 10
13.8066
 20
-21.7257
 30
0.0
 10
13.8066
 20
-21.8546
 30
0.0
 10
13.8066
 20
-21.8546
 30
0.0
 10
13.8066
 20
-21.9346
 30
0.0
 10
13.8249
 20
-22.0065
 30
0.0
 10
13.8611
 20
-22.071
 30
0.0
 10
13.8611
 20
-22.071
 30
0.0
 10
13.8974
 20
-22.1354
 30
0.0
 10
13.9444
 20
-22.1857
 30
0.0
 10
14.0023
 20
-22.2224
 30
0.0
 10
14.0023
 20
-22.2224
 30
0.0
 10
14.0023
 20
-22.2224
 30
0.0
 10
13.9722
 20
-22.4553
 30
0.0
 10
13.9722
 20
-22.4553
 30
0.0
 10
13.9722
 20
-22.4553
 30
0.0
 10
13.9722
 20
-22.4553
 30
0.0
 10
12.9345
 20
-22.2596
 30
0.0
 10
12.9345
 20
-22.2596
 30
0.0
 10
12.9345
 20
-22.2596
 30
0.0
 10
12.9345
 20
-22.2596
 30
0.0
 10
12.9345
 20
-21.2549
 30
0.0
 10
12.9345
 20
-21.2549
 30
0.0
 10
12.9345
 20
-21.2549
 30
0.0
 10
12.9345
 20
-21.2549
 30
0.0
 10
13.1716
 20
-21.2549
 30
0.0
 10
13.1716
 20
-21.2549
 30
0.0
 10
13.1716
 20
-21.2549
 30
0.0
 10
13.1716
 20
-21.2549
 30
0.0
 10
13.1716
 20
-22.0611
 30
0.0
 10
13.1716
 20
-22.0611
 30
0.0
 10
13.1716
 20
-22.0611
 30
0.0
 10
13.1716
 20
-22.0611
 30
0.0
 10
13.7144
 20
-22.1702
 30
0.0
 10
13.7144
 20
-22.1702
 30
0.0
 10
13.7144
 20
-22.1702
 30
0.0
 10
13.6297
 20
-22.0489
 30
0.0
 10
13.5874
 20
-21.9214
 30
0.0
 10
13.5874
 20
-21.7883
 30
0.0
 10
13.5874
 20
-21.7883
 30
0.0
 10
13.5874
 20
-21.6119
 30
0.0
 10
13.6485
 20
-21.4633
 30
0.0
 10
13.7708
 20
-21.3419
 30
0.0
 10
13.7708
 20
-21.3419
 30
0.0
 10
13.8931
 20
-21.2206
 30
0.0
 10
14.0502
 20
-21.1599
 30
0.0
 10
14.2421
 20
-21.1599
 30
0.0
 10
14.2421
 20
-21.1599
 30
0.0
 10
14.4251
 20
-21.1599
 30
0.0
 10
14.5832
 20
-21.2135
 30
0.0
 10
14.7163
 20
-21.3198
 30
0.0
 10
14.7163
 20
-21.3198
 30
0.0
 10
14.8795
 20
-21.4496
 30
0.0
 10
14.9613
 20
-21.6265
 30
0.0
 10
14.9613
 20
-21.8504
 30
0.0
 10
14.9613
 20
-21.8504
 30
0.0
 10
14.9613
 20
-22.0343
 30
0.0
 10
14.9101
 20
-22.1843
 30
0.0
 10
14.8071
 20
-22.3005
 30
0.0
 10
14.8071
 20
-22.3005
 30
0.0
 10
14.704
 20
-22.4167
 30
0.0
 10
14.5676
 20
-22.483
 30
0.0
 10
14.3978
 20
-22.4995
 30
0.0
  0
SPLINE
  5
13D
330
1F
100
AcDbEntity
  8
DEFAULT_1
 62
   250
100
AcDbSpline
210
0.0
220
0.0
230
1.0
 70
    11
 71
     3
 72
    52
 73
    48
 74
     0
 42
0.0000000001
 43
0.0000000001
 40
0.0
 40
0.0
 40
0.0
 40
0.0
 40
0.0769230769230769
 40
0.0769230769230769
 40
0.0769230769230769
 40
0.0769230769230769
 40
0.1538461538461539
 40
0.1538461538461539
 40
0.1538461538461539
 40
0.1538461538461539
 40
0.2307692307692308
 40
0.2307692307692308
 40
0.2307692307692308
 40
0.2307692307692308
 40
0.3076923076923077
 40
0.3076923076923077
 40
0.3076923076923077
 40
0.3076923076923077
 40
0.3846153846153846
 40
0.3846153846153846
 40
0.3846153846153846
 40
0.3846153846153846
 40
0.4615384615384616
 40
0.4615384615384616
 40
0.4615384615384616
 40
0.4615384615384616
 40
0.5384615384615384
 40
0.5384615384615384
 40
0.5384615384615384
 40
0.5384615384615384
 40
0.6153846153846154
 40
0.6153846153846154
 40
0.6153846153846154
 40
0.6153846153846154
 40
0.6923076923076923
 40
0.6923076923076923
 40
0.6923076923076923
 40
0.6923076923076923
 40
0.7692307692307693
 40
0.7692307692307693
 40
0.7692307692307693
 40
0.7692307692307693
 40
0.8461538461538461
 40
0.8461538461538461
 40
0.8461538461538461
 40
0.8461538461538461
 40
1.0
 40
1.0
 40
1.0
 40
1.0
 10
13.9308
 20
-20.9299
 30
0.0
 10
13.6918
 20
-20.9299
 30
0.0
 10
13.4994
 20
-20.9054
 30
0.0
 10
13.3541
 20
-20.856
 30
0.0
 10
13.3541
 20
-20.856
 30
0.0
 10
13.2083
 20
-20.8071
 30
0.0
 10
13.0959
 20
-20.7337
 30
0.0
 10
13.0168
 20
-20.6368
 30
0.0
 10
13.0168
 20
-20.6368
 30
0.0
 10
12.9378
 20
-20.5399
 30
0.0
 10
12.8983
 20
-20.4181
 30
0.0
 10
12.8983
 20
-20.2714
 30
0.0
 10
12.8983
 20
-20.2714
 30
0.0
 10
12.8983
 20
-20.1627
 30
0.0
 10
12.9204
 20
-20.0677
 30
0.0
 10
12.9642
 20
-19.9859
 30
0.0
 10
12.9642
 20
-19.9859
 30
0.0
 10
13.0074
 20
-19.904
 30
0.0
 10
13.0705
 20
-19.8367
 30
0.0
 10
13.1528
 20
-19.7831
 30
0.0
 10
13.1528
 20
-19.7831
 30
0.0
 10
13.2351
 20
-19.73
 30
0.0
 10
13.3353
 20
-19.6881
 30
0.0
 10
13.4533
 20
-19.658
 30
0.0
 10
13.4533
 20
-19.658
 30
0.0
 10
13.5714
 20
-19.6274
 30
0.0
 10
13.7304
 20
-19.6124
 30
0.0
 10
13.9308
 20
-19.6124
 30
0.0
 10
13.9308
 20
-19.6124
 30
0.0
 10
14.1678
 20
-19.6124
 30
0.0
 10
14.3588
 20
-19.6368
 30
0.0
 10
14.5046
 20
-19.6853
 30
0.0
 10
14.5046
 20
-19.6853
 30
0.0
 10
14.6504
 20
-19.7342
 30
0.0
 10
14.7628
 20
-19.8071
 30
0.0
 10
14.8423
 20
-19.904
 30
0.0
 10
14.8423
 20
-19.904
 30
0.0
 10
14.9218
 20
-20.0009
 30
0.0
 10
14.9613
 20
-20.1232
 30
0.0
 10
14.9613
 20
-20.2714
 30
0.0
 10
14.9613
 20
-20.2714
 30
0.0
 10
14.9613
 20
-20.4661
 30
0.0
 10
14.8917
 20
-20.619
 30
0.0
 10
14.752
 20
-20.73
 30
0.0
 10
14.752
 20
-20.73
 30
0.0
 10
14.5841
 20
-20.8631
 30
0.0
 10
14.3099
 20
-20.9299
 30
0.0
 10
13.9308
 20
-20.9299
 30
0.0
  0
SPLINE
  5
13E
330
1F
100
AcDbEntity
  8
DEFAULT_1
 62
   250
100
AcDbSpline
210
0.0
220
0.0
230
1.0
 70
    11
 71
     3
 72
    36
 73
    32
 74
     0
 42
0.0000000001
 43
0.0000000001
 40
0.0
 40
0.0
 40
0.0
 40
0.0
 40
0.1111111111111111
 40
0.1111111111111111
 40
0.1111111111111111
 40
0.1111111111111111
 40
0.2222222222222222
 40
0.2222222222222222
 40
0.2222222222222222
 40
0.2222222222222222
 40
0.3333333333333333
 40
0.3333333333333333
 40
0.3333333333333333
 40
0.3333333333333333
 40
0.4444444444444444
 40
0.4444444444444444
 40
0.4444444444444444
 40
0.4444444444444444
 40
0.5555555555555556
 40
0.5555555555555556
 40
0.5555555555555556
 40
0.5555555555555556
 40
0.6666666666666666
 40
0.6666666666666666
 40
0.6666666666666666
 40
0.6666666666666666
 40
0.7777777777777778
 40
0.7777777777777778
 40
0.7777777777777778
 40
0.7777777777777778
 40
1.0
 40
1.0
 40
1.0
 40
1.0
 10
13.9308
 20
-20.6749
 30
0.0
 10
14.2624
 20
-20.6749
 30
0.0
 10
14.483
 20
-20.6359
 30
0.0
 10
14.593
 20
-20.5583
 30
0.0
 10
14.593
 20
-20.5583
 30
0.0
 10
14.7026
 20
-20.4807
 30
0.0
 10
14.7577
 20
-20.3852
 30
0.0
 10
14.7577
 20
-20.2714
 30
0.0
 10
14.7577
 20
-20.2714
 30
0.0
 10
14.7577
 20
-20.1571
 30
0.0
 10
14.7022
 20
-20.0616
 30
0.0
 10
14.5921
 20
-19.984
 30
0.0
 10
14.5921
 20
-19.984
 30
0.0
 10
14.482
 20
-19.9064
 30
0.0
 10
14.2614
 20
-19.8673
 30
0.0
 10
13.9308
 20
-19.8673
 30
0.0
 10
13.9308
 20
-19.8673
 30
0.0
 10
13.5982
 20
-19.8673
 30
0.0
 10
13.3771
 20
-19.9064
 30
0.0
 10
13.268
 20
-19.984
 30
0.0
 10
13.268
 20
-19.984
 30
0.0
 10
13.1584
 20
-20.0616
 30
0.0
 10
13.1039
 20
-20.158
 30
0.0
 10
13.1039
 20
-20.2737
 30
0.0
 10
13.1039
 20
-20.2737
 30
0.0
 10
13.1039
 20
-20.388
 30
0.0
 10
13.1523
 20
-20.4788
 30
0.0
 10
13.2487
 20
-20.547
 30
0.0
 10
13.2487
 20
-20.547
 30
0.0
 10
13.3715
 20
-20.6321
 30
0.0
 10
13.5992
 20
-20.6749
 30
0.0
 10
13.9308
 20
-20.6749
 30
0.0
  0
SPLINE
  5
13F
330
1F
100
AcDbEntity
  8
DEFAULT_1
 62
   250
100
AcDbSpline
210
0.0
220
0.0
230
1.0
 70
    11
 71
     3
 72
    84
 73
    80
 74
     0
 42
0.0000000001
 43
0.0000000001
 40
0.0
 40
0.0
 40
0.0
 40
0.0
 40
0.0476190476190476
 40
0.0476190476190476
 40
0.0476190476190476
 40
0.0476190476190476
 40
0.0952380952380952
 40
0.0952380952380952
 40
0.0952380952380952
 40
0.0952380952380952
 40
0.1428571428571428
 40
0.1428571428571428
 40
0.1428571428571428
 40
0.1428571428571428
 40
0.1904761904761905
 40
0.1904761904761905
 40
0.1904761904761905
 40
0.1904761904761905
 40
0.2380952380952381
 40
0.2380952380952381
 40
0.2380952380952381
 40
0.2380952380952381
 40
0.2857142857142857
 40
0.2857142857142857
 40
0.2857142857142857
 40
0.2857142857142857
 40
0.3333333333333333
 40
0.3333333333333333
 40
0.3333333333333333
 40
0.3333333333333333
 40
0.3809523809523809
 40
0.3809523809523809
 40
0.3809523809523809
 40
0.3809523809523809
 40
0.4285714285714285
 40
0.4285714285714285
 40
0.4285714285714285
 40
0.4285714285714285
 40
0.4761904761904762
 40
0.4761904761904762
 40
0.4761904761904762
 40
0.4761904761904762
 40
0.5238095238095238
 40
0.5238095238095238
 40
0.5238095238095238
 40
0.5238095238095238
 40
0.5714285714285714
 40
0.5714285714285714
 40
0.5714285714285714
 40
0.5714285714285714
 40
0.6190476190476191
 40
0.6190476190476191
 40
0.6190476190476191
 40
0.6190476190476191
 40
0.6666666666666666
 40
0.6666666666666666
 40
0.6666666666666666
 40
0.6666666666666666
 40
0.7142857142857143
 40
0.7142857142857143
 40
0.7142857142857143
 40
0.7142857142857143
 40
0.7619047619047619
 40
0.7619047619047619
 40
0.7619047619047619
 40
0.7619047619047619
 40
0.8095238095238095
 40
0.8095238095238095
 40
0.8095238095238095
 40
0.8095238095238095
 40
0.8571428571428571
 40
0.8571428571428571
 40
0.8571428571428571
 40
0.8571428571428571
 40
0.9047619047619048
 40
0.9047619047619048
 40
0.9047619047619048
 40
0.9047619047619048
 40
1.0
 40
1.0
 40
1.0
 40
1.0
 10
-20.9052
 20
7.5882
 30
0.0
 10
-20.9052
 20
7.5882
 30
0.0
 10
-20.6738
 20
7.8473
 30
0.0
 10
-20.6738
 20
7.8473
 30
0.0
 10
-20.6738
 20
7.8473
 30
0.0
 10
-20.6738
 20
7.8473
 30
0.0
 10
-20.5374
 20
7.7316
 30
0.0
 10
-20.5374
 20
7.7316
 30
0.0
 10
-20.5374
 20
7.7316
 30
0.0
 10
-20.5374
 20
7.7316
 30
0.0
 10
-20.7796
 20
7.4588
 30
0.0
 10
-20.7796
 20
7.4588
 30
0.0
 10
-20.7796
 20
7.4588
 30
0.0
 10
-20.7006
 20
7.3412
 30
0.0
 10
-20.6475
 20
7.2382
 30
0.0
 10
-20.6197
 20
7.1503
 30
0.0
 10
-20.6197
 20
7.1503
 30
0.0
 10
-20.583
 20
7.0345
 30
0.0
 10
-20.5647
 20
6.9047
 30
0.0
 10
-20.5647
 20
6.7617
 30
0.0
 10
-20.5647
 20
6.7617
 30
0.0
 10
-20.5647
 20
6.5548
 30
0.0
 10
-20.6065
 20
6.3704
 30
0.0
 10
-20.6903
 20
6.2091
 30
0.0
 10
-20.6903
 20
6.2091
 30
0.0
 10
-20.774
 20
6.0472
 30
0.0
 10
-20.8911
 20
5.925
 30
0.0
 10
-21.0421
 20
5.8422
 30
0.0
 10
-21.0421
 20
5.8422
 30
0.0
 10
-21.1936
 20
5.7599
 30
0.0
 10
-21.3539
 20
5.7185
 30
0.0
 10
-21.5237
 20
5.7185
 30
0.0
 10
-21.5237
 20
5.7185
 30
0.0
 10
-21.6507
 20
5.7185
 30
0.0
 10
-21.7655
 20
5.7363
 30
0.0
 10
-21.8685
 20
5.7721
 30
0.0
 10
-21.8685
 20
5.7721
 30
0.0
 10
-21.9475
 20
5.7998
 30
0.0
 10
-22.0397
 20
5.8525
 30
0.0
 10
-22.1456
 20
5.9306
 30
0.0
 10
-22.1456
 20
5.9306
 30
0.0
 10
-22.1456
 20
5.9306
 30
0.0
 10
-22.377
 20
5.6714
 30
0.0
 10
-22.377
 20
5.6714
 30
0.0
 10
-22.377
 20
5.6714
 30
0.0
 10
-22.377
 20
5.6714
 30
0.0
 10
-22.5134
 20
5.7871
 30
0.0
 10
-22.5134
 20
5.7871
 30
0.0
 10
-22.5134
 20
5.7871
 30
0.0
 10
-22.5134
 20
5.7871
 30
0.0
 10
-22.2707
 20
6.0585
 30
0.0
 10
-22.2707
 20
6.0585
 30
0.0
 10
-22.2707
 20
6.0585
 30
0.0
 10
-22.361
 20
6.1954
 30
0.0
 10
-22.4212
 20
6.3125
 30
0.0
 10
-22.4513
 20
6.4094
 30
0.0
 10
-22.4513
 20
6.4094
 30
0.0
 10
-22.4814
 20
6.5063
 30
0.0
 10
-22.4969
 20
6.623
 30
0.0
 10
-22.4969
 20
6.7589
 30
0.0
 10
-22.4969
 20
6.7589
 30
0.0
 10
-22.4969
 20
6.9663
 30
0.0
 10
-22.4555
 20
7.1512
 30
0.0
 10
-22.3728
 20
7.3135
 30
0.0
 10
-22.3728
 20
7.3135
 30
0.0
 10
-22.29
 20
7.4758
 30
0.0
 10
-22.1743
 20
7.5985
 30
0.0
 10
-22.0247
 20
7.6822
 30
0.0
 10
-22.0247
 20
7.6822
 30
0.0
 10
-21.8756
 20
7.7655
 30
0.0
 10
-21.7095
 20
7.8074
 30
0.0
 10
-21.5266
 20
7.8074
 30
0.0
 10
-21.5266
 20
7.8074
 30
0.0
 10
-21.4033
 20
7.8074
 30
0.0
 10
-21.2956
 20
7.7914
 30
0.0
 10
-21.2034
 20
7.7584
 30
0.0
 10
-21.2034
 20
7.7584
 30
0.0
 10
-21.1112
 20
7.726
 30
0.0
 10
-21.0115
 20
7.6691
 30
0.0
 10
-20.9052
 20
7.5882
 30
0.0
  0
SPLINE
  5
140
330
1F
100
AcDbEntity
  8
DEFAULT_1
 62
   250
100
AcDbSpline
210
0.0
220
0.0
230
1.0
 70
    11
 71
     3
 72
    32
 73
    28
 74
     0
 42
0.0000000001
 43
0.0000000001
 40
0.0
 40
0.0
 40
0.0
 40
0.0
 40
0.125
 40
0.125
 40
0.125
 40
0.125
 40
0.25
 40
0.25
 40
0.25
 40
0.25
 40
0.375
 40
0.375
 40
0.375
 40
0.375
 40
0.5
 40
0.5
 40
0.5
 40
0.5
 40
0.625
 40
0.625
 40
0.625
 40
0.625
 40
0.75
 40
0.75
 40
0.75
 40
0.75
 40
1.0
 40
1.0
 40
1.0
 40
1.0
 10
-21.0703
 20
7.4024
 30
0.0
 10
-21.1569
 20
7.4701
 30
0.0
 10
-21.2326
 20
7.5167
 30
0.0
 10
-21.297
 20
7.5416
 30
0.0
 10
-21.297
 20
7.5416
 30
0.0
 10
-21.3619
 20
7.5661
 30
0.0
 10
-21.4381
 20
7.5788
 30
0.0
 10
-21.5252
 20
7.5788
 30
0.0
 10
-21.5252
 20
7.5788
 30
0.0
 10
-21.7265
 20
7.5788
 30
0.0
 10
-21.8925
 20
7.5106
 30
0.0
 10
-22.0242
 20
7.3742
 30
0.0
 10
-22.0242
 20
7.3742
 30
0.0
 10
-22.1555
 20
7.2377
 30
0.0
 10
-22.2213
 20
7.0341
 30
0.0
 10
-22.2213
 20
6.7627
 30
0.0
 10
-22.2213
 20
6.7627
 30
0.0
 10
-22.2213
 20
6.6564
 30
0.0
 10
-22.211
 20
6.5618
 30
0.0
 10
-22.1907
 20
6.479
 30
0.0
 10
-22.1907
 20
6.479
 30
0.0
 10
-22.1761
 20
6.4174
 30
0.0
 10
-22.1456
 20
6.3417
 30
0.0
 10
-22.0985
 20
6.2519
 30
0.0
 10
-22.0985
 20
6.2519
 30
0.0
 10
-22.0985
 20
6.2519
 30
0.0
 10
-21.0703
 20
7.4024
 30
0.0
 10
-21.0703
 20
7.4024
 30
0.0
  0
SPLINE
  5
141
330
1F
100
AcDbEntity
  8
DEFAULT_1
 62
   250
100
AcDbSpline
210
0.0
220
0.0
230
1.0
 70
    11
 71
     3
 72
    28
 73
    24
 74
     0
 42
0.0000000001
 43
0.0000000001
 40
0.0
 40
0.0
 40
0.0
 40
0.0
 40
0.1428571428571428
 40
0.1428571428571428
 40
0.1428571428571428
 40
0.1428571428571428
 40
0.2857142857142857
 40
0.2857142857142857
 40
0.2857142857142857
 40
0.2857142857142857
 40
0.4285714285714285
 40
0.4285714285714285
 40
0.4285714285714285
 40
0.4285714285714285
 40
0.5714285714285714
 40
0.5714285714285714
 40
0.5714285714285714
 40
0.5714285714285714
 40
0.7142857142857143
 40
0.7142857142857143
 40
0.7142857142857143
 40
0.7142857142857143
 40
1.0
 40
1.0
 40
1.0
 40
1.0
 10
-20.9574
 20
7.2603
 30
0.0
 10
-20.9574
 20
7.2603
 30
0.0
 10
-21.9814
 20
6.114
 30
0.0
 10
-21.9814
 20
6.114
 30
0.0
 10
-21.9814
 20
6.114
 30
0.0
 10
-21.9109
 20
6.0562
 30
0.0
 10
-21.8455
 20
6.0157
 30
0.0
 10
-21.7857
 20
5.9927
 30
0.0
 10
-21.7857
 20
5.9927
 30
0.0
 10
-21.7077
 20
5.9621
 30
0.0
 10
-21.623
 20
5.9471
 30
0.0
 10
-21.5322
 20
5.9471
 30
0.0
 10
-21.5322
 20
5.9471
 30
0.0
 10
-21.3318
 20
5.9471
 30
0.0
 10
-21.1667
 20
6.0176
 30
0.0
 10
-21.036
 20
6.1592
 30
0.0
 10
-21.036
 20
6.1592
 30
0.0
 10
-20.9057
 20
6.3008
 30
0.0
 10
-20.8403
 20
6.4993
 30
0.0
 10
-20.8403
 20
6.7547
 30
0.0
 10
-20.8403
 20
6.7547
 30
0.0
 10
-20.8403
 20
6.9456
 30
0.0
 10
-20.8793
 20
7.1145
 30
0.0
 10
-20.9574
 20
7.2603
 30
0.0
  0
SPLINE
  5
142
330
1F
100
AcDbEntity
  8
DEFAULT_1
 62
   250
100
AcDbSpline
210
0.0
220
0.0
230
1.0
 70
    11
 71
     3
 72
    48
 73
    44
 74
     0
 42
0.0000000001
 43
0.0000000001
 40
0.0
 40
0.0
 40
0.0
 40
0.0
 40
0.0833333333333333
 40
0.0833333333333333
 40
0.0833333333333333
 40
0.0833333333333333
 40
0.1666666666666667
 40
0.1666666666666667
 40
0.1666666666666667
 40
0.1666666666666667
 40
0.25
 40
0.25
 40
0.25
 40
0.25
 40
0.3333333333333333
 40
0.3333333333333333
 40
0.3333333333333333
 40
0.3333333333333333
 40
0.4166666666666667
 40
0.4166666666666667
 40
0.4166666666666667
 40
0.4166666666666667
 40
0.5
 40
0.5
 40
0.5
 40
0.5
 40
0.5833333333333334
 40
0.5833333333333334
 40
0.5833333333333334
 40
0.5833333333333334
 40
0.6666666666666666
 40
0.6666666666666666
 40
0.6666666666666666
 40
0.6666666666666666
 40
0.75
 40
0.75
 40
0.75
 40
0.75
 40
0.8333333333333334
 40
0.8333333333333334
 40
0.8333333333333334
 40
0.8333333333333334
 40
1.0
 40
1.0
 40
1.0
 40
1.0
 10
-19.5205
 20
5.7528
 30
0.0
 10
-19.5205
 20
5.7528
 30
0.0
 10
-19.5205
 20
6.2363
 30
0.0
 10
-19.5205
 20
6.2363
 30
0.0
 10
-19.5205
 20
6.2363
 30
0.0
 10
-19.5205
 20
6.2363
 30
0.0
 10
-20.3968
 20
6.2363
 30
0.0
 10
-20.3968
 20
6.2363
 30
0.0
 10
-20.3968
 20
6.2363
 30
0.0
 10
-20.3968
 20
6.2363
 30
0.0
 10
-20.3968
 20
6.464
 30
0.0
 10
-20.3968
 20
6.464
 30
0.0
 10
-20.3968
 20
6.464
 30
0.0
 10
-20.3968
 20
6.464
 30
0.0
 10
-19.4748
 20
7.773
 30
0.0
 10
-19.4748
 20
7.773
 30
0.0
 10
-19.4748
 20
7.773
 30
0.0
 10
-19.4748
 20
7.773
 30
0.0
 10
-19.2721
 20
7.773
 30
0.0
 10
-19.2721
 20
7.773
 30
0.0
 10
-19.2721
 20
7.773
 30
0.0
 10
-19.2721
 20
7.773
 30
0.0
 10
-19.2721
 20
6.464
 30
0.0
 10
-19.2721
 20
6.464
 30
0.0
 10
-19.2721
 20
6.464
 30
0.0
 10
-19.2721
 20
6.464
 30
0.0
 10
-18.9993
 20
6.464
 30
0.0
 10
-18.9993
 20
6.464
 30
0.0
 10
-18.9993
 20
6.464
 30
0.0
 10
-18.9993
 20
6.464
 30
0.0
 10
-18.9993
 20
6.2363
 30
0.0
 10
-18.9993
 20
6.2363
 30
0.0
 10
-18.9993
 20
6.2363
 30
0.0
 10
-18.9993
 20
6.2363
 30
0.0
 10
-19.2721
 20
6.2363
 30
0.0
 10
-19.2721
 20
6.2363
 30
0.0
 10
-19.2721
 20
6.2363
 30
0.0
 10
-19.2721
 20
6.2363
 30
0.0
 10
-19.2721
 20
5.7528
 30
0.0
 10
-19.2721
 20
5.7528
 30
0.0
 10
-19.2721
 20
5.7528
 30
0.0
 10
-19.2721
 20
5.7528
 30
0.0
 10
-19.5205
 20
5.7528
 30
0.0
 10
-19.5205
 20
5.7528
 30
0.0
  0
SPLINE
  5
143
330
1F
100
AcDbEntity
  8
DEFAULT_1
 62
   250
100
AcDbSpline
210
0.0
220
0.0
230
1.0
 70
    11
 71
     3
 72
    16
 73
    12
 74
     0
 42
0.0000000001
 43
0.0000000001
 40
0.0
 40
0.0
 40
0.0
 40
0.0
 40
0.25
 40
0.25
 40
0.25
 40
0.25
 40
0.5
 40
0.5
 40
0.5
 40
0.5
 40
1.0
 40
1.0
 40
1.0
 40
1.0
 10
-19.5205
 20
6.464
 30
0.0
 10
-19.5205
 20
6.464
 30
0.0
 10
-19.5205
 20
7.3746
 30
0.0
 10
-19.5205
 20
7.3746
 30
0.0
 10
-19.5205
 20
7.3746
 30
0.0
 10
-19.5205
 20
7.3746
 30
0.0
 10
-20.1526
 20
6.464
 30
0.0
 10
-20.1526
 20
6.464
 30
0.0
 10
-20.1526
 20
6.464
 30
0.0
 10
-20.1526
 20
6.464
 30
0.0
 10
-19.5205
 20
6.464
 30
0.0
 10
-19.5205
 20
6.464
 30
0.0
  0
SPLINE
  5
144
330
1F
100
AcDbEntity
  8
DEFAULT_1
 62
   250
100
AcDbSpline
210
0.0
220
0.0
230
1.0
 70
    11
 71
     3
 72
    52
 73
    48
 74
     0
 42
0.0000000001
 43
0.0000000001
 40
0.0
 40
0.0
 40
0.0
 40
0.0
 40
0.0769230769230769
 40
0.0769230769230769
 40
0.0769230769230769
 40
0.0769230769230769
 40
0.1538461538461539
 40
0.1538461538461539
 40
0.1538461538461539
 40
0.1538461538461539
 40
0.2307692307692308
 40
0.2307692307692308
 40
0.2307692307692308
 40
0.2307692307692308
 40
0.3076923076923077
 40
0.3076923076923077
 40
0.3076923076923077
 40
0.3076923076923077
 40
0.3846153846153846
 40
0.3846153846153846
 40
0.3846153846153846
 40
0.3846153846153846
 40
0.4615384615384616
 40
0.4615384615384616
 40
0.4615384615384616
 40
0.4615384615384616
 40
0.5384615384615384
 40
0.5384615384615384
 40
0.5384615384615384
 40
0.5384615384615384
 40
0.6153846153846154
 40
0.6153846153846154
 40
0.6153846153846154
 40
0.6153846153846154
 40
0.6923076923076923
 40
0.6923076923076923
 40
0.6923076923076923
 40
0.6923076923076923
 40
0.7692307692307693
 40
0.7692307692307693
 40
0.7692307692307693
 40
0.7692307692307693
 40
0.8461538461538461
 40
0.8461538461538461
 40
0.8461538461538461
 40
0.8461538461538461
 40
1.0
 40
1.0
 40
1.0
 40
1.0
 10
-18.7458
 20
6.749
 30
0.0
 10
-18.7458
 20
6.988
 30
0.0
 10
-18.7213
 20
7.1804
 30
0.0
 10
-18.6719
 20
7.3257
 30
0.0
 10
-18.6719
 20
7.3257
 30
0.0
 10
-18.623
 20
7.4715
 30
0.0
 10
-18.5496
 20
7.5839
 30
0.0
 10
-18.4527
 20
7.663
 30
0.0
 10
-18.4527
 20
7.663
 30
0.0
 10
-18.3558
 20
7.742
 30
0.0
 10
-18.234
 20
7.7815
 30
0.0
 10
-18.0873
 20
7.7815
 30
0.0
 10
-18.0873
 20
7.7815
 30
0.0
 10
-17.9786
 20
7.7815
 30
0.0
 10
-17.8836
 20
7.7594
 30
0.0
 10
-17.8018
 20
7.7156
 30
0.0
 10
-17.8018
 20
7.7156
 30
0.0
 10
-17.7199
 20
7.6724
 30
0.0
 10
-17.6526
 20
7.6093
 30
0.0
 10
-17.599
 20
7.527
 30
0.0
 10
-17.599
 20
7.527
 30
0.0
 10
-17.5459
 20
7.4447
 30
0.0
 10
-17.504
 20
7.3445
 30
0.0
 10
-17.4739
 20
7.2265
 30
0.0
 10
-17.4739
 20
7.2265
 30
0.0
 10
-17.4433
 20
7.1084
 30
0.0
 10
-17.4283
 20
6.9494
 30
0.0
 10
-17.4283
 20
6.749
 30
0.0
 10
-17.4283
 20
6.749
 30
0.0
 10
-17.4283
 20
6.512
 30
0.0
 10
-17.4527
 20
6.321
 30
0.0
 10
-17.5012
 20
6.1752
 30
0.0
 10
-17.5012
 20
6.1752
 30
0.0
 10
-17.5501
 20
6.0294
 30
0.0
 10
-17.623
 20
5.917
 30
0.0
 10
-17.7199
 20
5.8375
 30
0.0
 10
-17.7199
 20
5.8375
 30
0.0
 10
-17.8168
 20
5.758
 30
0.0
 10
-17.9391
 20
5.7185
 30
0.0
 10
-18.0873
 20
5.7185
 30
0.0
 10
-18.0873
 20
5.7185
 30
0.0
 10
-18.282
 20
5.7185
 30
0.0
 10
-18.4349
 20
5.7881
 30
0.0
 10
-18.5459
 20
5.9278
 30
0.0
 10
-18.5459
 20
5.9278
 30
0.0
 10
-18.679
 20
6.0957
 30
0.0
 10
-18.7458
 20
6.3699
 30
0.0
 10
-18.7458
 20
6.749
 30
0.0
  0
SPLINE
  5
145
330
1F
100
AcDbEntity
  8
DEFAULT_1
 62
   250
100
AcDbSpline
210
0.0
220
0.0
230
1.0
 70
    11
 71
     3
 72
    36
 73
    32
 74
     0
 42
0.0000000001
 43
0.0000000001
 40
0.0
 40
0.0
 40
0.0
 40
0.0
 40
0.1111111111111111
 40
0.1111111111111111
 40
0.1111111111111111
 40
0.1111111111111111
 40
0.2222222222222222
 40
0.2222222222222222
 40
0.2222222222222222
 40
0.2222222222222222
 40
0.3333333333333333
 40
0.3333333333333333
 40
0.3333333333333333
 40
0.3333333333333333
 40
0.4444444444444444
 40
0.4444444444444444
 40
0.4444444444444444
 40
0.4444444444444444
 40
0.5555555555555556
 40
0.5555555555555556
 40
0.5555555555555556
 40
0.5555555555555556
 40
0.6666666666666666
 40
0.6666666666666666
 40
0.6666666666666666
 40
0.6666666666666666
 40
0.7777777777777778
 40
0.7777777777777778
 40
0.7777777777777778
 40
0.7777777777777778
 40
1.0
 40
1.0
 40
1.0
 40
1.0
 10
-18.4908
 20
6.749
 30
0.0
 10
-18.4908
 20
6.4174
 30
0.0
 10
-18.4518
 20
6.1968
 30
0.0
 10
-18.3742
 20
6.0868
 30
0.0
 10
-18.3742
 20
6.0868
 30
0.0
 10
-18.2966
 20
5.9772
 30
0.0
 10
-18.2011
 20
5.9221
 30
0.0
 10
-18.0873
 20
5.9221
 30
0.0
 10
-18.0873
 20
5.9221
 30
0.0
 10
-17.973
 20
5.9221
 30
0.0
 10
-17.8775
 20
5.9776
 30
0.0
 10
-17.7999
 20
6.0877
 30
0.0
 10
-17.7999
 20
6.0877
 30
0.0
 10
-17.7223
 20
6.1978
 30
0.0
 10
-17.6832
 20
6.4184
 30
0.0
 10
-17.6832
 20
6.749
 30
0.0
 10
-17.6832
 20
6.749
 30
0.0
 10
-17.6832
 20
7.0816
 30
0.0
 10
-17.7223
 20
7.3027
 30
0.0
 10
-17.7999
 20
7.4118
 30
0.0
 10
-17.7999
 20
7.4118
 30
0.0
 10
-17.8775
 20
7.5214
 30
0.0
 10
-17.9739
 20
7.5759
 30
0.0
 10
-18.0896
 20
7.5759
 30
0.0
 10
-18.0896
 20
7.5759
 30
0.0
 10
-18.2039
 20
7.5759
 30
0.0
 10
-18.2947
 20
7.5275
 30
0.0
 10
-18.3629
 20
7.4311
 30
0.0
 10
-18.3629
 20
7.4311
 30
0.0
 10
-18.448
 20
7.3083
 30
0.0
 10
-18.4908
 20
7.0806
 30
0.0
 10
-18.4908
 20
6.749
 30
0.0
  0
SPLINE
  5
146
330
1F
100
AcDbEntity
  8
DEFAULT_1
 62
   250
100
AcDbSpline
210
0.0
220
0.0
230
1.0
 70
    11
 71
     3
 72
    20
 73
    16
 74
     0
 42
0.0000000001
 43
0.0000000001
 40
0.0
 40
0.0
 40
0.0
 40
0.0
 40
0.2
 40
0.2
 40
0.2
 40
0.2
 40
0.4
 40
0.4
 40
0.4
 40
0.4
 40
0.6
 40
0.6
 40
0.6
 40
0.6
 40
1.0
 40
1.0
 40
1.0
 40
1.0
 10
-41.6095
 20
22.309
 30
0.0
 10
-41.6095
 20
22.309
 30
0.0
 10
-41.21
 20
25.1394
 30
0.0
 10
-41.21
 20
25.1394
 30
0.0
 10
-41.21
 20
25.1394
 30
0.0
 10
-41.21
 20
25.1394
 30
0.0
 10
-41.1213
 20
25.1394
 30
0.0
 10
-41.1213
 20
25.1394
 30
0.0
 10
-41.1213
 20
25.1394
 30
0.0
 10
-41.1213
 20
25.1394
 30
0.0
 10
-40.6953
 20
22.309
 30
0.0
 10
-40.6953
 20
22.309
 30
0.0
 10
-40.6953
 20
22.309
 30
0.0
 10
-40.6953
 20
22.309
 30
0.0
 10
-41.6095
 20
22.309
 30
0.0
 10
-41.6095
 20
22.309
 30
0.0
  0
SPLINE
  5
147
330
1F
100
AcDbEntity
  8
DEFAULT_1
 62
   250
100
AcDbSpline
210
0.0
220
0.0
230
1.0
 70
    11
 71
     3
 72
    20
 73
    16
 74
     0
 42
0.0000000001
 43
0.0000000001
 40
0.0
 40
0.0
 40
0.0
 40
0.0
 40
0.2
 40
0.2
 40
0.2
 40
0.2
 40
0.4
 40
0.4
 40
0.4
 40
0.4
 40
0.6
 40
0.6
 40
0.6
 40
0.6
 40
1.0
 40
1.0
 40
1.0
 40
1.0
 10
-40.7133
 20
-10.4839
 30
0.0
 10
-40.7133
 20
-10.4839
 30
0.0
 10
-41.1128
 20
-13.3144
 30
0.0
 10
-41.1128
 20
-13.3144
 30
0.0
 10
-41.1128
 20
-13.3144
 30
0.0
 10
-41.1128
 20
-13.3144
 30
0.0
 10
-41.2015
 20
-13.3144
 30
0.0
 10
-41.2015
 20
-13.3144
 30
0.0
 10
-41.2015
 20
-13.3144
 30
0.0
 10
-41.2015
 20
-13.3144
 30
0.0
 10
-41.6275
 20
-10.4839
 30
0.0
 10
-41.6275
 20
-10.4839
 30
0.0
 10
-41.6275
 20
-10.4839
 30
0.0
 10
-41.6275
 20
-10.4839
 30
0.0
 10
-40.7133
 20
-10.4839
 30
0.0
 10
-40.7133
 20
-10.4839
 30
0.0
  0
SPLINE
  5
148
330
1F
100
AcDbEntity
  8
DEFAULT_1
 62
   250
100
AcDbSpline
210
0.0
220
0.0
230
1.0
 70
    11
 71
     3
 72
    20
 73
    16
 74
     0
 42
0.0000000001
 43
0.0000000001
 40
0.0
 40
0.0
 40
0.0
 40
0.0
 40
0.2
 40
0.2
 40
0.2
 40
0.2
 40
0.4
 40
0.4
 40
0.4
 40
0.4
 40
0.6
 40
0.6
 40
0.6
 40
0.6
 40
1.0
 40
1.0
 40
1.0
 40
1.0
 10
-41.6172
 20
-16.2599
 30
0.0
 10
-41.6172
 20
-16.2599
 30
0.0
 10
-41.2178
 20
-13.4295
 30
0.0
 10
-41.2178
 20
-13.4295
 30
0.0
 10
-41.2178
 20
-13.4295
 30
0.0
 10
-41.2178
 20
-13.4295
 30
0.0
 10
-41.1291
 20
-13.4295
 30
0.0
 10
-41.1291
 20
-13.4295
 30
0.0
 10
-41.1291
 20
-13.4295
 30
0.0
 10
-41.1291
 20
-13.4295
 30
0.0
 10
-40.703
 20
-16.2599
 30
0.0
 10
-40.703
 20
-16.2599
 30
0.0
 10
-40.703
 20
-16.2599
 30
0.0
 10
-40.703
 20
-16.2599
 30
0.0
 10
-41.6172
 20
-16.2599
 30
0.0
 10
-41.6172
 20
-16.2599
 30
0.0
  0
SPLINE
  5
149
330
1F
100
AcDbEntity
  8
DEFAULT_1
 62
   250
100
AcDbSpline
210
0.0
220
0.0
230
1.0
 70
    11
 71
     3
 72
    20
 73
    16
 74
     0
 42
0.0000000001
 43
0.0000000001
 40
0.0
 40
0.0
 40
0.0
 40
0.0
 40
0.2
 40
0.2
 40
0.2
 40
0.2
 40
0.4
 40
0.4
 40
0.4
 40
0.4
 40
0.6
 40
0.6
 40
0.6
 40
0.6
 40
1.0
 40
1.0
 40
1.0
 40
1.0
 10
-40.7429
 20
-33.0926
 30
0.0
 10
-40.7429
 20
-33.0926
 30
0.0
 10
-41.1424
 20
-35.923
 30
0.0
 10
-41.1424
 20
-35.923
 30
0.0
 10
-41.1424
 20
-35.923
 30
0.0
 10
-41.1424
 20
-35.923
 30
0.0
 10
-41.2311
 20
-35.923
 30
0.0
 10
-41.2311
 20
-35.923
 30
0.0
 10
-41.2311
 20
-35.923
 30
0.0
 10
-41.2311
 20
-35.923
 30
0.0
 10
-41.6571
 20
-33.0926
 30
0.0
 10
-41.6571
 20
-33.0926
 30
0.0
 10
-41.6571
 20
-33.0926
 30
0.0
 10
-41.6571
 20
-33.0926
 30
0.0
 10
-40.7429
 20
-33.0926
 30
0.0
 10
-40.7429
 20
-33.0926
 30
0.0
  0
SPLINE
  5
14A
330
1F
100
AcDbEntity
  8
DEFAULT_1
 62
   250
100
AcDbSpline
210
0.0
220
0.0
230
1.0
 70
    11
 71
     3
 72
    20
 73
    16
 74
     0
 42
0.0000000001
 43
0.0000000001
 40
0.0
 40
0.0
 40
0.0
 40
0.0
 40
0.2
 40
0.2
 40
0.2
 40
0.2
 40
0.4
 40
0.4
 40
0.4
 40
0.4
 40
0.6
 40
0.6
 40
0.6
 40
0.6
 40
1.0
 40
1.0
 40
1.0
 40
1.0
 10
-13.0277
 20
32.7518
 30
0.0
 10
-13.0277
 20
32.7518
 30
0.0
 10
-15.8582
 20
33.1513
 30
0.0
 10
-15.8582
 20
33.1513
 30
0.0
 10
-15.8582
 20
33.1513
 30
0.0
 10
-15.8582
 20
33.1513
 30
0.0
 10
-15.8582
 20
33.24
 30
0.0
 10
-15.8582
 20
33.24
 30
0.0
 10
-15.8582
 20
33.24
 30
0.0
 10
-15.8582
 20
33.24
 30
0.0
 10
-13.0277
 20
33.666
 30
0.0
 10
-13.0277
 20
33.666
 30
0.0
 10
-13.0277
 20
33.666
 30
0.0
 10
-13.0277
 20
33.666
 30
0.0
 10
-13.0277
 20
32.7518
 30
0.0
 10
-13.0277
 20
32.7518
 30
0.0
  0
SPLINE
  5
14B
330
1F
100
AcDbEntity
  8
DEFAULT_1
 62
   250
100
AcDbSpline
210
0.0
220
0.0
230
1.0
 70
    11
 71
     3
 72
    20
 73
    16
 74
     0
 42
0.0000000001
 43
0.0000000001
 40
0.0
 40
0.0
 40
0.0
 40
0.0
 40
0.2
 40
0.2
 40
0.2
 40
0.2
 40
0.4
 40
0.4
 40
0.4
 40
0.4
 40
0.6
 40
0.6
 40
0.6
 40
0.6
 40
1.0
 40
1.0
 40
1.0
 40
1.0
 10
-28.053
 20
33.6698
 30
0.0
 10
-28.053
 20
33.6698
 30
0.0
 10
-25.2226
 20
33.2704
 30
0.0
 10
-25.2226
 20
33.2704
 30
0.0
 10
-25.2226
 20
33.2704
 30
0.0
 10
-25.2226
 20
33.2704
 30
0.0
 10
-25.2226
 20
33.1816
 30
0.0
 10
-25.2226
 20
33.1816
 30
0.0
 10
-25.2226
 20
33.1816
 30
0.0
 10
-25.2226
 20
33.1816
 30
0.0
 10
-28.053
 20
32.7556
 30
0.0
 10
-28.053
 20
32.7556
 30
0.0
 10
-28.053
 20
32.7556
 30
0.0
 10
-28.053
 20
32.7556
 30
0.0
 10
-28.053
 20
33.6698
 30
0.0
 10
-28.053
 20
33.6698
 30
0.0
  0
SPLINE
  5
14C
330
1F
100
AcDbEntity
  8
DEFAULT_1
 62
   250
100
AcDbSpline
210
0.0
220
0.0
230
1.0
 70
    11
 71
     3
 72
    20
 73
    16
 74
     0
 42
0.0000000001
 43
0.0000000001
 40
0.0
 40
0.0
 40
0.0
 40
0.0
 40
0.2
 40
0.2
 40
0.2
 40
0.2
 40
0.4
 40
0.4
 40
0.4
 40
0.4
 40
0.6
 40
0.6
 40
0.6
 40
0.6
 40
1.0
 40
1.0
 40
1.0
 40
1.0
 10
-5.6064
 20
-5.5705
 30
0.0
 10
-5.6064
 20
-5.5705
 30
0.0
 10
-8.4368
 20
-5.1711
 30
0.0
 10
-8.4368
 20
-5.1711
 30
0.0
 10
-8.4368
 20
-5.1711
 30
0.0
 10
-8.4368
 20
-5.1711
 30
0.0
 10
-8.4368
 20
-5.0823
 30
0.0
 10
-8.4368
 20
-5.0823
 30
0.0
 10
-8.4368
 20
-5.0823
 30
0.0
 10
-8.4368
 20
-5.0823
 30
0.0
 10
-5.6064
 20
-4.6563
 30
0.0
 10
-5.6064
 20
-4.6563
 30
0.0
 10
-5.6064
 20
-4.6563
 30
0.0
 10
-5.6064
 20
-4.6563
 30
0.0
 10
-5.6064
 20
-5.5705
 30
0.0
 10
-5.6064
 20
-5.5705
 30
0.0
  0
SPLINE
  5
14D
330
1F
100
AcDbEntity
  8
DEFAULT_1
 62
   250
100
AcDbSpline
210
0.0
220
0.0
230
1.0
 70
    11
 71
     3
 72
    20
 73
    16
 74
     0
 42
0.0000000001
 43
0.0000000001
 40
0.0
 40
0.0
 40
0.0
 40
0.0
 40
0.2
 40
0.2
 40
0.2
 40
0.2
 40
0.4
 40
0.4
 40
0.4
 40
0.4
 40
0.6
 40
0.6
 40
0.6
 40
0.6
 40
1.0
 40
1.0
 40
1.0
 40
1.0
 10
-23.4026
 20
-4.6879
 30
0.0
 10
-23.4026
 20
-4.6879
 30
0.0
 10
-20.5722
 20
-5.0873
 30
0.0
 10
-20.5722
 20
-5.0873
 30
0.0
 10
-20.5722
 20
-5.0873
 30
0.0
 10
-20.5722
 20
-5.0873
 30
0.0
 10
-20.5722
 20
-5.176
 30
0.0
 10
-20.5722
 20
-5.176
 30
0.0
 10
-20.5722
 20
-5.176
 30
0.0
 10
-20.5722
 20
-5.176
 30
0.0
 10
-23.4026
 20
-5.602
 30
0.0
 10
-23.4026
 20
-5.602
 30
0.0
 10
-23.4026
 20
-5.602
 30
0.0
 10
-23.4026
 20
-5.602
 30
0.0
 10
-23.4026
 20
-4.6879
 30
0.0
 10
-23.4026
 20
-4.6879
 30
0.0
  0
SPLINE
  5
14E
330
1F
100
AcDbEntity
  8
DEFAULT_1
 62
   250
100
AcDbSpline
210
0.0
220
0.0
230
1.0
 70
    11
 71
     3
 72
    20
 73
    16
 74
     0
 42
0.0000000001
 43
0.0000000001
 40
0.0
 40
0.0
 40
0.0
 40
0.0
 40
0.2
 40
0.2
 40
0.2
 40
0.2
 40
0.4
 40
0.4
 40
0.4
 40
0.4
 40
0.6
 40
0.6
 40
0.6
 40
0.6
 40
1.0
 40
1.0
 40
1.0
 40
1.0
 10
-17.6327
 20
-0.5136
 30
0.0
 10
-17.6327
 20
-0.5136
 30
0.0
 10
-20.4631
 20
-0.1142
 30
0.0
 10
-20.4631
 20
-0.1142
 30
0.0
 10
-20.4631
 20
-0.1142
 30
0.0
 10
-20.4631
 20
-0.1142
 30
0.0
 10
-20.4631
 20
-0.0254
 30
0.0
 10
-20.4631
 20
-0.0254
 30
0.0
 10
-20.4631
 20
-0.0254
 30
0.0
 10
-20.4631
 20
-0.0254
 30
0.0
 10
-17.6327
 20
0.4006
 30
0.0
 10
-17.6327
 20
0.4006
 30
0.0
 10
-17.6327
 20
0.4006
 30
0.0
 10
-17.6327
 20
0.4006
 30
0.0
 10
-17.6327
 20
-0.5136
 30
0.0
 10
-17.6327
 20
-0.5136
 30
0.0
  0
SPLINE
  5
14F
330
1F
100
AcDbEntity
  8
DEFAULT_1
 62
   250
100
AcDbSpline
210
0.0
220
0.0
230
1.0
 70
    11
 71
     3
 72
    20
 73
    16
 74
     0
 42
0.0000000001
 43
0.0000000001
 40
0.0
 40
0.0
 40
0.0
 40
0.0
 40
0.2
 40
0.2
 40
0.2
 40
0.2
 40
0.4
 40
0.4
 40
0.4
 40
0.4
 40
0.6
 40
0.6
 40
0.6
 40
0.6
 40
1.0
 40
1.0
 40
1.0
 40
1.0
 10
39.2295
 20
0.3723
 30
0.0
 10
39.2295
 20
0.3723
 30
0.0
 10
42.06
 20
-0.0271
 30
0.0
 10
42.06
 20
-0.0271
 30
0.0
 10
42.06
 20
-0.0271
 30
0.0
 10
42.06
 20
-0.0271
 30
0.0
 10
42.06
 20
-0.1159
 30
0.0
 10
42.06
 20
-0.1159
 30
0.0
 10
42.06
 20
-0.1159
 30
0.0
 10
42.06
 20
-0.1159
 30
0.0
 10
39.2295
 20
-0.5419
 30
0.0
 10
39.2295
 20
-0.5419
 30
0.0
 10
39.2295
 20
-0.5419
 30
0.0
 10
39.2295
 20
-0.5419
 30
0.0
 10
39.2295
 20
0.3723
 30
0.0
 10
39.2295
 20
0.3723
 30
0.0
  0
SPLINE
  5
150
330
1F
100
AcDbEntity
  8
DEFAULT_1
 62
   250
100
AcDbSpline
210
0.0
220
0.0
230
1.0
 70
    11
 71
     3
 72
    20
 73
    16
 74
     0
 42
0.0000000001
 43
0.0000000001
 40
0.0
 40
0.0
 40
0.0
 40
0.0
 40
0.2
 40
0.2
 40
0.2
 40
0.2
 40
0.4
 40
0.4
 40
0.4
 40
0.4
 40
0.6
 40
0.6
 40
0.6
 40
0.6
 40
1.0
 40
1.0
 40
1.0
 40
1.0
 10
15.5301
 20
-21.2285
 30
0.0
 10
15.5301
 20
-21.2285
 30
0.0
 10
15.9295
 20
-18.3981
 30
0.0
 10
15.9295
 20
-18.3981
 30
0.0
 10
15.9295
 20
-18.3981
 30
0.0
 10
15.9295
 20
-18.3981
 30
0.0
 10
16.0182
 20
-18.3981
 30
0.0
 10
16.0182
 20
-18.3981
 30
0.0
 10
16.0182
 20
-18.3981
 30
0.0
 10
16.0182
 20
-18.3981
 30
0.0
 10
16.4443
 20
-21.2285
 30
0.0
 10
16.4443
 20
-21.2285
 30
0.0
 10
16.4443
 20
-21.2285
 30
0.0
 10
16.4443
 20
-21.2285
 30
0.0
 10
15.5301
 20
-21.2285
 30
0.0
 10
15.5301
 20
-21.2285
 30
0.0
  0
SPLINE
  5
151
330
1F
100
AcDbEntity
  8
DEFAULT_1
 62
   250
100
AcDbSpline
210
0.0
220
0.0
230
1.0
 70
    11
 71
     3
 72
    20
 73
    16
 74
     0
 42
0.0000000001
 43
0.0000000001
 40
0.0
 40
0.0
 40
0.0
 40
0.0
 40
0.2
 40
0.2
 40
0.2
 40
0.2
 40
0.4
 40
0.4
 40
0.4
 40
0.4
 40
0.6
 40
0.6
 40
0.6
 40
0.6
 40
1.0
 40
1.0
 40
1.0
 40
1.0
 10
16.409
 20
-5.5066
 30
0.0
 10
16.409
 20
-5.5066
 30
0.0
 10
16.0095
 20
-8.337
 30
0.0
 10
16.0095
 20
-8.337
 30
0.0
 10
16.0095
 20
-8.337
 30
0.0
 10
16.0095
 20
-8.337
 30
0.0
 10
15.9208
 20
-8.337
 30
0.0
 10
15.9208
 20
-8.337
 30
0.0
 10
15.9208
 20
-8.337
 30
0.0
 10
15.9208
 20
-8.337
 30
0.0
 10
15.4948
 20
-5.5066
 30
0.0
 10
15.4948
 20
-5.5066
 30
0.0
 10
15.4948
 20
-5.5066
 30
0.0
 10
15.4948
 20
-5.5066
 30
0.0
 10
16.409
 20
-5.5066
 30
0.0
 10
16.409
 20
-5.5066
 30
0.0
  0
SPLINE
  5
152
330
1F
100
AcDbEntity
  8
DEFAULT_1
 62
   250
100
AcDbSpline
210
0.0
220
0.0
230
1.0
 70
    11
 71
     3
 72
    20
 73
    16
 74
     0
 42
0.0000000001
 43
0.0000000001
 40
0.0
 40
0.0
 40
0.0
 40
0.0
 40
0.2
 40
0.2
 40
0.2
 40
0.2
 40
0.4
 40
0.4
 40
0.4
 40
0.4
 40
0.6
 40
0.6
 40
0.6
 40
0.6
 40
1.0
 40
1.0
 40
1.0
 40
1.0
 10
-13.5909
 20
4.8886
 30
0.0
 10
-13.5909
 20
4.8886
 30
0.0
 10
-16.4214
 20
5.2881
 30
0.0
 10
-16.4214
 20
5.2881
 30
0.0
 10
-16.4214
 20
5.2881
 30
0.0
 10
-16.4214
 20
5.2881
 30
0.0
 10
-16.4214
 20
5.3768
 30
0.0
 10
-16.4214
 20
5.3768
 30
0.0
 10
-16.4214
 20
5.3768
 30
0.0
 10
-16.4214
 20
5.3768
 30
0.0
 10
-13.5909
 20
5.8028
 30
0.0
 10
-13.5909
 20
5.8028
 30
0.0
 10
-13.5909
 20
5.8028
 30
0.0
 10
-13.5909
 20
5.8028
 30
0.0
 10
-13.5909
 20
4.8886
 30
0.0
 10
-13.5909
 20
4.8886
 30
0.0
  0
SPLINE
  5
153
330
1F
100
AcDbEntity
  8
DEFAULT_1
 62
   250
100
AcDbSpline
210
0.0
220
0.0
230
1.0
 70
    11
 71
     3
 72
    20
 73
    16
 74
     0
 42
0.0000000001
 43
0.0000000001
 40
0.0
 40
0.0
 40
0.0
 40
0.0
 40
0.2
 40
0.2
 40
0.2
 40
0.2
 40
0.4
 40
0.4
 40
0.4
 40
0.4
 40
0.6
 40
0.6
 40
0.6
 40
0.6
 40
1.0
 40
1.0
 40
1.0
 40
1.0
 10
-27.3738
 20
5.7593
 30
0.0
 10
-27.3738
 20
5.7593
 30
0.0
 10
-24.5434
 20
5.3599
 30
0.0
 10
-24.5434
 20
5.3599
 30
0.0
 10
-24.5434
 20
5.3599
 30
0.0
 10
-24.5434
 20
5.3599
 30
0.0
 10
-24.5434
 20
5.2711
 30
0.0
 10
-24.5434
 20
5.2711
 30
0.0
 10
-24.5434
 20
5.2711
 30
0.0
 10
-24.5434
 20
5.2711
 30
0.0
 10
-27.3738
 20
4.8451
 30
0.0
 10
-27.3738
 20
4.8451
 30
0.0
 10
-27.3738
 20
4.8451
 30
0.0
 10
-27.3738
 20
4.8451
 30
0.0
 10
-27.3738
 20
5.7593
 30
0.0
 10
-27.3738
 20
5.7593
 30
0.0
  0
ENDSEC
  0
SECTION
  2
OBJECTS
  0
DICTIONARY
  5
C
330
0
100
AcDbDictionary
  3
ACAD_GROUP
350
D
  3
ACAD_LAYOUT
350
1A
  3
ACAD_MATERIAL
350
3B
  3
ACAD_MLEADERSTYLE
350
176
  3
ACAD_MLINESTYLE
350
17
  3
ACAD_PLOTSETTINGS
350
19
  3
ACAD_VISUALSTYLE
350
2A
  3
ACDBHEADERROUNDTRIPXREC
350
154
  3
ACDBVARIABLEDICTIONARY
350
174
  0
DICTIONARY
  5
D
102
{ACAD_REACTORS
330
C
102
}
330
C
100
AcDbDictionary
  0
DICTIONARY
  5
1A
102
{ACAD_REACTORS
330
C
102
}
330
C
100
AcDbDictionary
  0
DICTIONARY
  5
3B
102
{ACAD_REACTORS
330
C
102
}
330
C
100
AcDbDictionary
  3
BYBLOCK
350
3D
  3
BYLAYER
350
3C
  3
GLOBAL
350
3E
  0
DICTIONARY
  5
176
102
{ACAD_REACTORS
330
C
102
}
330
C
100
AcDbDictionary
  0
DICTIONARY
  5
17
102
{ACAD_REACTORS
330
C
102
}
330
C
100
AcDbDictionary
  3
STANDARD
350
18
  0
DICTIONARY
  5
19
102
{ACAD_REACTORS
330
C
102
}
330
C
100
AcDbDictionary
  0
DICTIONARY
  5
2A
102
{ACAD_REACTORS
330
C
102
}
330
C
100
AcDbDictionary
  3
2DWIREFRAME
350
2F
  3
3D_HIDDEN
350
31
  3
3DWIREFRAME
350
30
  3
BASIC
350
32
  3
BRIGHTEN
350
36
  3
COLORCHANGE
350
3A
  3
CONCEPTUAL
350
34
  3
DIM
350
35
  3
FACEPATTERN
350
39
  3
FLAT
350
2B
  3
FLATWITHEDGES
350
2C
  3
GOURAUD
350
2D
  3
GOURAUDWITHEDGES
350
2E
  3
LINEPATTERN
350
38
  3
REALISTIC
350
33
  3
THICKEN
350
37
  0
DICTIONARY
  5
154
102
{ACAD_REACTORS
330
C
102
}
330
C
100
AcDbDictionary
  3
CEPSNTYPE
350
15D
  3
DIMSTYLEDATA
350
173
  3
FINGERPRINTGUID
350
15E
  3
HYPERLINKBASE
350
157
  3
INSUNITS
350
15C
  3
LAYOUTDICT
350
159
  3
LWETCUNION
350
15B
  3
PLOTSETDICT
350
15A
  3
PSVPSCALE
350
160
  3
PUCSBASE
350
163
  3
PUCSORGBACK
350
169
  3
PUCSORGBOTTOM
350
165
  3
PUCSORGFRONT
350
168
  3
PUCSORGLEFT
350
166
  3
PUCSORGRIGHT
350
167
  3
PUCSORGTOP
350
164
  3
PUCSORTHOREF
350
161
  3
PUCSORTHOVIEW
350
162
  3
STYLESHEET
350
158
  3
TSTACKALIGN
350
155
  3
TSTACKSIZE
350
156
  3
UCSBASE
350
16C
  3
UCSORGBACK
350
172
  3
UCSORGBOTTOM
350
16E
  3
UCSORGFRONT
350
171
  3
UCSORGLEFT
350
16F
  3
UCSORGRIGHT
350
170
  3
UCSORGTOP
350
16D
  3
UCSORTHOREF
350
16A
  3
UCSORTHOVIEW
350
16B
  3
VERSIONGUID
350
15F
  0
DICTIONARY
  5
174
102
{ACAD_REACTORS
330
C
102
}
330
C
100
AcDbDictionary
  3
DIMASSOC
350
177
  3
HIDETEXT
350
178
  0
MATERIAL
  5
3D
102
{ACAD_REACTORS
330
3B
102
}
102
{ACAD_XDICTIONARY
360
17B
102
}
330
3B
100
AcDbMaterial
  1
ByBlock
  0
MATERIAL
  5
3C
102
{ACAD_REACTORS
330
3B
102
}
102
{ACAD_XDICTIONARY
360
179
102
}
330
3B
100
AcDbMaterial
  1
ByLayer
  0
MATERIAL
  5
3E
102
{ACAD_REACTORS
330
3B
102
}
102
{ACAD_XDICTIONARY
360
17D
102
}
330
3B
100
AcDbMaterial
  1
Global
  0
MLINESTYLE
  5
18
102
{ACAD_REACTORS
330
17
102
}
330
17
100
AcDbMlineStyle
  2
Standard
 70
     0
  3

 62
   256
 51
90.0
 52
90.0
 71
     2
 49
0.5
 62
   256
  6
BYLAYER
 49
-0.5
 62
   256
  6
BYLAYER
  0
ACAD_PROXY_OBJECT
  5
2F
102
{ACAD_REACTORS
330
2A
102
}
330
2A
100
AcDbProxyObject
 90
      499
 91
      501
 93
      436
310
42CC9915DA5C99599C985B595049028333333333333E3BF0000000000000FB0107901411070040501600405405064090741402480A0340
1001
ACAD
1000
AcDbSavedByObjectVersion
1070
     0
  0
ACAD_PROXY_OBJECT
  5
31
102
{ACAD_REACTORS
330
2A
102
}
330
2A
100
AcDbProxyObject
 90
      499
 91
      501
 93
      500
310
424CD108121A5919195B90640502408333333333333E3BF0000000000000FB01079024090700405020000000000001110200405405064090740C02480A0340
1001
ACAD
1000
AcDbSavedByObjectVersion
1070
     0
  0
ACAD_PROXY_OBJECT
  5
30
102
{ACAD_REACTORS
330
2A
102
}
330
2A
100
AcDbProxyObject
 90
      499
 91
      501
 93
      436
310
42CCD915DA5C99599C985B595059028333333333333E3BF0000000000000FB0107901411070040501600405405064090741402480A0340
1001
ACAD
1000
AcDbSavedByObjectVersion
1070
     0
  0
ACAD_PROXY_OBJECT
  5
32
102
{ACAD_REACTORS
330
2A
102
}
330
2A
100
AcDbProxyObject
 90
      499
 91
      501
 93
      388
310
4150985CDA58D07406404333333333333E3BF0000000000000FB0107A41107004050150841D405064090741402480A0350
1001
ACAD
1000
AcDbSavedByObjectVersion
1070
     0
  0
ACAD_PROXY_OBJECT
  5
36
102
{ACAD_REACTORS
330
2A
102
}
330
2A
100
AcDbProxyObject
 90
      499
 91
      501
 93
      428
310
42109C9A59DA1D195B90C409028333333333333E3BF0000000000000FB010790141107004050150841D405064090741402480A029950
1001
ACAD
1000
AcDbSavedByObjectVersion
1070
     0
  0
ACAD_PROXY_OBJECT
  5
3A
102
{ACAD_REACTORS
330
2A
102
}
330
2A
100
AcDbProxyObject
 90
      499
 91
      501
 93
      452
310
42D0DBDB1BDC90DA185B99D95104090240C333333333333E3BF0000000000000FB0108901411070040501508421405064090741402480A0350
1001
ACAD
1000
AcDbSavedByObjectVersion
1070
     0
  0
ACAD_PROXY_OBJECT
  5
34
102
{ACAD_REACTORS
330
2A
102
}
330
2A
100
AcDbProxyObject
 90
      499
 91
      501
 93
      500
310
4290DBDB98D95C1D1D585B10940D028333333333333E3BF0000000000000FB0107902409070040501000000000000111010841D405064090740C02480A0340
1001
ACAD
1000
AcDbSavedByObjectVersion
1070
     0
  0
ACAD_PROXY_OBJECT
  5
35
102
{ACAD_REACTORS
330
2A
102
}
330
2A
100
AcDbProxyObject
 90
      499
 91
      501
 93
      412
310
40D11A5B50B409028333333333333E3BF0000000000000FB010790141107004050150841D405064090741402480A02677FFFFFD0
1001
ACAD
1000
AcDbSavedByObjectVersion
1070
     0
  0
ACAD_PROXY_OBJECT
  5
39
102
{ACAD_REACTORS
330
2A
102
}
330
2A
100
AcDbProxyObject
 90
      499
 91
      501
 93
      444
310
42D19858D95C185D1D195C9B90F409028333333333333E3BF0000000000000FB010790141107004050150841D405064090741402480A0350
1001
ACAD
1000
AcDbSavedByObjectVersion
1070
     0
  0
ACAD_PROXY_OBJECT
  5
2B
102
{ACAD_REACTORS
330
2A
102
}
330
2A
100
AcDbProxyObject
 90
      499
 91
      501
 93
      388
310
41119B185D240901404333333333333E3BF0000000000000F9010740A41107004050150841D405064090741402480A1B50
1001
ACAD
1000
AcDbSavedByObjectVersion
1070
     0
  0
ACAD_PROXY_OBJECT
  5
2C
102
{ACAD_REACTORS
330
2A
102
}
330
2A
100
AcDbProxyObject
 90
      499
 91
      501
 93
      476
310
43519B185D15DA5D1A115919D95CD0140901404333333333333E3BF0000000000000F9010740901411070040501600405405064090741402480A1B50
1001
ACAD
1000
AcDbSavedByObjectVersion
1070
     0
  0
ACAD_PROXY_OBJECT
  5
2D
102
{ACAD_REACTORS
330
2A
102
}
330
2A
100
AcDbProxyObject
 90
      499
 91
      501
 93
      412
310
41D1DBDD5C985D5910240902404333333333333E3BF0000000000000F9010740A411070040501641D405064090741402480A1B50
1001
ACAD
1000
AcDbSavedByObjectVersion
1070
     0
  0
ACAD_PROXY_OBJECT
  5
2E
102
{ACAD_REACTORS
330
2A
102
}
330
2A
100
AcDbProxyObject
 90
      499
 91
      501
 93
      500
310
4411DBDD5C985D5915DA5D1A115919D95CD0340902404333333333333E3BF0000000000000F9010740901411070040501600405405064090741402480A1B50
1001
ACAD
1000
AcDbSavedByObjectVersion
1070
     0
  0
ACAD_PROXY_OBJECT
  5
38
102
{ACAD_REACTORS
330
2A
102
}
330
2A
100
AcDbProxyObject
 90
      499
 91
      501
 93
      444
310
42D31A5B995C185D1D195C9B90E409028333333333333E3BF0000000000000FB010790141107004050750841D405064090741402483A0350
1001
ACAD
1000
AcDbSavedByObjectVersion
1070
     0
  0
ACAD_PROXY_OBJECT
  5
33
102
{ACAD_REACTORS
330
2A
102
}
330
2A
100
AcDbProxyObject
 90
      499
 91
      501
 93
      420
310
425499585B1A5CDD1A58D08409028333333333333E3BF0000000000000FB01079019070040501508421405064090741402480A1B40
1001
ACAD
1000
AcDbSavedByObjectVersion
1070
     0
  0
ACAD_PROXY_OBJECT
  5
37
102
{ACAD_REACTORS
330
2A
102
}
330
2A
100
AcDbProxyObject
 90
      499
 91
      501
 93
      412
310
41D51A1A58DAD95B90D409028333333333333E3BF0000000000000FB010790141107004050150C41D405064090741402480A0350
1001
ACAD
1000
AcDbSavedByObjectVersion
1070
     0
  0
XRECORD
  5
15D
102
{ACAD_REACTORS
330
154
102
}
330
154
100
AcDbXrecord
 90
        0
  0
XRECORD
  5
173
102
{ACAD_REACTORS
330
154
102
}
330
154
100
AcDbXrecord
1000
DSTYLE
1002
{
1070
   340
340
11
1002
}
  0
XRECORD
  5
15E
102
{ACAD_REACTORS
330
154
102
}
330
154
100
AcDbXrecord
  1
{5064DF19-7A6E-400A-B931-A062C931B9D1}
  0
XRECORD
  5
157
102
{ACAD_REACTORS
330
154
102
}
330
154
100
AcDbXrecord
  1

  0
XRECORD
  5
15C
102
{ACAD_REACTORS
330
154
102
}
330
154
100
AcDbXrecord
 90
        4
  0
XRECORD
  5
159
102
{ACAD_REACTORS
330
154
102
}
330
154
100
AcDbXrecord
340
1A
  0
XRECORD
  5
15B
102
{ACAD_REACTORS
330
154
102
}
330
154
100
AcDbXrecord
 90
    10781
  0
XRECORD
  5
15A
102
{ACAD_REACTORS
330
154
102
}
330
154
100
AcDbXrecord
340
19
  0
XRECORD
  5
160
102
{ACAD_REACTORS
330
154
102
}
330
154
100
AcDbXrecord
 40
0.0
  0
XRECORD
  5
163
102
{ACAD_REACTORS
330
154
102
}
330
154
100
AcDbXrecord
340
0
  0
XRECORD
  5
169
102
{ACAD_REACTORS
330
154
102
}
330
154
100
AcDbXrecord
 10
0.0
 20
0.0
 30
0.0
  0
XRECORD
  5
165
102
{ACAD_REACTORS
330
154
102
}
330
154
100
AcDbXrecord
 10
0.0
 20
0.0
 30
0.0
  0
XRECORD
  5
168
102
{ACAD_REACTORS
330
154
102
}
330
154
100
AcDbXrecord
 10
0.0
 20
0.0
 30
0.0
  0
XRECORD
  5
166
102
{ACAD_REACTORS
330
154
102
}
330
154
100
AcDbXrecord
 10
0.0
 20
0.0
 30
0.0
  0
XRECORD
  5
167
102
{ACAD_REACTORS
330
154
102
}
330
154
100
AcDbXrecord
 10
0.0
 20
0.0
 30
0.0
  0
XRECORD
  5
164
102
{ACAD_REACTORS
330
154
102
}
330
154
100
AcDbXrecord
 10
0.0
 20
0.0
 30
0.0
  0
XRECORD
  5
161
102
{ACAD_REACTORS
330
154
102
}
330
154
100
AcDbXrecord
340
0
  0
XRECORD
  5
162
102
{ACAD_REACTORS
330
154
102
}
330
154
100
AcDbXrecord
 70
     0
  0
XRECORD
  5
158
102
{ACAD_REACTORS
330
154
102
}
330
154
100
AcDbXrecord
  1

  0
XRECORD
  5
155
102
{ACAD_REACTORS
330
154
102
}
330
154
100
AcDbXrecord
 90
        1
  0
XRECORD
  5
156
102
{ACAD_REACTORS
330
154
102
}
330
154
100
AcDbXrecord
 90
       70
  0
XRECORD
  5
16C
102
{ACAD_REACTORS
330
154
102
}
330
154
100
AcDbXrecord
340
0
  0
XRECORD
  5
172
102
{ACAD_REACTORS
330
154
102
}
330
154
100
AcDbXrecord
 10
0.0
 20
0.0
 30
0.0
  0
XRECORD
  5
16E
102
{ACAD_REACTORS
330
154
102
}
330
154
100
AcDbXrecord
 10
0.0
 20
0.0
 30
0.0
  0
XRECORD
  5
171
102
{ACAD_REACTORS
330
154
102
}
330
154
100
AcDbXrecord
 10
0.0
 20
0.0
 30
0.0
  0
XRECORD
  5
16F
102
{ACAD_REACTORS
330
154
102
}
330
154
100
AcDbXrecord
 10
0.0
 20
0.0
 30
0.0
  0
XRECORD
  5
170
102
{ACAD_REACTORS
330
154
102
}
330
154
100
AcDbXrecord
 10
0.0
 20
0.0
 30
0.0
  0
XRECORD
  5
16D
102
{ACAD_REACTORS
330
154
102
}
330
154
100
AcDbXrecord
 10
0.0
 20
0.0
 30
0.0
  0
XRECORD
  5
16A
102
{ACAD_REACTORS
330
154
102
}
330
154
100
AcDbXrecord
340
0
  0
XRECORD
  5
16B
102
{ACAD_REACTORS
330
154
102
}
330
154
100
AcDbXrecord
 70
     0
  0
XRECORD
  5
15F
102
{ACAD_REACTORS
330
154
102
}
330
154
100
AcDbXrecord
  1
{FAEB1C32-E019-11D5-929B-00C0DF256EC4}
  0
DICTIONARYVAR
  5
177
102
{ACAD_REACTORS
330
174
102
}
330
174
100
DictionaryVariables
280
     0
  1
2
  0
DICTIONARYVAR
  5
178
102
{ACAD_REACTORS
330
174
102
}
330
174
100
DictionaryVariables
280
     0
  1
1
  0
DICTIONARY
  5
17B
330
3D
100
AcDbDictionary
280
     1
  3
ACAD_XREC_ROUNDTRIP
360
17C
  0
DICTIONARY
  5
179
330
3C
100
AcDbDictionary
280
     1
  3
ACAD_XREC_ROUNDTRIP
360
17A
  0
DICTIONARY
  5
17D
330
3E
100
AcDbDictionary
280
     1
  3
ACAD_XREC_ROUNDTRIP
360
17E
  0
XRECORD
  5
17C
102
{ACAD_REACTORS
330
17B
102
}
330
17B
100
AcDbXrecord
102
MATERIAL
148
0.0
149
0.0
149
0.0
 93
        0
 94
      127
282
     0
 72
     1
 77
     1
171
     1
175
     1
179
     1
273
     0
  0
XRECORD
  5
17A
102
{ACAD_REACTORS
330
179
102
}
330
179
100
AcDbXrecord
102
MATERIAL
148
0.0
149
0.0
149
0.0
 93
        0
 94
      127
282
     0
 72
     1
 77
     1
171
     1
175
     1
179
     1
273
     0
  0
XRECORD
  5
17E
102
{ACAD_REACTORS
330
17D
102
}
330
17D
100
AcDbXrecord
102
MATERIAL
148
0.0
149
0.0
149
0.0
 93
        0
 94
      127
282
     0
 72
     1
 77
     1
171
     1
175
     1
179
     1
273
     0
  0
ENDSEC
  0
EOF
