  0
SECTION
  2
HEADER
  9
$ACADVER
  1
AC1014
  9
$ACADMAINTVER
 70
     9
  9
$DWGCODEPAGE
  3
ANSI_1250
  9
$INSBASE
 10
0.0
 20
0.0
 30
0.0
  9
$EXTMIN
 10
-50.4451
 20
-14.8236
 30
0.0
  9
$EXTMAX
 10
50.5863
 20
14.8236
 30
0.0
  9
$LIMMIN
 10
0.0
 20
0.0
  9
$LIMMAX
 10
12.0
 20
9.0
  9
$ORTHOMODE
 70
     0
  9
$REGENMODE
 70
     1
  9
$FILLMODE
 70
     1
  9
$QTEXTMODE
 70
     0
  9
$MIRRTEXT
 70
     1
  9
$DRAGMODE
 70
     2
  9
$LTSCALE
 40
1.0
  9
$OSMODE
 70
    37
  9
$ATTMODE
 70
     1
  9
$TEXTSIZE
 40
0.2
  9
$TRACEWID
 40
0.05
  9
$TEXTSTYLE
  7
STANDARD
  9
$CLAYER
  8
0
  9
$CELTYPE
  6
BYLAYER
  9
$CECOLOR
 62
   256
  9
$CELTSCALE
 40
1.0
  9
$DELOBJ
 70
     1
  9
$DISPSILH
 70
     0
  9
$DIMSCALE
 40
1.0
  9
$DIMASZ
 40
0.18
  9
$DIMEXO
 40
0.0625
  9
$DIMDLI
 40
0.38
  9
$DIMRND
 40
0.0
  9
$DIMDLE
 40
0.0
  9
$DIMEXE
 40
0.18
  9
$DIMTP
 40
0.0
  9
$DIMTM
 40
0.0
  9
$DIMTXT
 40
0.18
  9
$DIMCEN
 40
0.09
  9
$DIMTSZ
 40
0.0
  9
$DIMTOL
 70
     0
  9
$DIMLIM
 70
     0
  9
$DIMTIH
 70
     1
  9
$DIMTOH
 70
     1
  9
$DIMSE1
 70
     0
  9
$DIMSE2
 70
     0
  9
$DIMTAD
 70
     0
  9
$DIMZIN
 70
     0
  9
$DIMBLK
  1

  9
$DIMASO
 70
     1
  9
$DIMSHO
 70
     1
  9
$DIMPOST
  1

  9
$DIMAPOST
  1

  9
$DIMALT
 70
     0
  9
$DIMALTD
 70
     2
  9
$DIMALTF
 40
25.4
  9
$DIMLFAC
 40
1.0
  9
$DIMTOFL
 70
     0
  9
$DIMTVP
 40
0.0
  9
$DIMTIX
 70
     0
  9
$DIMSOXD
 70
     0
  9
$DIMSAH
 70
     0
  9
$DIMBLK1
  1

  9
$DIMBLK2
  1

  9
$DIMSTYLE
  2
STANDARD
  9
$DIMCLRD
 70
     0
  9
$DIMCLRE
 70
     0
  9
$DIMCLRT
 70
     0
  9
$DIMTFAC
 40
1.0
  9
$DIMGAP
 40
0.09
  9
$DIMJUST
 70
     0
  9
$DIMSD1
 70
     0
  9
$DIMSD2
 70
     0
  9
$DIMTOLJ
 70
     1
  9
$DIMTZIN
 70
     0
  9
$DIMALTZ
 70
     0
  9
$DIMALTTZ
 70
     0
  9
$DIMFIT
 70
     3
  9
$DIMUPT
 70
     0
  9
$DIMUNIT
 70
     2
  9
$DIMDEC
 70
     4
  9
$DIMTDEC
 70
     4
  9
$DIMALTU
 70
     2
  9
$DIMALTTD
 70
     2
  9
$DIMTXSTY
  7
STANDARD
  9
$DIMAUNIT
 70
     0
  9
$LUNITS
 70
     2
  9
$LUPREC
 70
     4
  9
$SKETCHINC
 40
0.1
  9
$FILLETRAD
 40
0.5
  9
$AUNITS
 70
     0
  9
$AUPREC
 70
     0
  9
$MENU
  1
.
  9
$ELEVATION
 40
0.0
  9
$PELEVATION
 40
0.0
  9
$THICKNESS
 40
0.0
  9
$LIMCHECK
 70
     0
  9
$CHAMFERA
 40
0.5
  9
$CHAMFERB
 40
0.5
  9
$CHAMFERC
 40
1.0
  9
$CHAMFERD
 40
0.0
  9
$SKPOLY
 70
     0
  9
$TDCREATE
 40
2456272.358205833
  9
$TDUPDATE
 40
2456272.358205845
  9
$TDINDWG
 40
0.0000000116
  9
$TDUSRTIMER
 40
0.0000000116
  9
$USRTIMER
 70
     1
  9
$ANGBASE
 50
0.0
  9
$ANGDIR
 70
     0
  9
$PDMODE
 70
     0
  9
$PDSIZE
 40
0.0
  9
$PLINEWID
 40
0.0
  9
$COORDS
 70
     1
  9
$SPLFRAME
 70
     0
  9
$SPLINETYPE
 70
     6
  9
$SPLINESEGS
 70
     8
  9
$ATTDIA
 70
     0
  9
$ATTREQ
 70
     1
  9
$HANDLING
 70
     1
  9
$HANDSEED
  5
B1
  9
$SURFTAB1
 70
     6
  9
$SURFTAB2
 70
     6
  9
$SURFTYPE
 70
     6
  9
$SURFU
 70
     6
  9
$SURFV
 70
     6
  9
$UCSNAME
  2

  9
$UCSORG
 10
0.0
 20
0.0
 30
0.0
  9
$UCSXDIR
 10
1.0
 20
0.0
 30
0.0
  9
$UCSYDIR
 10
0.0
 20
1.0
 30
0.0
  9
$PUCSNAME
  2

  9
$PUCSORG
 10
0.0
 20
0.0
 30
0.0
  9
$PUCSXDIR
 10
1.0
 20
0.0
 30
0.0
  9
$PUCSYDIR
 10
0.0
 20
1.0
 30
0.0
  9
$USERI1
 70
     0
  9
$USERI2
 70
     0
  9
$USERI3
 70
     0
  9
$USERI4
 70
     0
  9
$USERI5
 70
     0
  9
$USERR1
 40
0.0
  9
$USERR2
 40
0.0
  9
$USERR3
 40
0.0
  9
$USERR4
 40
0.0
  9
$USERR5
 40
0.0
  9
$WORLDVIEW
 70
     1
  9
$SHADEDGE
 70
     3
  9
$SHADEDIF
 70
    70
  9
$TILEMODE
 70
     1
  9
$MAXACTVP
 70
    64
  9
$PINSBASE
 10
0.0
 20
0.0
 30
0.0
  9
$PLIMCHECK
 70
     0
  9
$PEXTMIN
 10
1.000000000000000E+20
 20
1.000000000000000E+20
 30
1.000000000000000E+20
  9
$PEXTMAX
 10
-1.000000000000000E+20
 20
-1.000000000000000E+20
 30
-1.000000000000000E+20
  9
$PLIMMIN
 10
0.0
 20
0.0
  9
$PLIMMAX
 10
12.0
 20
9.0
  9
$UNITMODE
 70
     0
  9
$VISRETAIN
 70
     1
  9
$PLINEGEN
 70
     0
  9
$PSLTSCALE
 70
     1
  9
$TREEDEPTH
 70
  3020
  9
$PICKSTYLE
 70
     1
  9
$CMLSTYLE
  2
STANDARD
  9
$CMLJUST
 70
     0
  9
$CMLSCALE
 40
1.0
  9
$PROXYGRAPHICS
 70
     1
  9
$MEASUREMENT
 70
     0
  0
ENDSEC
  0
SECTION
  2
CLASSES
  0
CLASS
  1
ACDBDICTIONARYWDFLT
  2
AcDbDictionaryWithDefault
  3
ObjectDBX Classes
 90
        0
280
     0
281
     0
  0
CLASS
  1
VISUALSTYLE
  2
AcDbVisualStyle
  3
ObjectDBX Classes
 90
     4095
280
     0
281
     0
  0
CLASS
  1
MATERIAL
  2
AcDbMaterial
  3
ObjectDBX Classes
 90
     1153
280
     0
281
     0
  0
CLASS
  1
DICTIONARYVAR
  2
AcDbDictionaryVar
  3
ObjectDBX Classes
 90
        0
280
     0
281
     0
  0
CLASS
  1
XRECORD
  2
AcDbXrecord
  3
AutoCAD 2000
 90
        0
280
     0
281
     0
  0
CLASS
  1
LWPOLYLINE
  2
AcDbPolyline
  3
AutoCAD 2000
 90
        0
280
     0
281
     1
  0
CLASS
  1
HATCH
  2
AcDbHatch
  3
AutoCAD 2000
 90
        0
280
     0
281
     1
  0
CLASS
  1
ACDBPLACEHOLDER
  2
AcDbPlaceHolder
  3
ObjectDBX Classes
 90
        0
280
     0
281
     0
  0
CLASS
  1
LAYOUT
  2
AcDbLayout
  3
ObjectDBX Classes
 90
        0
280
     0
281
     0
  0
ENDSEC
  0
SECTION
  2
TABLES
  0
TABLE
  2
VPORT
  5
8
330
0
100
AcDbSymbolTable
 70
     1
  0
VPORT
  5
29
330
8
100
AcDbSymbolTableRecord
100
AcDbViewportTableRecord
  2
*ACTIVE
 70
     0
 10
0.0
 20
0.0
 11
1.0
 21
1.0
 12
10.42990654205607
 22
4.5
 13
0.0
 23
0.0
 14
0.5
 24
0.5
 15
0.5
 25
0.5
 16
0.0
 26
0.0
 36
1.0
 17
0.0
 27
0.0
 37
0.0
 40
9.0
 41
1.972972972850329
 42
50.0
 43
0.0
 44
0.0
 50
0.0
 51
0.0
 71
     0
 72
   100
 73
     1
 74
     3
 75
     0
 76
     0
 77
     0
 78
     0
  0
ENDTAB
  0
TABLE
  2
LTYPE
  5
5
330
0
100
AcDbSymbolTable
 70
     2
  0
LTYPE
  5
14
330
5
100
AcDbSymbolTableRecord
100
AcDbLinetypeTableRecord
  2
BYBLOCK
 70
     0
  3

 72
    65
 73
     0
 40
0.0
  0
LTYPE
  5
15
330
5
100
AcDbSymbolTableRecord
100
AcDbLinetypeTableRecord
  2
BYLAYER
 70
     0
  3

 72
    65
 73
     0
 40
0.0
  0
LTYPE
  5
16
330
5
100
AcDbSymbolTableRecord
100
AcDbLinetypeTableRecord
  2
CONTINUOUS
 70
     0
  3
Solid line
 72
    65
 73
     0
 40
0.0
  0
LTYPE
  5
6F
330
5
100
AcDbSymbolTableRecord
100
AcDbLinetypeTableRecord
  2
NEW_LINE1
 70
     0
  3

 72
    65
 73
     4
 40
1.2
 49
0.5
 74
     4
 75
     0
340
0
 46
1.0
 50
0.0
 44
0.0
 45
0.0
 49
-0.3
 74
     4
 75
     0
340
0
 46
1.0
 50
0.0
 44
0.0
 45
0.0
 49
0.1
 74
     4
 75
     0
340
0
 46
1.0
 50
0.0
 44
0.0
 45
0.0
 49
-0.3
 74
     4
 75
     0
340
0
 46
1.0
 50
0.0
 44
0.0
 45
0.0
  0
ENDTAB
  0
TABLE
  2
LAYER
  5
2
330
0
100
AcDbSymbolTable
 70
     2
  0
LAYER
  5
10
330
2
100
AcDbSymbolTableRecord
100
AcDbLayerTableRecord
  2
0
 70
     0
 62
     7
  6
CONTINUOUS
  0
LAYER
  5
40
330
2
100
AcDbSymbolTableRecord
100
AcDbLayerTableRecord
  2
VRSTVA_1
 70
     0
 62
     7
  6
CONTINUOUS
  0
ENDTAB
  0
TABLE
  2
STYLE
  5
3
330
0
100
AcDbSymbolTable
 70
     1
  0
STYLE
  5
11
330
3
100
AcDbSymbolTableRecord
100
AcDbTextStyleTableRecord
  2
STANDARD
 70
     0
 40
0.0
 41
1.0
 50
0.0
 71
     0
 42
0.2
  3
txt
  4

  0
ENDTAB
  0
TABLE
  2
VIEW
  5
6
330
0
100
AcDbSymbolTable
 70
     0
  0
ENDTAB
  0
TABLE
  2
UCS
  5
7
330
0
100
AcDbSymbolTable
 70
     0
  0
ENDTAB
  0
TABLE
  2
APPID
  5
9
330
0
100
AcDbSymbolTable
 70
     2
  0
APPID
  5
12
330
9
100
AcDbSymbolTableRecord
100
AcDbRegAppTableRecord
  2
ACAD
 70
     0
  0
APPID
  5
3F
330
9
100
AcDbSymbolTableRecord
100
AcDbRegAppTableRecord
  2
ODA
 70
     0
  0
ENDTAB
  0
TABLE
  2
DIMSTYLE
  5
A
330
0
100
AcDbSymbolTable
 70
     1
  0
DIMSTYLE
105
27
330
A
100
AcDbSymbolTableRecord
100
AcDbDimStyleTableRecord
  2
STANDARD
 70
     0
  3

  4

  5

  6

  7

 40
1.0
 41
0.18
 42
0.0625
 43
0.38
 44
0.18
 45
0.0
 46
0.0
 47
0.0
 48
0.0
140
0.18
141
0.09
142
0.0
143
25.4
144
1.0
145
0.0
146
1.0
147
0.09
 71
     0
 72
     0
 73
     1
 74
     1
 75
     0
 76
     0
 77
     0
 78
     0
170
     0
171
     2
172
     0
173
     0
174
     0
175
     0
176
     0
177
     0
178
     0
270
     2
271
     4
272
     4
273
     2
274
     2
340
11
275
     0
280
     0
281
     0
282
     0
283
     1
284
     0
285
     0
286
     0
287
     3
288
     0
  0
ENDTAB
  0
TABLE
  2
BLOCK_RECORD
  5
1
330
0
100
AcDbSymbolTable
 70
     1
  0
BLOCK_RECORD
  5
1F
330
1
100
AcDbSymbolTableRecord
100
AcDbBlockTableRecord
  2
*MODEL_SPACE
  0
BLOCK_RECORD
  5
1B
330
1
100
AcDbSymbolTableRecord
100
AcDbBlockTableRecord
  2
*PAPER_SPACE
  0
ENDTAB
  0
ENDSEC
  0
SECTION
  2
BLOCKS
  0
BLOCK
  5
20
330
1F
100
AcDbEntity
  8
0
100
AcDbBlockBegin
  2
*MODEL_SPACE
 70
     0
 10
0.0
 20
0.0
 30
0.0
  3
*MODEL_SPACE
  1

  0
ENDBLK
  5
21
330
1F
100
AcDbEntity
  8
0
100
AcDbBlockEnd
  0
BLOCK
  5
1C
330
1B
100
AcDbEntity
 67
     1
  8
0
100
AcDbBlockBegin
  2
*PAPER_SPACE
 70
     0
 10
0.0
 20
0.0
 30
0.0
  3
*PAPER_SPACE
  1

  0
ENDBLK
  5
1D
330
1B
100
AcDbEntity
 67
     1
  8
0
100
AcDbBlockEnd
  0
ENDSEC
  0
SECTION
  2
ENTITIES
  0
SPLINE
  5
41
330
1F
100
AcDbEntity
  8
VRSTVA_1
 62
   250
100
AcDbSpline
210
0.0
220
0.0
230
1.0
 70
    24
 71
     3
 72
     8
 73
     4
 74
     0
 42
0.0000000001
 43
0.0000000001
 40
0.0
 40
0.0
 40
0.0
 40
0.0
 40
1.0
 40
1.0
 40
1.0
 40
1.0
 10
-38.4108
 20
-11.1781
 30
0.0
 10
-38.4108
 20
-11.1781
 30
0.0
 10
-38.4108
 20
14.6915
 30
0.0
 10
-38.4108
 20
14.6915
 30
0.0
  0
SPLINE
  5
42
330
1F
100
AcDbEntity
  8
VRSTVA_1
 62
   250
100
AcDbSpline
210
0.0
220
0.0
230
1.0
 70
    27
 71
     3
 72
    12
 73
     8
 74
     0
 42
0.0000000001
 43
0.0000000001
 40
0.0
 40
0.0
 40
0.0
 40
0.0
 40
0.3333333333333333
 40
0.3333333333333333
 40
0.3333333333333333
 40
0.3333333333333333
 40
1.0
 40
1.0
 40
1.0
 40
1.0
 10
49.0066
 20
-14.1652
 30
0.0
 10
49.0066
 20
-14.1652
 30
0.0
 10
-49.1049
 20
-14.1652
 30
0.0
 10
-49.1049
 20
-14.1652
 30
0.0
 10
-49.1049
 20
-14.1652
 30
0.0
 10
-49.1049
 20
-14.1652
 30
0.0
 10
49.0066
 20
-14.1652
 30
0.0
 10
49.0066
 20
-14.1652
 30
0.0
  0
SPLINE
  5
43
330
1F
100
AcDbEntity
  8
VRSTVA_1
 62
   250
100
AcDbSpline
210
0.0
220
0.0
230
1.0
 70
    11
 71
     3
 72
    20
 73
    16
 74
     0
 42
0.0000000001
 43
0.0000000001
 40
0.0
 40
0.0
 40
0.0
 40
0.0
 40
0.2
 40
0.2
 40
0.2
 40
0.2
 40
0.4
 40
0.4
 40
0.4
 40
0.4
 40
0.6
 40
0.6
 40
0.6
 40
0.6
 40
1.0
 40
1.0
 40
1.0
 40
1.0
 10
-38.8783
 20
-6.0734
 30
0.0
 10
-38.8783
 20
-6.0734
 30
0.0
 10
-38.4551
 20
-3.0734
 30
0.0
 10
-38.4551
 20
-3.0734
 30
0.0
 10
-38.4551
 20
-3.0734
 30
0.0
 10
-38.4551
 20
-3.0734
 30
0.0
 10
-38.361
 20
-3.0734
 30
0.0
 10
-38.361
 20
-3.0734
 30
0.0
 10
-38.361
 20
-3.0734
 30
0.0
 10
-38.361
 20
-3.0734
 30
0.0
 10
-37.9096
 20
-6.0734
 30
0.0
 10
-37.9096
 20
-6.0734
 30
0.0
 10
-37.9096
 20
-6.0734
 30
0.0
 10
-37.9096
 20
-6.0734
 30
0.0
 10
-38.8783
 20
-6.0734
 30
0.0
 10
-38.8783
 20
-6.0734
 30
0.0
  0
SPLINE
  5
44
330
1F
100
AcDbEntity
  8
VRSTVA_1
 62
   250
100
AcDbSpline
210
0.0
220
0.0
230
1.0
 70
    11
 71
     3
 72
    48
 73
    44
 74
     0
 42
0.0000000001
 43
0.0000000001
 40
0.0
 40
0.0
 40
0.0
 40
0.0
 40
0.0833333333333333
 40
0.0833333333333333
 40
0.0833333333333333
 40
0.0833333333333333
 40
0.1666666666666667
 40
0.1666666666666667
 40
0.1666666666666667
 40
0.1666666666666667
 40
0.25
 40
0.25
 40
0.25
 40
0.25
 40
0.3333333333333333
 40
0.3333333333333333
 40
0.3333333333333333
 40
0.3333333333333333
 40
0.4166666666666667
 40
0.4166666666666667
 40
0.4166666666666667
 40
0.4166666666666667
 40
0.5
 40
0.5
 40
0.5
 40
0.5
 40
0.5833333333333334
 40
0.5833333333333334
 40
0.5833333333333334
 40
0.5833333333333334
 40
0.6666666666666666
 40
0.6666666666666666
 40
0.6666666666666666
 40
0.6666666666666666
 40
0.75
 40
0.75
 40
0.75
 40
0.75
 40
0.8333333333333334
 40
0.8333333333333334
 40
0.8333333333333334
 40
0.8333333333333334
 40
1.0
 40
1.0
 40
1.0
 40
1.0
 10
-5.5131
 20
-13.4578
 30
0.0
 10
-5.5131
 20
-13.4578
 30
0.0
 10
-5.5131
 20
-12.9743
 30
0.0
 10
-5.5131
 20
-12.9743
 30
0.0
 10
-5.5131
 20
-12.9743
 30
0.0
 10
-5.5131
 20
-12.9743
 30
0.0
 10
-6.3894
 20
-12.9743
 30
0.0
 10
-6.3894
 20
-12.9743
 30
0.0
 10
-6.3894
 20
-12.9743
 30
0.0
 10
-6.3894
 20
-12.9743
 30
0.0
 10
-6.3894
 20
-12.7466
 30
0.0
 10
-6.3894
 20
-12.7466
 30
0.0
 10
-6.3894
 20
-12.7466
 30
0.0
 10
-6.3894
 20
-12.7466
 30
0.0
 10
-5.4674
 20
-11.4376
 30
0.0
 10
-5.4674
 20
-11.4376
 30
0.0
 10
-5.4674
 20
-11.4376
 30
0.0
 10
-5.4674
 20
-11.4376
 30
0.0
 10
-5.2647
 20
-11.4376
 30
0.0
 10
-5.2647
 20
-11.4376
 30
0.0
 10
-5.2647
 20
-11.4376
 30
0.0
 10
-5.2647
 20
-11.4376
 30
0.0
 10
-5.2647
 20
-12.7466
 30
0.0
 10
-5.2647
 20
-12.7466
 30
0.0
 10
-5.2647
 20
-12.7466
 30
0.0
 10
-5.2647
 20
-12.7466
 30
0.0
 10
-4.9919
 20
-12.7466
 30
0.0
 10
-4.9919
 20
-12.7466
 30
0.0
 10
-4.9919
 20
-12.7466
 30
0.0
 10
-4.9919
 20
-12.7466
 30
0.0
 10
-4.9919
 20
-12.9743
 30
0.0
 10
-4.9919
 20
-12.9743
 30
0.0
 10
-4.9919
 20
-12.9743
 30
0.0
 10
-4.9919
 20
-12.9743
 30
0.0
 10
-5.2647
 20
-12.9743
 30
0.0
 10
-5.2647
 20
-12.9743
 30
0.0
 10
-5.2647
 20
-12.9743
 30
0.0
 10
-5.2647
 20
-12.9743
 30
0.0
 10
-5.2647
 20
-13.4578
 30
0.0
 10
-5.2647
 20
-13.4578
 30
0.0
 10
-5.2647
 20
-13.4578
 30
0.0
 10
-5.2647
 20
-13.4578
 30
0.0
 10
-5.5131
 20
-13.4578
 30
0.0
 10
-5.5131
 20
-13.4578
 30
0.0
  0
SPLINE
  5
45
330
1F
100
AcDbEntity
  8
VRSTVA_1
 62
   250
100
AcDbSpline
210
0.0
220
0.0
230
1.0
 70
    11
 71
     3
 72
    16
 73
    12
 74
     0
 42
0.0000000001
 43
0.0000000001
 40
0.0
 40
0.0
 40
0.0
 40
0.0
 40
0.25
 40
0.25
 40
0.25
 40
0.25
 40
0.5
 40
0.5
 40
0.5
 40
0.5
 40
1.0
 40
1.0
 40
1.0
 40
1.0
 10
-5.5131
 20
-12.7466
 30
0.0
 10
-5.5131
 20
-12.7466
 30
0.0
 10
-5.5131
 20
-11.836
 30
0.0
 10
-5.5131
 20
-11.836
 30
0.0
 10
-5.5131
 20
-11.836
 30
0.0
 10
-5.5131
 20
-11.836
 30
0.0
 10
-6.1452
 20
-12.7466
 30
0.0
 10
-6.1452
 20
-12.7466
 30
0.0
 10
-6.1452
 20
-12.7466
 30
0.0
 10
-6.1452
 20
-12.7466
 30
0.0
 10
-5.5131
 20
-12.7466
 30
0.0
 10
-5.5131
 20
-12.7466
 30
0.0
  0
SPLINE
  5
46
330
1F
100
AcDbEntity
  8
VRSTVA_1
 62
   250
100
AcDbSpline
210
0.0
220
0.0
230
1.0
 70
    11
 71
     3
 72
    52
 73
    48
 74
     0
 42
0.0000000001
 43
0.0000000001
 40
0.0
 40
0.0
 40
0.0
 40
0.0
 40
0.0769230769230769
 40
0.0769230769230769
 40
0.0769230769230769
 40
0.0769230769230769
 40
0.1538461538461539
 40
0.1538461538461539
 40
0.1538461538461539
 40
0.1538461538461539
 40
0.2307692307692308
 40
0.2307692307692308
 40
0.2307692307692308
 40
0.2307692307692308
 40
0.3076923076923077
 40
0.3076923076923077
 40
0.3076923076923077
 40
0.3076923076923077
 40
0.3846153846153846
 40
0.3846153846153846
 40
0.3846153846153846
 40
0.3846153846153846
 40
0.4615384615384616
 40
0.4615384615384616
 40
0.4615384615384616
 40
0.4615384615384616
 40
0.5384615384615384
 40
0.5384615384615384
 40
0.5384615384615384
 40
0.5384615384615384
 40
0.6153846153846154
 40
0.6153846153846154
 40
0.6153846153846154
 40
0.6153846153846154
 40
0.6923076923076923
 40
0.6923076923076923
 40
0.6923076923076923
 40
0.6923076923076923
 40
0.7692307692307693
 40
0.7692307692307693
 40
0.7692307692307693
 40
0.7692307692307693
 40
0.8461538461538461
 40
0.8461538461538461
 40
0.8461538461538461
 40
0.8461538461538461
 40
1.0
 40
1.0
 40
1.0
 40
1.0
 10
-4.7384
 20
-12.4616
 30
0.0
 10
-4.7384
 20
-12.2226
 30
0.0
 10
-4.7139
 20
-12.0302
 30
0.0
 10
-4.6645
 20
-11.8849
 30
0.0
 10
-4.6645
 20
-11.8849
 30
0.0
 10
-4.6156
 20
-11.7391
 30
0.0
 10
-4.5422
 20
-11.6267
 30
0.0
 10
-4.4453
 20
-11.5476
 30
0.0
 10
-4.4453
 20
-11.5476
 30
0.0
 10
-4.3484
 20
-11.4686
 30
0.0
 10
-4.2266
 20
-11.4291
 30
0.0
 10
-4.0799
 20
-11.4291
 30
0.0
 10
-4.0799
 20
-11.4291
 30
0.0
 10
-3.9712
 20
-11.4291
 30
0.0
 10
-3.8762
 20
-11.4512
 30
0.0
 10
-3.7944
 20
-11.495
 30
0.0
 10
-3.7944
 20
-11.495
 30
0.0
 10
-3.7125
 20
-11.5382
 30
0.0
 10
-3.6452
 20
-11.6013
 30
0.0
 10
-3.5916
 20
-11.6836
 30
0.0
 10
-3.5916
 20
-11.6836
 30
0.0
 10
-3.5385
 20
-11.7659
 30
0.0
 10
-3.4966
 20
-11.8661
 30
0.0
 10
-3.4665
 20
-11.9841
 30
0.0
 10
-3.4665
 20
-11.9841
 30
0.0
 10
-3.4359
 20
-12.1022
 30
0.0
 10
-3.4209
 20
-12.2612
 30
0.0
 10
-3.4209
 20
-12.4616
 30
0.0
 10
-3.4209
 20
-12.4616
 30
0.0
 10
-3.4209
 20
-12.6986
 30
0.0
 10
-3.4453
 20
-12.8896
 30
0.0
 10
-3.4938
 20
-13.0354
 30
0.0
 10
-3.4938
 20
-13.0354
 30
0.0
 10
-3.5427
 20
-13.1812
 30
0.0
 10
-3.6156
 20
-13.2936
 30
0.0
 10
-3.7125
 20
-13.3731
 30
0.0
 10
-3.7125
 20
-13.3731
 30
0.0
 10
-3.8094
 20
-13.4526
 30
0.0
 10
-3.9317
 20
-13.4921
 30
0.0
 10
-4.0799
 20
-13.4921
 30
0.0
 10
-4.0799
 20
-13.4921
 30
0.0
 10
-4.2746
 20
-13.4921
 30
0.0
 10
-4.4275
 20
-13.4225
 30
0.0
 10
-4.5385
 20
-13.2828
 30
0.0
 10
-4.5385
 20
-13.2828
 30
0.0
 10
-4.6716
 20
-13.1149
 30
0.0
 10
-4.7384
 20
-12.8407
 30
0.0
 10
-4.7384
 20
-12.4616
 30
0.0
  0
SPLINE
  5
47
330
1F
100
AcDbEntity
  8
VRSTVA_1
 62
   250
100
AcDbSpline
210
0.0
220
0.0
230
1.0
 70
    11
 71
     3
 72
    36
 73
    32
 74
     0
 42
0.0000000001
 43
0.0000000001
 40
0.0
 40
0.0
 40
0.0
 40
0.0
 40
0.1111111111111111
 40
0.1111111111111111
 40
0.1111111111111111
 40
0.1111111111111111
 40
0.2222222222222222
 40
0.2222222222222222
 40
0.2222222222222222
 40
0.2222222222222222
 40
0.3333333333333333
 40
0.3333333333333333
 40
0.3333333333333333
 40
0.3333333333333333
 40
0.4444444444444444
 40
0.4444444444444444
 40
0.4444444444444444
 40
0.4444444444444444
 40
0.5555555555555556
 40
0.5555555555555556
 40
0.5555555555555556
 40
0.5555555555555556
 40
0.6666666666666666
 40
0.6666666666666666
 40
0.6666666666666666
 40
0.6666666666666666
 40
0.7777777777777778
 40
0.7777777777777778
 40
0.7777777777777778
 40
0.7777777777777778
 40
1.0
 40
1.0
 40
1.0
 40
1.0
 10
-4.4834
 20
-12.4616
 30
0.0
 10
-4.4834
 20
-12.7932
 30
0.0
 10
-4.4444
 20
-13.0138
 30
0.0
 10
-4.3668
 20
-13.1238
 30
0.0
 10
-4.3668
 20
-13.1238
 30
0.0
 10
-4.2892
 20
-13.2334
 30
0.0
 10
-4.1937
 20
-13.2885
 30
0.0
 10
-4.0799
 20
-13.2885
 30
0.0
 10
-4.0799
 20
-13.2885
 30
0.0
 10
-3.9656
 20
-13.2885
 30
0.0
 10
-3.8701
 20
-13.233
 30
0.0
 10
-3.7925
 20
-13.1229
 30
0.0
 10
-3.7925
 20
-13.1229
 30
0.0
 10
-3.7149
 20
-13.0128
 30
0.0
 10
-3.6758
 20
-12.7922
 30
0.0
 10
-3.6758
 20
-12.4616
 30
0.0
 10
-3.6758
 20
-12.4616
 30
0.0
 10
-3.6758
 20
-12.129
 30
0.0
 10
-3.7149
 20
-11.9079
 30
0.0
 10
-3.7925
 20
-11.7988
 30
0.0
 10
-3.7925
 20
-11.7988
 30
0.0
 10
-3.8701
 20
-11.6892
 30
0.0
 10
-3.9665
 20
-11.6347
 30
0.0
 10
-4.0822
 20
-11.6347
 30
0.0
 10
-4.0822
 20
-11.6347
 30
0.0
 10
-4.1965
 20
-11.6347
 30
0.0
 10
-4.2873
 20
-11.6831
 30
0.0
 10
-4.3555
 20
-11.7795
 30
0.0
 10
-4.3555
 20
-11.7795
 30
0.0
 10
-4.4406
 20
-11.9023
 30
0.0
 10
-4.4834
 20
-12.13
 30
0.0
 10
-4.4834
 20
-12.4616
 30
0.0
  0
SPLINE
  5
48
330
1F
100
AcDbEntity
  8
VRSTVA_1
 62
   250
100
AcDbSpline
210
0.0
220
0.0
230
1.0
 70
    11
 71
     3
 72
    52
 73
    48
 74
     0
 42
0.0000000001
 43
0.0000000001
 40
0.0
 40
0.0
 40
0.0
 40
0.0
 40
0.0769230769230769
 40
0.0769230769230769
 40
0.0769230769230769
 40
0.0769230769230769
 40
0.1538461538461539
 40
0.1538461538461539
 40
0.1538461538461539
 40
0.1538461538461539
 40
0.2307692307692308
 40
0.2307692307692308
 40
0.2307692307692308
 40
0.2307692307692308
 40
0.3076923076923077
 40
0.3076923076923077
 40
0.3076923076923077
 40
0.3076923076923077
 40
0.3846153846153846
 40
0.3846153846153846
 40
0.3846153846153846
 40
0.3846153846153846
 40
0.4615384615384616
 40
0.4615384615384616
 40
0.4615384615384616
 40
0.4615384615384616
 40
0.5384615384615384
 40
0.5384615384615384
 40
0.5384615384615384
 40
0.5384615384615384
 40
0.6153846153846154
 40
0.6153846153846154
 40
0.6153846153846154
 40
0.6153846153846154
 40
0.6923076923076923
 40
0.6923076923076923
 40
0.6923076923076923
 40
0.6923076923076923
 40
0.7692307692307693
 40
0.7692307692307693
 40
0.7692307692307693
 40
0.7692307692307693
 40
0.8461538461538461
 40
0.8461538461538461
 40
0.8461538461538461
 40
0.8461538461538461
 40
1.0
 40
1.0
 40
1.0
 40
1.0
 10
-3.1688
 20
-12.4616
 30
0.0
 10
-3.1688
 20
-12.2226
 30
0.0
 10
-3.1443
 20
-12.0302
 30
0.0
 10
-3.0949
 20
-11.8849
 30
0.0
 10
-3.0949
 20
-11.8849
 30
0.0
 10
-3.046
 20
-11.7391
 30
0.0
 10
-2.9726
 20
-11.6267
 30
0.0
 10
-2.8757
 20
-11.5476
 30
0.0
 10
-2.8757
 20
-11.5476
 30
0.0
 10
-2.7788
 20
-11.4686
 30
0.0
 10
-2.657
 20
-11.4291
 30
0.0
 10
-2.5103
 20
-11.4291
 30
0.0
 10
-2.5103
 20
-11.4291
 30
0.0
 10
-2.4016
 20
-11.4291
 30
0.0
 10
-2.3066
 20
-11.4512
 30
0.0
 10
-2.2248
 20
-11.495
 30
0.0
 10
-2.2248
 20
-11.495
 30
0.0
 10
-2.1429
 20
-11.5382
 30
0.0
 10
-2.0756
 20
-11.6013
 30
0.0
 10
-2.022
 20
-11.6836
 30
0.0
 10
-2.022
 20
-11.6836
 30
0.0
 10
-1.9689
 20
-11.7659
 30
0.0
 10
-1.927
 20
-11.8661
 30
0.0
 10
-1.8969
 20
-11.9841
 30
0.0
 10
-1.8969
 20
-11.9841
 30
0.0
 10
-1.8663
 20
-12.1022
 30
0.0
 10
-1.8513
 20
-12.2612
 30
0.0
 10
-1.8513
 20
-12.4616
 30
0.0
 10
-1.8513
 20
-12.4616
 30
0.0
 10
-1.8513
 20
-12.6986
 30
0.0
 10
-1.8757
 20
-12.8896
 30
0.0
 10
-1.9242
 20
-13.0354
 30
0.0
 10
-1.9242
 20
-13.0354
 30
0.0
 10
-1.9731
 20
-13.1812
 30
0.0
 10
-2.046
 20
-13.2936
 30
0.0
 10
-2.1429
 20
-13.3731
 30
0.0
 10
-2.1429
 20
-13.3731
 30
0.0
 10
-2.2398
 20
-13.4526
 30
0.0
 10
-2.3621
 20
-13.4921
 30
0.0
 10
-2.5103
 20
-13.4921
 30
0.0
 10
-2.5103
 20
-13.4921
 30
0.0
 10
-2.705
 20
-13.4921
 30
0.0
 10
-2.8579
 20
-13.4225
 30
0.0
 10
-2.9689
 20
-13.2828
 30
0.0
 10
-2.9689
 20
-13.2828
 30
0.0
 10
-3.102
 20
-13.1149
 30
0.0
 10
-3.1688
 20
-12.8407
 30
0.0
 10
-3.1688
 20
-12.4616
 30
0.0
  0
SPLINE
  5
49
330
1F
100
AcDbEntity
  8
VRSTVA_1
 62
   250
100
AcDbSpline
210
0.0
220
0.0
230
1.0
 70
    11
 71
     3
 72
    36
 73
    32
 74
     0
 42
0.0000000001
 43
0.0000000001
 40
0.0
 40
0.0
 40
0.0
 40
0.0
 40
0.1111111111111111
 40
0.1111111111111111
 40
0.1111111111111111
 40
0.1111111111111111
 40
0.2222222222222222
 40
0.2222222222222222
 40
0.2222222222222222
 40
0.2222222222222222
 40
0.3333333333333333
 40
0.3333333333333333
 40
0.3333333333333333
 40
0.3333333333333333
 40
0.4444444444444444
 40
0.4444444444444444
 40
0.4444444444444444
 40
0.4444444444444444
 40
0.5555555555555556
 40
0.5555555555555556
 40
0.5555555555555556
 40
0.5555555555555556
 40
0.6666666666666666
 40
0.6666666666666666
 40
0.6666666666666666
 40
0.6666666666666666
 40
0.7777777777777778
 40
0.7777777777777778
 40
0.7777777777777778
 40
0.7777777777777778
 40
1.0
 40
1.0
 40
1.0
 40
1.0
 10
-2.9138
 20
-12.4616
 30
0.0
 10
-2.9138
 20
-12.7932
 30
0.0
 10
-2.8748
 20
-13.0138
 30
0.0
 10
-2.7972
 20
-13.1238
 30
0.0
 10
-2.7972
 20
-13.1238
 30
0.0
 10
-2.7196
 20
-13.2334
 30
0.0
 10
-2.6241
 20
-13.2885
 30
0.0
 10
-2.5103
 20
-13.2885
 30
0.0
 10
-2.5103
 20
-13.2885
 30
0.0
 10
-2.396
 20
-13.2885
 30
0.0
 10
-2.3005
 20
-13.233
 30
0.0
 10
-2.2229
 20
-13.1229
 30
0.0
 10
-2.2229
 20
-13.1229
 30
0.0
 10
-2.1453
 20
-13.0128
 30
0.0
 10
-2.1062
 20
-12.7922
 30
0.0
 10
-2.1062
 20
-12.4616
 30
0.0
 10
-2.1062
 20
-12.4616
 30
0.0
 10
-2.1062
 20
-12.129
 30
0.0
 10
-2.1453
 20
-11.9079
 30
0.0
 10
-2.2229
 20
-11.7988
 30
0.0
 10
-2.2229
 20
-11.7988
 30
0.0
 10
-2.3005
 20
-11.6892
 30
0.0
 10
-2.3969
 20
-11.6347
 30
0.0
 10
-2.5126
 20
-11.6347
 30
0.0
 10
-2.5126
 20
-11.6347
 30
0.0
 10
-2.6269
 20
-11.6347
 30
0.0
 10
-2.7177
 20
-11.6831
 30
0.0
 10
-2.7859
 20
-11.7795
 30
0.0
 10
-2.7859
 20
-11.7795
 30
0.0
 10
-2.871
 20
-11.9023
 30
0.0
 10
-2.9138
 20
-12.13
 30
0.0
 10
-2.9138
 20
-12.4616
 30
0.0
  0
SPLINE
  5
4A
330
1F
100
AcDbEntity
  8
VRSTVA_1
 62
   250
100
AcDbSpline
210
0.0
220
0.0
230
1.0
 70
    11
 71
     3
 72
    20
 73
    16
 74
     0
 42
0.0000000001
 43
0.0000000001
 40
0.0
 40
0.0
 40
0.0
 40
0.0
 40
0.2
 40
0.2
 40
0.2
 40
0.2
 40
0.4
 40
0.4
 40
0.4
 40
0.4
 40
0.6
 40
0.6
 40
0.6
 40
0.6
 40
1.0
 40
1.0
 40
1.0
 40
1.0
 10
-0.8428
 20
-12.8515
 30
0.0
 10
-0.8428
 20
-12.8515
 30
0.0
 10
-0.8428
 20
-12.6022
 30
0.0
 10
-0.8428
 20
-12.6022
 30
0.0
 10
-0.8428
 20
-12.6022
 30
0.0
 10
-0.8428
 20
-12.6022
 30
0.0
 10
-0.0804
 20
-12.6022
 30
0.0
 10
-0.0804
 20
-12.6022
 30
0.0
 10
-0.0804
 20
-12.6022
 30
0.0
 10
-0.0804
 20
-12.6022
 30
0.0
 10
-0.0804
 20
-12.8515
 30
0.0
 10
-0.0804
 20
-12.8515
 30
0.0
 10
-0.0804
 20
-12.8515
 30
0.0
 10
-0.0804
 20
-12.8515
 30
0.0
 10
-0.8428
 20
-12.8515
 30
0.0
 10
-0.8428
 20
-12.8515
 30
0.0
  0
SPLINE
  5
4B
330
1F
100
AcDbEntity
  8
VRSTVA_1
 62
   250
100
AcDbSpline
210
0.0
220
0.0
230
1.0
 70
    11
 71
     3
 72
    68
 73
    64
 74
     0
 42
0.0000000001
 43
0.0000000001
 40
0.0
 40
0.0
 40
0.0
 40
0.0
 40
0.0588235294117647
 40
0.0588235294117647
 40
0.0588235294117647
 40
0.0588235294117647
 40
0.1176470588235294
 40
0.1176470588235294
 40
0.1176470588235294
 40
0.1176470588235294
 40
0.1764705882352941
 40
0.1764705882352941
 40
0.1764705882352941
 40
0.1764705882352941
 40
0.2352941176470588
 40
0.2352941176470588
 40
0.2352941176470588
 40
0.2352941176470588
 40
0.2941176470588235
 40
0.2941176470588235
 40
0.2941176470588235
 40
0.2941176470588235
 40
0.3529411764705883
 40
0.3529411764705883
 40
0.3529411764705883
 40
0.3529411764705883
 40
0.4117647058823529
 40
0.4117647058823529
 40
0.4117647058823529
 40
0.4117647058823529
 40
0.4705882352941176
 40
0.4705882352941176
 40
0.4705882352941176
 40
0.4705882352941176
 40
0.5294117647058824
 40
0.5294117647058824
 40
0.5294117647058824
 40
0.5294117647058824
 40
0.5882352941176471
 40
0.5882352941176471
 40
0.5882352941176471
 40
0.5882352941176471
 40
0.6470588235294118
 40
0.6470588235294118
 40
0.6470588235294118
 40
0.6470588235294118
 40
0.7058823529411765
 40
0.7058823529411765
 40
0.7058823529411765
 40
0.7058823529411765
 40
0.7647058823529411
 40
0.7647058823529411
 40
0.7647058823529411
 40
0.7647058823529411
 40
0.8235294117647058
 40
0.8235294117647058
 40
0.8235294117647058
 40
0.8235294117647058
 40
0.8823529411764706
 40
0.8823529411764706
 40
0.8823529411764706
 40
0.8823529411764706
 40
1.0
 40
1.0
 40
1.0
 40
1.0
 10
1.2908
 20
-12.3623
 30
0.0
 10
1.1877
 20
-12.3247
 30
0.0
 10
1.1115
 20
-12.2711
 30
0.0
 10
1.0617
 20
-12.201
 30
0.0
 10
1.0617
 20
-12.201
 30
0.0
 10
1.0123
 20
-12.1314
 30
0.0
 10
0.9874
 20
-12.0476
 30
0.0
 10
0.9874
 20
-11.9503
 30
0.0
 10
0.9874
 20
-11.9503
 30
0.0
 10
0.9874
 20
-11.8031
 30
0.0
 10
1.0401
 20
-11.6798
 30
0.0
 10
1.1459
 20
-11.5796
 30
0.0
 10
1.1459
 20
-11.5796
 30
0.0
 10
1.2517
 20
-11.4794
 30
0.0
 10
1.3919
 20
-11.4291
 30
0.0
 10
1.5673
 20
-11.4291
 30
0.0
 10
1.5673
 20
-11.4291
 30
0.0
 10
1.7437
 20
-11.4291
 30
0.0
 10
1.8858
 20
-11.4804
 30
0.0
 10
1.9935
 20
-11.5829
 30
0.0
 10
1.9935
 20
-11.5829
 30
0.0
 10
2.1007
 20
-11.6855
 30
0.0
 10
2.1544
 20
-11.8101
 30
0.0
 10
2.1544
 20
-11.9573
 30
0.0
 10
2.1544
 20
-11.9573
 30
0.0
 10
2.1544
 20
-12.0509
 30
0.0
 10
2.1299
 20
-12.1323
 30
0.0
 10
2.081
 20
-12.2019
 30
0.0
 10
2.081
 20
-12.2019
 30
0.0
 10
2.0316
 20
-12.2711
 30
0.0
 10
1.9573
 20
-12.3247
 30
0.0
 10
1.8571
 20
-12.3623
 30
0.0
 10
1.8571
 20
-12.3623
 30
0.0
 10
1.9808
 20
-12.4028
 30
0.0
 10
2.0753
 20
-12.4677
 30
0.0
 10
2.1402
 20
-12.558
 30
0.0
 10
2.1402
 20
-12.558
 30
0.0
 10
2.2047
 20
-12.6478
 30
0.0
 10
2.2371
 20
-12.7555
 30
0.0
 10
2.2371
 20
-12.8802
 30
0.0
 10
2.2371
 20
-12.8802
 30
0.0
 10
2.2371
 20
-13.0533
 30
0.0
 10
2.176
 20
-13.1982
 30
0.0
 10
2.0542
 20
-13.3157
 30
0.0
 10
2.0542
 20
-13.3157
 30
0.0
 10
1.9319
 20
-13.4333
 30
0.0
 10
1.771
 20
-13.4921
 30
0.0
 10
1.5716
 20
-13.4921
 30
0.0
 10
1.5716
 20
-13.4921
 30
0.0
 10
1.3721
 20
-13.4921
 30
0.0
 10
1.2117
 20
-13.4333
 30
0.0
 10
1.0894
 20
-13.3153
 30
0.0
 10
1.0894
 20
-13.3153
 30
0.0
 10
0.9671
 20
-13.1972
 30
0.0
 10
0.906
 20
-13.05
 30
0.0
 10
0.906
 20
-12.8736
 30
0.0
 10
0.906
 20
-12.8736
 30
0.0
 10
0.906
 20
-12.7424
 30
0.0
 10
0.9394
 20
-12.6323
 30
0.0
 10
1.0062
 20
-12.5434
 30
0.0
 10
1.0062
 20
-12.5434
 30
0.0
 10
1.0725
 20
-12.455
 30
0.0
 10
1.1675
 20
-12.3943
 30
0.0
 10
1.2908
 20
-12.3623
 30
0.0
  0
SPLINE
  5
4C
330
1F
100
AcDbEntity
  8
VRSTVA_1
 62
   250
100
AcDbSpline
210
0.0
220
0.0
230
1.0
 70
    11
 71
     3
 72
    36
 73
    32
 74
     0
 42
0.0000000001
 43
0.0000000001
 40
0.0
 40
0.0
 40
0.0
 40
0.0
 40
0.1111111111111111
 40
0.1111111111111111
 40
0.1111111111111111
 40
0.1111111111111111
 40
0.2222222222222222
 40
0.2222222222222222
 40
0.2222222222222222
 40
0.2222222222222222
 40
0.3333333333333333
 40
0.3333333333333333
 40
0.3333333333333333
 40
0.3333333333333333
 40
0.4444444444444444
 40
0.4444444444444444
 40
0.4444444444444444
 40
0.4444444444444444
 40
0.5555555555555556
 40
0.5555555555555556
 40
0.5555555555555556
 40
0.5555555555555556
 40
0.6666666666666666
 40
0.6666666666666666
 40
0.6666666666666666
 40
0.6666666666666666
 40
0.7777777777777778
 40
0.7777777777777778
 40
0.7777777777777778
 40
0.7777777777777778
 40
1.0
 40
1.0
 40
1.0
 40
1.0
 10
1.2409
 20
-11.9418
 30
0.0
 10
1.2409
 20
-12.0373
 30
0.0
 10
1.2719
 20
-12.1154
 30
0.0
 10
1.3331
 20
-12.1761
 30
0.0
 10
1.3331
 20
-12.1761
 30
0.0
 10
1.3947
 20
-12.2367
 30
0.0
 10
1.4747
 20
-12.2673
 30
0.0
 10
1.573
 20
-12.2673
 30
0.0
 10
1.573
 20
-12.2673
 30
0.0
 10
1.6685
 20
-12.2673
 30
0.0
 10
1.747
 20
-12.2372
 30
0.0
 10
1.8082
 20
-12.177
 30
0.0
 10
1.8082
 20
-12.177
 30
0.0
 10
1.8693
 20
-12.1168
 30
0.0
 10
1.8994
 20
-12.0429
 30
0.0
 10
1.8994
 20
-11.9559
 30
0.0
 10
1.8994
 20
-11.9559
 30
0.0
 10
1.8994
 20
-11.8647
 30
0.0
 10
1.8684
 20
-11.7885
 30
0.0
 10
1.8053
 20
-11.7264
 30
0.0
 10
1.8053
 20
-11.7264
 30
0.0
 10
1.7423
 20
-11.6643
 30
0.0
 10
1.6642
 20
-11.6332
 30
0.0
 10
1.5702
 20
-11.6332
 30
0.0
 10
1.5702
 20
-11.6332
 30
0.0
 10
1.4756
 20
-11.6332
 30
0.0
 10
1.3971
 20
-11.6638
 30
0.0
 10
1.3345
 20
-11.724
 30
0.0
 10
1.3345
 20
-11.724
 30
0.0
 10
1.2719
 20
-11.7847
 30
0.0
 10
1.2409
 20
-11.8576
 30
0.0
 10
1.2409
 20
-11.9418
 30
0.0
  0
SPLINE
  5
4D
330
1F
100
AcDbEntity
  8
VRSTVA_1
 62
   250
100
AcDbSpline
210
0.0
220
0.0
230
1.0
 70
    11
 71
     3
 72
    40
 73
    36
 74
     0
 42
0.0000000001
 43
0.0000000001
 40
0.0
 40
0.0
 40
0.0
 40
0.0
 40
0.1
 40
0.1
 40
0.1
 40
0.1
 40
0.2
 40
0.2
 40
0.2
 40
0.2
 40
0.3
 40
0.3
 40
0.3
 40
0.3
 40
0.4
 40
0.4
 40
0.4
 40
0.4
 40
0.5
 40
0.5
 40
0.5
 40
0.5
 40
0.6
 40
0.6
 40
0.6
 40
0.6
 40
0.7
 40
0.7
 40
0.7
 40
0.7
 40
0.8
 40
0.8
 40
0.8
 40
0.8
 40
1.0
 40
1.0
 40
1.0
 40
1.0
 10
1.1609
 20
-12.875
 30
0.0
 10
1.1609
 20
-12.9456
 30
0.0
 10
1.1779
 20
-13.0142
 30
0.0
 10
1.2113
 20
-13.0801
 30
0.0
 10
1.2113
 20
-13.0801
 30
0.0
 10
1.2447
 20
-13.1464
 30
0.0
 10
1.2945
 20
-13.1977
 30
0.0
 10
1.3608
 20
-13.2339
 30
0.0
 10
1.3608
 20
-13.2339
 30
0.0
 10
1.4272
 20
-13.2701
 30
0.0
 10
1.4982
 20
-13.2885
 30
0.0
 10
1.5744
 20
-13.2885
 30
0.0
 10
1.5744
 20
-13.2885
 30
0.0
 10
1.6929
 20
-13.2885
 30
0.0
 10
1.7908
 20
-13.2504
 30
0.0
 10
1.8679
 20
-13.1737
 30
0.0
 10
1.8679
 20
-13.1737
 30
0.0
 10
1.945
 20
-13.0975
 30
0.0
 10
1.9836
 20
-13.0006
 30
0.0
 10
1.9836
 20
-12.883
 30
0.0
 10
1.9836
 20
-12.883
 30
0.0
 10
1.9836
 20
-12.7635
 30
0.0
 10
1.9441
 20
-12.6648
 30
0.0
 10
1.8646
 20
-12.5867
 30
0.0
 10
1.8646
 20
-12.5867
 30
0.0
 10
1.7851
 20
-12.5086
 30
0.0
 10
1.6854
 20
-12.4696
 30
0.0
 10
1.5659
 20
-12.4696
 30
0.0
 10
1.5659
 20
-12.4696
 30
0.0
 10
1.4493
 20
-12.4696
 30
0.0
 10
1.3528
 20
-12.5081
 30
0.0
 10
1.2762
 20
-12.5853
 30
0.0
 10
1.2762
 20
-12.5853
 30
0.0
 10
1.1995
 20
-12.6629
 30
0.0
 10
1.1609
 20
-12.7593
 30
0.0
 10
1.1609
 20
-12.875
 30
0.0
  0
SPLINE
  5
4E
330
1F
100
AcDbEntity
  8
VRSTVA_1
 62
   250
100
AcDbSpline
210
0.0
220
0.0
230
1.0
 70
    11
 71
     3
 72
    52
 73
    48
 74
     0
 42
0.0000000001
 43
0.0000000001
 40
0.0
 40
0.0
 40
0.0
 40
0.0
 40
0.0769230769230769
 40
0.0769230769230769
 40
0.0769230769230769
 40
0.0769230769230769
 40
0.1538461538461539
 40
0.1538461538461539
 40
0.1538461538461539
 40
0.1538461538461539
 40
0.2307692307692308
 40
0.2307692307692308
 40
0.2307692307692308
 40
0.2307692307692308
 40
0.3076923076923077
 40
0.3076923076923077
 40
0.3076923076923077
 40
0.3076923076923077
 40
0.3846153846153846
 40
0.3846153846153846
 40
0.3846153846153846
 40
0.3846153846153846
 40
0.4615384615384616
 40
0.4615384615384616
 40
0.4615384615384616
 40
0.4615384615384616
 40
0.5384615384615384
 40
0.5384615384615384
 40
0.5384615384615384
 40
0.5384615384615384
 40
0.6153846153846154
 40
0.6153846153846154
 40
0.6153846153846154
 40
0.6153846153846154
 40
0.6923076923076923
 40
0.6923076923076923
 40
0.6923076923076923
 40
0.6923076923076923
 40
0.7692307692307693
 40
0.7692307692307693
 40
0.7692307692307693
 40
0.7692307692307693
 40
0.8461538461538461
 40
0.8461538461538461
 40
0.8461538461538461
 40
0.8461538461538461
 40
1.0
 40
1.0
 40
1.0
 40
1.0
 10
2.4784
 20
-12.4616
 30
0.0
 10
2.4784
 20
-12.2226
 30
0.0
 10
2.5029
 20
-12.0302
 30
0.0
 10
2.5523
 20
-11.8849
 30
0.0
 10
2.5523
 20
-11.8849
 30
0.0
 10
2.6012
 20
-11.7391
 30
0.0
 10
2.6746
 20
-11.6267
 30
0.0
 10
2.7715
 20
-11.5476
 30
0.0
 10
2.7715
 20
-11.5476
 30
0.0
 10
2.8684
 20
-11.4686
 30
0.0
 10
2.9902
 20
-11.4291
 30
0.0
 10
3.1369
 20
-11.4291
 30
0.0
 10
3.1369
 20
-11.4291
 30
0.0
 10
3.2456
 20
-11.4291
 30
0.0
 10
3.3406
 20
-11.4512
 30
0.0
 10
3.4224
 20
-11.495
 30
0.0
 10
3.4224
 20
-11.495
 30
0.0
 10
3.5043
 20
-11.5382
 30
0.0
 10
3.5716
 20
-11.6013
 30
0.0
 10
3.6252
 20
-11.6836
 30
0.0
 10
3.6252
 20
-11.6836
 30
0.0
 10
3.6783
 20
-11.7659
 30
0.0
 10
3.7202
 20
-11.8661
 30
0.0
 10
3.7503
 20
-11.9841
 30
0.0
 10
3.7503
 20
-11.9841
 30
0.0
 10
3.7809
 20
-12.1022
 30
0.0
 10
3.7959
 20
-12.2612
 30
0.0
 10
3.7959
 20
-12.4616
 30
0.0
 10
3.7959
 20
-12.4616
 30
0.0
 10
3.7959
 20
-12.6986
 30
0.0
 10
3.7715
 20
-12.8896
 30
0.0
 10
3.723
 20
-13.0354
 30
0.0
 10
3.723
 20
-13.0354
 30
0.0
 10
3.6741
 20
-13.1812
 30
0.0
 10
3.6012
 20
-13.2936
 30
0.0
 10
3.5043
 20
-13.3731
 30
0.0
 10
3.5043
 20
-13.3731
 30
0.0
 10
3.4074
 20
-13.4526
 30
0.0
 10
3.2851
 20
-13.4921
 30
0.0
 10
3.1369
 20
-13.4921
 30
0.0
 10
3.1369
 20
-13.4921
 30
0.0
 10
2.9422
 20
-13.4921
 30
0.0
 10
2.7893
 20
-13.4225
 30
0.0
 10
2.6783
 20
-13.2828
 30
0.0
 10
2.6783
 20
-13.2828
 30
0.0
 10
2.5452
 20
-13.1149
 30
0.0
 10
2.4784
 20
-12.8407
 30
0.0
 10
2.4784
 20
-12.4616
 30
0.0
  0
SPLINE
  5
4F
330
1F
100
AcDbEntity
  8
VRSTVA_1
 62
   250
100
AcDbSpline
210
0.0
220
0.0
230
1.0
 70
    11
 71
     3
 72
    36
 73
    32
 74
     0
 42
0.0000000001
 43
0.0000000001
 40
0.0
 40
0.0
 40
0.0
 40
0.0
 40
0.1111111111111111
 40
0.1111111111111111
 40
0.1111111111111111
 40
0.1111111111111111
 40
0.2222222222222222
 40
0.2222222222222222
 40
0.2222222222222222
 40
0.2222222222222222
 40
0.3333333333333333
 40
0.3333333333333333
 40
0.3333333333333333
 40
0.3333333333333333
 40
0.4444444444444444
 40
0.4444444444444444
 40
0.4444444444444444
 40
0.4444444444444444
 40
0.5555555555555556
 40
0.5555555555555556
 40
0.5555555555555556
 40
0.5555555555555556
 40
0.6666666666666666
 40
0.6666666666666666
 40
0.6666666666666666
 40
0.6666666666666666
 40
0.7777777777777778
 40
0.7777777777777778
 40
0.7777777777777778
 40
0.7777777777777778
 40
1.0
 40
1.0
 40
1.0
 40
1.0
 10
2.7334
 20
-12.4616
 30
0.0
 10
2.7334
 20
-12.7932
 30
0.0
 10
2.7724
 20
-13.0138
 30
0.0
 10
2.85
 20
-13.1238
 30
0.0
 10
2.85
 20
-13.1238
 30
0.0
 10
2.9276
 20
-13.2334
 30
0.0
 10
3.0231
 20
-13.2885
 30
0.0
 10
3.1369
 20
-13.2885
 30
0.0
 10
3.1369
 20
-13.2885
 30
0.0
 10
3.2512
 20
-13.2885
 30
0.0
 10
3.3467
 20
-13.233
 30
0.0
 10
3.4243
 20
-13.1229
 30
0.0
 10
3.4243
 20
-13.1229
 30
0.0
 10
3.5019
 20
-13.0128
 30
0.0
 10
3.541
 20
-12.7922
 30
0.0
 10
3.541
 20
-12.4616
 30
0.0
 10
3.541
 20
-12.4616
 30
0.0
 10
3.541
 20
-12.129
 30
0.0
 10
3.5019
 20
-11.9079
 30
0.0
 10
3.4243
 20
-11.7988
 30
0.0
 10
3.4243
 20
-11.7988
 30
0.0
 10
3.3467
 20
-11.6892
 30
0.0
 10
3.2503
 20
-11.6347
 30
0.0
 10
3.1346
 20
-11.6347
 30
0.0
 10
3.1346
 20
-11.6347
 30
0.0
 10
3.0203
 20
-11.6347
 30
0.0
 10
2.9295
 20
-11.6831
 30
0.0
 10
2.8613
 20
-11.7795
 30
0.0
 10
2.8613
 20
-11.7795
 30
0.0
 10
2.7762
 20
-11.9023
 30
0.0
 10
2.7334
 20
-12.13
 30
0.0
 10
2.7334
 20
-12.4616
 30
0.0
  0
SPLINE
  5
50
330
1F
100
AcDbEntity
  8
VRSTVA_1
 62
   250
100
AcDbSpline
210
0.0
220
0.0
230
1.0
 70
    11
 71
     3
 72
    52
 73
    48
 74
     0
 42
0.0000000001
 43
0.0000000001
 40
0.0
 40
0.0
 40
0.0
 40
0.0
 40
0.0769230769230769
 40
0.0769230769230769
 40
0.0769230769230769
 40
0.0769230769230769
 40
0.1538461538461539
 40
0.1538461538461539
 40
0.1538461538461539
 40
0.1538461538461539
 40
0.2307692307692308
 40
0.2307692307692308
 40
0.2307692307692308
 40
0.2307692307692308
 40
0.3076923076923077
 40
0.3076923076923077
 40
0.3076923076923077
 40
0.3076923076923077
 40
0.3846153846153846
 40
0.3846153846153846
 40
0.3846153846153846
 40
0.3846153846153846
 40
0.4615384615384616
 40
0.4615384615384616
 40
0.4615384615384616
 40
0.4615384615384616
 40
0.5384615384615384
 40
0.5384615384615384
 40
0.5384615384615384
 40
0.5384615384615384
 40
0.6153846153846154
 40
0.6153846153846154
 40
0.6153846153846154
 40
0.6153846153846154
 40
0.6923076923076923
 40
0.6923076923076923
 40
0.6923076923076923
 40
0.6923076923076923
 40
0.7692307692307693
 40
0.7692307692307693
 40
0.7692307692307693
 40
0.7692307692307693
 40
0.8461538461538461
 40
0.8461538461538461
 40
0.8461538461538461
 40
0.8461538461538461
 40
1.0
 40
1.0
 40
1.0
 40
1.0
 10
4.048
 20
-12.4616
 30
0.0
 10
4.048
 20
-12.2226
 30
0.0
 10
4.0725
 20
-12.0302
 30
0.0
 10
4.1219
 20
-11.8849
 30
0.0
 10
4.1219
 20
-11.8849
 30
0.0
 10
4.1708
 20
-11.7391
 30
0.0
 10
4.2442
 20
-11.6267
 30
0.0
 10
4.3411
 20
-11.5476
 30
0.0
 10
4.3411
 20
-11.5476
 30
0.0
 10
4.438
 20
-11.4686
 30
0.0
 10
4.5598
 20
-11.4291
 30
0.0
 10
4.7065
 20
-11.4291
 30
0.0
 10
4.7065
 20
-11.4291
 30
0.0
 10
4.8152
 20
-11.4291
 30
0.0
 10
4.9102
 20
-11.4512
 30
0.0
 10
4.992
 20
-11.495
 30
0.0
 10
4.992
 20
-11.495
 30
0.0
 10
5.0739
 20
-11.5382
 30
0.0
 10
5.1412
 20
-11.6013
 30
0.0
 10
5.1948
 20
-11.6836
 30
0.0
 10
5.1948
 20
-11.6836
 30
0.0
 10
5.2479
 20
-11.7659
 30
0.0
 10
5.2898
 20
-11.8661
 30
0.0
 10
5.3199
 20
-11.9841
 30
0.0
 10
5.3199
 20
-11.9841
 30
0.0
 10
5.3505
 20
-12.1022
 30
0.0
 10
5.3655
 20
-12.2612
 30
0.0
 10
5.3655
 20
-12.4616
 30
0.0
 10
5.3655
 20
-12.4616
 30
0.0
 10
5.3655
 20
-12.6986
 30
0.0
 10
5.3411
 20
-12.8896
 30
0.0
 10
5.2926
 20
-13.0354
 30
0.0
 10
5.2926
 20
-13.0354
 30
0.0
 10
5.2437
 20
-13.1812
 30
0.0
 10
5.1708
 20
-13.2936
 30
0.0
 10
5.0739
 20
-13.3731
 30
0.0
 10
5.0739
 20
-13.3731
 30
0.0
 10
4.977
 20
-13.4526
 30
0.0
 10
4.8547
 20
-13.4921
 30
0.0
 10
4.7065
 20
-13.4921
 30
0.0
 10
4.7065
 20
-13.4921
 30
0.0
 10
4.5118
 20
-13.4921
 30
0.0
 10
4.3589
 20
-13.4225
 30
0.0
 10
4.2479
 20
-13.2828
 30
0.0
 10
4.2479
 20
-13.2828
 30
0.0
 10
4.1148
 20
-13.1149
 30
0.0
 10
4.048
 20
-12.8407
 30
0.0
 10
4.048
 20
-12.4616
 30
0.0
  0
SPLINE
  5
51
330
1F
100
AcDbEntity
  8
VRSTVA_1
 62
   250
100
AcDbSpline
210
0.0
220
0.0
230
1.0
 70
    11
 71
     3
 72
    36
 73
    32
 74
     0
 42
0.0000000001
 43
0.0000000001
 40
0.0
 40
0.0
 40
0.0
 40
0.0
 40
0.1111111111111111
 40
0.1111111111111111
 40
0.1111111111111111
 40
0.1111111111111111
 40
0.2222222222222222
 40
0.2222222222222222
 40
0.2222222222222222
 40
0.2222222222222222
 40
0.3333333333333333
 40
0.3333333333333333
 40
0.3333333333333333
 40
0.3333333333333333
 40
0.4444444444444444
 40
0.4444444444444444
 40
0.4444444444444444
 40
0.4444444444444444
 40
0.5555555555555556
 40
0.5555555555555556
 40
0.5555555555555556
 40
0.5555555555555556
 40
0.6666666666666666
 40
0.6666666666666666
 40
0.6666666666666666
 40
0.6666666666666666
 40
0.7777777777777778
 40
0.7777777777777778
 40
0.7777777777777778
 40
0.7777777777777778
 40
1.0
 40
1.0
 40
1.0
 40
1.0
 10
4.303
 20
-12.4616
 30
0.0
 10
4.303
 20
-12.7932
 30
0.0
 10
4.342
 20
-13.0138
 30
0.0
 10
4.4196
 20
-13.1238
 30
0.0
 10
4.4196
 20
-13.1238
 30
0.0
 10
4.4972
 20
-13.2334
 30
0.0
 10
4.5927
 20
-13.2885
 30
0.0
 10
4.7065
 20
-13.2885
 30
0.0
 10
4.7065
 20
-13.2885
 30
0.0
 10
4.8208
 20
-13.2885
 30
0.0
 10
4.9163
 20
-13.233
 30
0.0
 10
4.9939
 20
-13.1229
 30
0.0
 10
4.9939
 20
-13.1229
 30
0.0
 10
5.0715
 20
-13.0128
 30
0.0
 10
5.1106
 20
-12.7922
 30
0.0
 10
5.1106
 20
-12.4616
 30
0.0
 10
5.1106
 20
-12.4616
 30
0.0
 10
5.1106
 20
-12.129
 30
0.0
 10
5.0715
 20
-11.9079
 30
0.0
 10
4.9939
 20
-11.7988
 30
0.0
 10
4.9939
 20
-11.7988
 30
0.0
 10
4.9163
 20
-11.6892
 30
0.0
 10
4.8199
 20
-11.6347
 30
0.0
 10
4.7042
 20
-11.6347
 30
0.0
 10
4.7042
 20
-11.6347
 30
0.0
 10
4.5899
 20
-11.6347
 30
0.0
 10
4.4991
 20
-11.6831
 30
0.0
 10
4.4309
 20
-11.7795
 30
0.0
 10
4.4309
 20
-11.7795
 30
0.0
 10
4.3458
 20
-11.9023
 30
0.0
 10
4.303
 20
-12.13
 30
0.0
 10
4.303
 20
-12.4616
 30
0.0
  0
SPLINE
  5
52
330
1F
100
AcDbEntity
  8
VRSTVA_1
 62
   250
100
AcDbSpline
210
0.0
220
0.0
230
1.0
 70
    11
 71
     3
 72
    84
 73
    80
 74
     0
 42
0.0000000001
 43
0.0000000001
 40
0.0
 40
0.0
 40
0.0
 40
0.0
 40
0.0476190476190476
 40
0.0476190476190476
 40
0.0476190476190476
 40
0.0476190476190476
 40
0.0952380952380952
 40
0.0952380952380952
 40
0.0952380952380952
 40
0.0952380952380952
 40
0.1428571428571428
 40
0.1428571428571428
 40
0.1428571428571428
 40
0.1428571428571428
 40
0.1904761904761905
 40
0.1904761904761905
 40
0.1904761904761905
 40
0.1904761904761905
 40
0.2380952380952381
 40
0.2380952380952381
 40
0.2380952380952381
 40
0.2380952380952381
 40
0.2857142857142857
 40
0.2857142857142857
 40
0.2857142857142857
 40
0.2857142857142857
 40
0.3333333333333333
 40
0.3333333333333333
 40
0.3333333333333333
 40
0.3333333333333333
 40
0.3809523809523809
 40
0.3809523809523809
 40
0.3809523809523809
 40
0.3809523809523809
 40
0.4285714285714285
 40
0.4285714285714285
 40
0.4285714285714285
 40
0.4285714285714285
 40
0.4761904761904762
 40
0.4761904761904762
 40
0.4761904761904762
 40
0.4761904761904762
 40
0.5238095238095238
 40
0.5238095238095238
 40
0.5238095238095238
 40
0.5238095238095238
 40
0.5714285714285714
 40
0.5714285714285714
 40
0.5714285714285714
 40
0.5714285714285714
 40
0.6190476190476191
 40
0.6190476190476191
 40
0.6190476190476191
 40
0.6190476190476191
 40
0.6666666666666666
 40
0.6666666666666666
 40
0.6666666666666666
 40
0.6666666666666666
 40
0.7142857142857143
 40
0.7142857142857143
 40
0.7142857142857143
 40
0.7142857142857143
 40
0.7619047619047619
 40
0.7619047619047619
 40
0.7619047619047619
 40
0.7619047619047619
 40
0.8095238095238095
 40
0.8095238095238095
 40
0.8095238095238095
 40
0.8095238095238095
 40
0.8571428571428571
 40
0.8571428571428571
 40
0.8571428571428571
 40
0.8571428571428571
 40
0.9047619047619048
 40
0.9047619047619048
 40
0.9047619047619048
 40
0.9047619047619048
 40
1.0
 40
1.0
 40
1.0
 40
1.0
 10
-41.0825
 20
-9.3321
 30
0.0
 10
-41.0825
 20
-9.3321
 30
0.0
 10
-41.3409
 20
-9.0999
 30
0.0
 10
-41.3409
 20
-9.0999
 30
0.0
 10
-41.3409
 20
-9.0999
 30
0.0
 10
-41.3409
 20
-9.0999
 30
0.0
 10
-41.2248
 20
-8.9639
 30
0.0
 10
-41.2248
 20
-8.9639
 30
0.0
 10
-41.2248
 20
-8.9639
 30
0.0
 10
-41.2248
 20
-8.9639
 30
0.0
 10
-40.9527
 20
-9.2069
 30
0.0
 10
-40.9527
 20
-9.2069
 30
0.0
 10
-40.9527
 20
-9.2069
 30
0.0
 10
-40.8349
 20
-9.1282
 30
0.0
 10
-40.7317
 20
-9.0754
 30
0.0
 10
-40.6438
 20
-9.0479
 30
0.0
 10
-40.6438
 20
-9.0479
 30
0.0
 10
-40.5278
 20
-9.0116
 30
0.0
 10
-40.398
 20
-8.9936
 30
0.0
 10
-40.255
 20
-8.9941
 30
0.0
 10
-40.255
 20
-8.9941
 30
0.0
 10
-40.0481
 20
-8.9947
 30
0.0
 10
-39.8638
 20
-9.0371
 30
0.0
 10
-39.7028
 20
-9.1213
 30
0.0
 10
-39.7028
 20
-9.1213
 30
0.0
 10
-39.5411
 20
-9.2055
 30
0.0
 10
-39.4193
 20
-9.323
 30
0.0
 10
-39.3369
 20
-9.4742
 30
0.0
 10
-39.3369
 20
-9.4742
 30
0.0
 10
-39.2551
 20
-9.626
 30
0.0
 10
-39.2142
 20
-9.7864
 30
0.0
 10
-39.2147
 20
-9.9562
 30
0.0
 10
-39.2147
 20
-9.9562
 30
0.0
 10
-39.2151
 20
-10.0832
 30
0.0
 10
-39.2332
 20
-10.198
 30
0.0
 10
-39.2693
 20
-10.3008
 30
0.0
 10
-39.2693
 20
-10.3008
 30
0.0
 10
-39.2973
 20
-10.3798
 30
0.0
 10
-39.3502
 20
-10.4718
 30
0.0
 10
-39.4286
 20
-10.5775
 30
0.0
 10
-39.4286
 20
-10.5775
 30
0.0
 10
-39.4286
 20
-10.5775
 30
0.0
 10
-39.1701
 20
-10.8096
 30
0.0
 10
-39.1701
 20
-10.8096
 30
0.0
 10
-39.1701
 20
-10.8096
 30
0.0
 10
-39.1701
 20
-10.8096
 30
0.0
 10
-39.2863
 20
-10.9457
 30
0.0
 10
-39.2863
 20
-10.9457
 30
0.0
 10
-39.2863
 20
-10.9457
 30
0.0
 10
-39.2863
 20
-10.9457
 30
0.0
 10
-39.5569
 20
-10.7022
 30
0.0
 10
-39.5569
 20
-10.7022
 30
0.0
 10
-39.5569
 20
-10.7022
 30
0.0
 10
-39.6941
 20
-10.7921
 30
0.0
 10
-39.8114
 20
-10.8519
 30
0.0
 10
-39.9084
 20
-10.8817
 30
0.0
 10
-39.9084
 20
-10.8817
 30
0.0
 10
-40.0054
 20
-10.9115
 30
0.0
 10
-40.1221
 20
-10.9267
 30
0.0
 10
-40.258
 20
-10.9263
 30
0.0
 10
-40.258
 20
-10.9263
 30
0.0
 10
-40.4654
 20
-10.9257
 30
0.0
 10
-40.6502
 20
-10.8837
 30
0.0
 10
-40.8122
 20
-10.8005
 30
0.0
 10
-40.8122
 20
-10.8005
 30
0.0
 10
-40.9743
 20
-10.7172
 30
0.0
 10
-41.0966
 20
-10.6012
 30
0.0
 10
-41.1799
 20
-10.4513
 30
0.0
 10
-41.1799
 20
-10.4513
 30
0.0
 10
-41.2627
 20
-10.302
 30
0.0
 10
-41.3041
 20
-10.1357
 30
0.0
 10
-41.3036
 20
-9.9528
 30
0.0
 10
-41.3036
 20
-9.9528
 30
0.0
 10
-41.3032
 20
-9.8295
 30
0.0
 10
-41.2869
 20
-9.7219
 30
0.0
 10
-41.2536
 20
-9.6298
 30
0.0
 10
-41.2536
 20
-9.6298
 30
0.0
 10
-41.2209
 20
-9.5377
 30
0.0
 10
-41.1637
 20
-9.4381
 30
0.0
 10
-41.0825
 20
-9.3321
 30
0.0
  0
SPLINE
  5
53
330
1F
100
AcDbEntity
  8
VRSTVA_1
 62
   250
100
AcDbSpline
210
0.0
220
0.0
230
1.0
 70
    11
 71
     3
 72
    32
 73
    28
 74
     0
 42
0.0000000001
 43
0.0000000001
 40
0.0
 40
0.0
 40
0.0
 40
0.0
 40
0.125
 40
0.125
 40
0.125
 40
0.125
 40
0.25
 40
0.25
 40
0.25
 40
0.25
 40
0.375
 40
0.375
 40
0.375
 40
0.375
 40
0.5
 40
0.5
 40
0.5
 40
0.5
 40
0.625
 40
0.625
 40
0.625
 40
0.625
 40
0.75
 40
0.75
 40
0.75
 40
0.75
 40
1.0
 40
1.0
 40
1.0
 40
1.0
 10
-40.8972
 20
-9.4977
 30
0.0
 10
-40.9652
 20
-9.5841
 30
0.0
 10
-41.012
 20
-9.6597
 30
0.0
 10
-41.0371
 20
-9.724
 30
0.0
 10
-41.0371
 20
-9.724
 30
0.0
 10
-41.0618
 20
-9.7889
 30
0.0
 10
-41.0747
 20
-9.865
 30
0.0
 10
-41.075
 20
-9.9521
 30
0.0
 10
-41.075
 20
-9.9521
 30
0.0
 10
-41.0756
 20
-10.1534
 30
0.0
 10
-41.0079
 20
-10.3196
 30
0.0
 10
-40.8719
 20
-10.4517
 30
0.0
 10
-40.8719
 20
-10.4517
 30
0.0
 10
-40.7358
 20
-10.5834
 30
0.0
 10
-40.5324
 20
-10.6498
 30
0.0
 10
-40.261
 20
-10.6507
 30
0.0
 10
-40.261
 20
-10.6507
 30
0.0
 10
-40.1547
 20
-10.651
 30
0.0
 10
-40.06
 20
-10.641
 30
0.0
 10
-39.9772
 20
-10.6209
 30
0.0
 10
-39.9772
 20
-10.6209
 30
0.0
 10
-39.9155
 20
-10.6065
 30
0.0
 10
-39.8397
 20
-10.5762
 30
0.0
 10
-39.7498
 20
-10.5294
 30
0.0
 10
-39.7498
 20
-10.5294
 30
0.0
 10
-39.7498
 20
-10.5294
 30
0.0
 10
-40.8972
 20
-9.4977
 30
0.0
 10
-40.8972
 20
-9.4977
 30
0.0
  0
SPLINE
  5
54
330
1F
100
AcDbEntity
  8
VRSTVA_1
 62
   250
100
AcDbSpline
210
0.0
220
0.0
230
1.0
 70
    11
 71
     3
 72
    28
 73
    24
 74
     0
 42
0.0000000001
 43
0.0000000001
 40
0.0
 40
0.0
 40
0.0
 40
0.0
 40
0.1428571428571428
 40
0.1428571428571428
 40
0.1428571428571428
 40
0.1428571428571428
 40
0.2857142857142857
 40
0.2857142857142857
 40
0.2857142857142857
 40
0.2857142857142857
 40
0.4285714285714285
 40
0.4285714285714285
 40
0.4285714285714285
 40
0.4285714285714285
 40
0.5714285714285714
 40
0.5714285714285714
 40
0.5714285714285714
 40
0.5714285714285714
 40
0.7142857142857143
 40
0.7142857142857143
 40
0.7142857142857143
 40
0.7142857142857143
 40
1.0
 40
1.0
 40
1.0
 40
1.0
 10
-40.7548
 20
-9.3853
 30
0.0
 10
-40.7548
 20
-9.3853
 30
0.0
 10
-39.6116
 20
-10.4127
 30
0.0
 10
-39.6116
 20
-10.4127
 30
0.0
 10
-39.6116
 20
-10.4127
 30
0.0
 10
-39.5535
 20
-10.3424
 30
0.0
 10
-39.5128
 20
-10.2771
 30
0.0
 10
-39.4897
 20
-10.2174
 30
0.0
 10
-39.4897
 20
-10.2174
 30
0.0
 10
-39.4588
 20
-10.1395
 30
0.0
 10
-39.4436
 20
-10.0548
 30
0.0
 10
-39.4433
 20
-9.964
 30
0.0
 10
-39.4433
 20
-9.964
 30
0.0
 10
-39.4427
 20
-9.7636
 30
0.0
 10
-39.5127
 20
-9.5983
 30
0.0
 10
-39.6539
 20
-9.4672
 30
0.0
 10
-39.6539
 20
-9.4672
 30
0.0
 10
-39.7951
 20
-9.3365
 30
0.0
 10
-39.9934
 20
-9.2705
 30
0.0
 10
-40.2488
 20
-9.2697
 30
0.0
 10
-40.2488
 20
-9.2697
 30
0.0
 10
-40.4397
 20
-9.2691
 30
0.0
 10
-40.6087
 20
-9.3076
 30
0.0
 10
-40.7548
 20
-9.3853
 30
0.0
  0
SPLINE
  5
55
330
1F
100
AcDbEntity
  8
VRSTVA_1
 62
   250
100
AcDbSpline
210
0.0
220
0.0
230
1.0
 70
    11
 71
     3
 72
    48
 73
    44
 74
     0
 42
0.0000000001
 43
0.0000000001
 40
0.0
 40
0.0
 40
0.0
 40
0.0
 40
0.0833333333333333
 40
0.0833333333333333
 40
0.0833333333333333
 40
0.0833333333333333
 40
0.1666666666666667
 40
0.1666666666666667
 40
0.1666666666666667
 40
0.1666666666666667
 40
0.25
 40
0.25
 40
0.25
 40
0.25
 40
0.3333333333333333
 40
0.3333333333333333
 40
0.3333333333333333
 40
0.3333333333333333
 40
0.4166666666666667
 40
0.4166666666666667
 40
0.4166666666666667
 40
0.4166666666666667
 40
0.5
 40
0.5
 40
0.5
 40
0.5
 40
0.5833333333333334
 40
0.5833333333333334
 40
0.5833333333333334
 40
0.5833333333333334
 40
0.6666666666666666
 40
0.6666666666666666
 40
0.6666666666666666
 40
0.6666666666666666
 40
0.75
 40
0.75
 40
0.75
 40
0.75
 40
0.8333333333333334
 40
0.8333333333333334
 40
0.8333333333333334
 40
0.8333333333333334
 40
1.0
 40
1.0
 40
1.0
 40
1.0
 10
-39.243
 20
-7.9529
 30
0.0
 10
-39.243
 20
-7.9529
 30
0.0
 10
-39.7265
 20
-7.9515
 30
0.0
 10
-39.7265
 20
-7.9515
 30
0.0
 10
-39.7265
 20
-7.9515
 30
0.0
 10
-39.7265
 20
-7.9515
 30
0.0
 10
-39.7291
 20
-8.8278
 30
0.0
 10
-39.7291
 20
-8.8278
 30
0.0
 10
-39.7291
 20
-8.8278
 30
0.0
 10
-39.7291
 20
-8.8278
 30
0.0
 10
-39.9568
 20
-8.8271
 30
0.0
 10
-39.9568
 20
-8.8271
 30
0.0
 10
-39.9568
 20
-8.8271
 30
0.0
 10
-39.9568
 20
-8.8271
 30
0.0
 10
-41.263
 20
-7.9011
 30
0.0
 10
-41.263
 20
-7.9011
 30
0.0
 10
-41.263
 20
-7.9011
 30
0.0
 10
-41.263
 20
-7.9011
 30
0.0
 10
-41.2624
 20
-7.6984
 30
0.0
 10
-41.2624
 20
-7.6984
 30
0.0
 10
-41.2624
 20
-7.6984
 30
0.0
 10
-41.2624
 20
-7.6984
 30
0.0
 10
-39.9534
 20
-7.7024
 30
0.0
 10
-39.9534
 20
-7.7024
 30
0.0
 10
-39.9534
 20
-7.7024
 30
0.0
 10
-39.9534
 20
-7.7024
 30
0.0
 10
-39.9526
 20
-7.4296
 30
0.0
 10
-39.9526
 20
-7.4296
 30
0.0
 10
-39.9526
 20
-7.4296
 30
0.0
 10
-39.9526
 20
-7.4296
 30
0.0
 10
-39.7249
 20
-7.4303
 30
0.0
 10
-39.7249
 20
-7.4303
 30
0.0
 10
-39.7249
 20
-7.4303
 30
0.0
 10
-39.7249
 20
-7.4303
 30
0.0
 10
-39.7257
 20
-7.7031
 30
0.0
 10
-39.7257
 20
-7.7031
 30
0.0
 10
-39.7257
 20
-7.7031
 30
0.0
 10
-39.7257
 20
-7.7031
 30
0.0
 10
-39.2422
 20
-7.7045
 30
0.0
 10
-39.2422
 20
-7.7045
 30
0.0
 10
-39.2422
 20
-7.7045
 30
0.0
 10
-39.2422
 20
-7.7045
 30
0.0
 10
-39.243
 20
-7.9529
 30
0.0
 10
-39.243
 20
-7.9529
 30
0.0
  0
SPLINE
  5
56
330
1F
100
AcDbEntity
  8
VRSTVA_1
 62
   250
100
AcDbSpline
210
0.0
220
0.0
230
1.0
 70
    11
 71
     3
 72
    16
 73
    12
 74
     0
 42
0.0000000001
 43
0.0000000001
 40
0.0
 40
0.0
 40
0.0
 40
0.0
 40
0.25
 40
0.25
 40
0.25
 40
0.25
 40
0.5
 40
0.5
 40
0.5
 40
0.5
 40
1.0
 40
1.0
 40
1.0
 40
1.0
 10
-39.9542
 20
-7.9508
 30
0.0
 10
-39.9542
 20
-7.9508
 30
0.0
 10
-40.8648
 20
-7.948
 30
0.0
 10
-40.8648
 20
-7.948
 30
0.0
 10
-40.8648
 20
-7.948
 30
0.0
 10
-40.8648
 20
-7.948
 30
0.0
 10
-39.9561
 20
-8.5829
 30
0.0
 10
-39.9561
 20
-8.5829
 30
0.0
 10
-39.9561
 20
-8.5829
 30
0.0
 10
-39.9561
 20
-8.5829
 30
0.0
 10
-39.9542
 20
-7.9508
 30
0.0
 10
-39.9542
 20
-7.9508
 30
0.0
  0
SPLINE
  5
57
330
1F
100
AcDbEntity
  8
VRSTVA_1
 62
   250
100
AcDbSpline
210
0.0
220
0.0
230
1.0
 70
    11
 71
     3
 72
    52
 73
    48
 74
     0
 42
0.0000000001
 43
0.0000000001
 40
0.0
 40
0.0
 40
0.0
 40
0.0
 40
0.0769230769230769
 40
0.0769230769230769
 40
0.0769230769230769
 40
0.0769230769230769
 40
0.1538461538461539
 40
0.1538461538461539
 40
0.1538461538461539
 40
0.1538461538461539
 40
0.2307692307692308
 40
0.2307692307692308
 40
0.2307692307692308
 40
0.2307692307692308
 40
0.3076923076923077
 40
0.3076923076923077
 40
0.3076923076923077
 40
0.3076923076923077
 40
0.3846153846153846
 40
0.3846153846153846
 40
0.3846153846153846
 40
0.3846153846153846
 40
0.4615384615384616
 40
0.4615384615384616
 40
0.4615384615384616
 40
0.4615384615384616
 40
0.5384615384615384
 40
0.5384615384615384
 40
0.5384615384615384
 40
0.5384615384615384
 40
0.6153846153846154
 40
0.6153846153846154
 40
0.6153846153846154
 40
0.6153846153846154
 40
0.6923076923076923
 40
0.6923076923076923
 40
0.6923076923076923
 40
0.6923076923076923
 40
0.7692307692307693
 40
0.7692307692307693
 40
0.7692307692307693
 40
0.7692307692307693
 40
0.8461538461538461
 40
0.8461538461538461
 40
0.8461538461538461
 40
0.8461538461538461
 40
1.0
 40
1.0
 40
1.0
 40
1.0
 10
-40.2368
 20
-7.1752
 30
0.0
 10
-40.4758
 20
-7.1745
 30
0.0
 10
-40.6681
 20
-7.1494
 30
0.0
 10
-40.8133
 20
-7.0996
 30
0.0
 10
-40.8133
 20
-7.0996
 30
0.0
 10
-40.959
 20
-7.0503
 30
0.0
 10
-41.0711
 20
-6.9765
 30
0.0
 10
-41.1499
 20
-6.8794
 30
0.0
 10
-41.1499
 20
-6.8794
 30
0.0
 10
-41.2286
 20
-6.7822
 30
0.0
 10
-41.2678
 20
-6.6603
 30
0.0
 10
-41.2673
 20
-6.5136
 30
0.0
 10
-41.2673
 20
-6.5136
 30
0.0
 10
-41.267
 20
-6.4049
 30
0.0
 10
-41.2446
 20
-6.31
 30
0.0
 10
-41.2006
 20
-6.2283
 30
0.0
 10
-41.2006
 20
-6.2283
 30
0.0
 10
-41.1571
 20
-6.1466
 30
0.0
 10
-41.0938
 20
-6.0794
 30
0.0
 10
-41.0114
 20
-6.0261
 30
0.0
 10
-41.0114
 20
-6.0261
 30
0.0
 10
-40.9289
 20
-5.9732
 30
0.0
 10
-40.8286
 20
-5.9316
 30
0.0
 10
-40.7105
 20
-5.9019
 30
0.0
 10
-40.7105
 20
-5.9019
 30
0.0
 10
-40.5923
 20
-5.8716
 30
0.0
 10
-40.4333
 20
-5.8571
 30
0.0
 10
-40.2329
 20
-5.8577
 30
0.0
 10
-40.2329
 20
-5.8577
 30
0.0
 10
-39.9959
 20
-5.8584
 30
0.0
 10
-39.8049
 20
-5.8834
 30
0.0
 10
-39.6593
 20
-5.9324
 30
0.0
 10
-39.6593
 20
-5.9324
 30
0.0
 10
-39.5136
 20
-5.9817
 30
0.0
 10
-39.4015
 20
-6.0549
 30
0.0
 10
-39.3222
 20
-6.1521
 30
0.0
 10
-39.3222
 20
-6.1521
 30
0.0
 10
-39.243
 20
-6.2492
 30
0.0
 10
-39.2039
 20
-6.3716
 30
0.0
 10
-39.2043
 20
-6.5198
 30
0.0
 10
-39.2043
 20
-6.5198
 30
0.0
 10
-39.2049
 20
-6.7145
 30
0.0
 10
-39.275
 20
-6.8672
 30
0.0
 10
-39.415
 20
-6.9778
 30
0.0
 10
-39.415
 20
-6.9778
 30
0.0
 10
-39.5833
 20
-7.1104
 30
0.0
 10
-39.8577
 20
-7.1764
 30
0.0
 10
-40.2368
 20
-7.1752
 30
0.0
  0
SPLINE
  5
58
330
1F
100
AcDbEntity
  8
VRSTVA_1
 62
   250
100
AcDbSpline
210
0.0
220
0.0
230
1.0
 70
    11
 71
     3
 72
    36
 73
    32
 74
     0
 42
0.0000000001
 43
0.0000000001
 40
0.0
 40
0.0
 40
0.0
 40
0.0
 40
0.1111111111111111
 40
0.1111111111111111
 40
0.1111111111111111
 40
0.1111111111111111
 40
0.2222222222222222
 40
0.2222222222222222
 40
0.2222222222222222
 40
0.2222222222222222
 40
0.3333333333333333
 40
0.3333333333333333
 40
0.3333333333333333
 40
0.3333333333333333
 40
0.4444444444444444
 40
0.4444444444444444
 40
0.4444444444444444
 40
0.4444444444444444
 40
0.5555555555555556
 40
0.5555555555555556
 40
0.5555555555555556
 40
0.5555555555555556
 40
0.6666666666666666
 40
0.6666666666666666
 40
0.6666666666666666
 40
0.6666666666666666
 40
0.7777777777777778
 40
0.7777777777777778
 40
0.7777777777777778
 40
0.7777777777777778
 40
1.0
 40
1.0
 40
1.0
 40
1.0
 10
-40.2361
 20
-6.9202
 30
0.0
 10
-39.9045
 20
-6.9212
 30
0.0
 10
-39.6837
 20
-6.8829
 30
0.0
 10
-39.5735
 20
-6.8056
 30
0.0
 10
-39.5735
 20
-6.8056
 30
0.0
 10
-39.4637
 20
-6.7283
 30
0.0
 10
-39.4083
 20
-6.633
 30
0.0
 10
-39.4079
 20
-6.5192
 30
0.0
 10
-39.4079
 20
-6.5192
 30
0.0
 10
-39.4076
 20
-6.4049
 30
0.0
 10
-39.4628
 20
-6.3092
 30
0.0
 10
-39.5727
 20
-6.2313
 30
0.0
 10
-39.5727
 20
-6.2313
 30
0.0
 10
-39.6825
 20
-6.1534
 30
0.0
 10
-39.903
 20
-6.1136
 30
0.0
 10
-40.2336
 20
-6.1126
 30
0.0
 10
-40.2336
 20
-6.1126
 30
0.0
 10
-40.5662
 20
-6.1116
 30
0.0
 10
-40.7874
 20
-6.1501
 30
0.0
 10
-40.8968
 20
-6.2273
 30
0.0
 10
-40.8968
 20
-6.2273
 30
0.0
 10
-41.0066
 20
-6.3046
 30
0.0
 10
-41.0614
 20
-6.4008
 30
0.0
 10
-41.0617
 20
-6.5165
 30
0.0
 10
-41.0617
 20
-6.5165
 30
0.0
 10
-41.0621
 20
-6.6308
 30
0.0
 10
-41.014
 20
-6.7218
 30
0.0
 10
-40.9178
 20
-6.7903
 30
0.0
 10
-40.9178
 20
-6.7903
 30
0.0
 10
-40.7952
 20
-6.8757
 30
0.0
 10
-40.5677
 20
-6.9192
 30
0.0
 10
-40.2361
 20
-6.9202
 30
0.0
  0
SPLINE
  5
59
330
1F
100
AcDbEntity
  8
VRSTVA_1
 62
   250
100
AcDbSpline
210
0.0
220
0.0
230
1.0
 70
    11
 71
     3
 72
    20
 73
    16
 74
     0
 42
0.0000000001
 43
0.0000000001
 40
0.0
 40
0.0
 40
0.0
 40
0.0
 40
0.2
 40
0.2
 40
0.2
 40
0.2
 40
0.4
 40
0.4
 40
0.4
 40
0.4
 40
0.6
 40
0.6
 40
0.6
 40
0.6
 40
1.0
 40
1.0
 40
1.0
 40
1.0
 10
-46.5309
 20
-14.6242
 30
0.0
 10
-46.5309
 20
-14.6242
 30
0.0
 10
-49.5309
 20
-14.2009
 30
0.0
 10
-49.5309
 20
-14.2009
 30
0.0
 10
-49.5309
 20
-14.2009
 30
0.0
 10
-49.5309
 20
-14.2009
 30
0.0
 10
-49.5309
 20
-14.1069
 30
0.0
 10
-49.5309
 20
-14.1069
 30
0.0
 10
-49.5309
 20
-14.1069
 30
0.0
 10
-49.5309
 20
-14.1069
 30
0.0
 10
-46.5309
 20
-13.6555
 30
0.0
 10
-46.5309
 20
-13.6555
 30
0.0
 10
-46.5309
 20
-13.6555
 30
0.0
 10
-46.5309
 20
-13.6555
 30
0.0
 10
-46.5309
 20
-14.6242
 30
0.0
 10
-46.5309
 20
-14.6242
 30
0.0
  0
SPLINE
  5
5A
330
1F
100
AcDbEntity
  8
VRSTVA_1
 62
   250
100
AcDbSpline
210
0.0
220
0.0
230
1.0
 70
    11
 71
     3
 72
    20
 73
    16
 74
     0
 42
0.0000000001
 43
0.0000000001
 40
0.0
 40
0.0
 40
0.0
 40
0.0
 40
0.2
 40
0.2
 40
0.2
 40
0.2
 40
0.4
 40
0.4
 40
0.4
 40
0.4
 40
0.6
 40
0.6
 40
0.6
 40
0.6
 40
1.0
 40
1.0
 40
1.0
 40
1.0
 10
-37.9294
 20
13.5071
 30
0.0
 10
-37.9294
 20
13.5071
 30
0.0
 10
-38.3527
 20
10.5071
 30
0.0
 10
-38.3527
 20
10.5071
 30
0.0
 10
-38.3527
 20
10.5071
 30
0.0
 10
-38.3527
 20
10.5071
 30
0.0
 10
-38.4467
 20
10.5071
 30
0.0
 10
-38.4467
 20
10.5071
 30
0.0
 10
-38.4467
 20
10.5071
 30
0.0
 10
-38.4467
 20
10.5071
 30
0.0
 10
-38.8981
 20
13.5071
 30
0.0
 10
-38.8981
 20
13.5071
 30
0.0
 10
-38.8981
 20
13.5071
 30
0.0
 10
-38.8981
 20
13.5071
 30
0.0
 10
-37.9294
 20
13.5071
 30
0.0
 10
-37.9294
 20
13.5071
 30
0.0
  0
SPLINE
  5
5B
330
1F
100
AcDbEntity
  8
VRSTVA_1
 62
   250
100
AcDbSpline
210
0.0
220
0.0
230
1.0
 70
    11
 71
     3
 72
    20
 73
    16
 74
     0
 42
0.0000000001
 43
0.0000000001
 40
0.0
 40
0.0
 40
0.0
 40
0.0
 40
0.2
 40
0.2
 40
0.2
 40
0.2
 40
0.4
 40
0.4
 40
0.4
 40
0.4
 40
0.6
 40
0.6
 40
0.6
 40
0.6
 40
1.0
 40
1.0
 40
1.0
 40
1.0
 10
47.3597
 20
-13.6738
 30
0.0
 10
47.3597
 20
-13.6738
 30
0.0
 10
50.3599
 20
-14.0972
 30
0.0
 10
50.3599
 20
-14.0972
 30
0.0
 10
50.3599
 20
-14.0972
 30
0.0
 10
50.3599
 20
-14.0972
 30
0.0
 10
50.3599
 20
-14.1912
 30
0.0
 10
50.3599
 20
-14.1912
 30
0.0
 10
50.3599
 20
-14.1912
 30
0.0
 10
50.3599
 20
-14.1912
 30
0.0
 10
47.3597
 20
-14.6427
 30
0.0
 10
47.3597
 20
-14.6427
 30
0.0
 10
47.3597
 20
-14.6427
 30
0.0
 10
47.3597
 20
-14.6427
 30
0.0
 10
47.3597
 20
-13.6738
 30
0.0
 10
47.3597
 20
-13.6738
 30
0.0
  0
SPLINE
  5
5C
330
1F
100
AcDbEntity
  8
VRSTVA_1
 62
   250
100
AcDbSpline
210
0.0
220
0.0
230
1.0
 70
    24
 71
     3
 72
     8
 73
     4
 74
     0
 42
0.0000000001
 43
0.0000000001
 40
0.0
 40
0.0
 40
0.0
 40
0.0
 40
1.0
 40
1.0
 40
1.0
 40
1.0
 10
-49.6072
 20
-3.3411
 30
0.0
 10
-49.6072
 20
-3.3411
 30
0.0
 10
-49.6072
 20
-14.7708
 30
0.0
 10
-49.6072
 20
-14.7708
 30
0.0
  0
SPLINE
  5
5D
330
1F
100
AcDbEntity
  8
VRSTVA_1
 62
   250
100
AcDbSpline
210
0.0
220
0.0
230
1.0
 70
    24
 71
     3
 72
     8
 73
     4
 74
     0
 42
0.0000000001
 43
0.0000000001
 40
0.0
 40
0.0
 40
0.0
 40
0.0
 40
1.0
 40
1.0
 40
1.0
 40
1.0
 10
50.4437
 20
-3.7064
 30
0.0
 10
50.4437
 20
-3.7064
 30
0.0
 10
50.4437
 20
-14.8236
 30
0.0
 10
50.4437
 20
-14.8236
 30
0.0
  0
SPLINE
  5
5E
330
1F
100
AcDbEntity
  8
VRSTVA_1
 62
   250
100
AcDbSpline
210
0.0
220
0.0
230
1.0
 70
    24
 71
     3
 72
     8
 73
     4
 74
     0
 42
0.0000000001
 43
0.0000000001
 40
0.0
 40
0.0
 40
0.0
 40
0.0
 40
1.0
 40
1.0
 40
1.0
 40
1.0
 10
-1.8313
 20
-2.1186
 30
0.0
 10
-1.8313
 20
-2.1186
 30
0.0
 10
-1.8313
 20
9.0281
 30
0.0
 10
-1.8313
 20
9.0281
 30
0.0
  0
SPLINE
  5
5F
330
1F
100
AcDbEntity
  8
VRSTVA_1
 62
   250
100
AcDbSpline
210
0.0
220
0.0
230
1.0
 70
    24
 71
     3
 72
     8
 73
     4
 74
     0
 42
0.0000000001
 43
0.0000000001
 40
0.0
 40
0.0
 40
0.0
 40
0.0
 40
1.0
 40
1.0
 40
1.0
 40
1.0
 10
0.053
 20
-0.7739
 30
0.0
 10
0.053
 20
-0.7739
 30
0.0
 10
0.053
 20
8.2247
 30
0.0
 10
0.053
 20
8.2247
 30
0.0
  0
SPLINE
  5
60
330
1F
100
AcDbEntity
  8
VRSTVA_1
 62
   250
100
AcDbSpline
210
0.0
220
0.0
230
1.0
 70
    24
 71
     3
 72
     8
 73
     4
 74
     0
 42
0.0000000001
 43
0.0000000001
 40
0.0
 40
0.0
 40
0.0
 40
0.0
 40
1.0
 40
1.0
 40
1.0
 40
1.0
 10
2.8789
 20
-0.7739
 30
0.0
 10
2.8789
 20
-0.7739
 30
0.0
 10
2.8789
 20
8.2247
 30
0.0
 10
2.8789
 20
8.2247
 30
0.0
  0
SPLINE
  5
61
330
1F
100
AcDbEntity
  8
VRSTVA_1
 62
   250
100
AcDbSpline
210
0.0
220
0.0
230
1.0
 70
    24
 71
     3
 72
     8
 73
     4
 74
     0
 42
0.0000000001
 43
0.0000000001
 40
0.0
 40
0.0
 40
0.0
 40
0.0
 40
1.0
 40
1.0
 40
1.0
 40
1.0
 10
5.7047
 20
-0.7739
 30
0.0
 10
5.7047
 20
-0.7739
 30
0.0
 10
5.7047
 20
8.2247
 30
0.0
 10
5.7047
 20
8.2247
 30
0.0
  0
SPLINE
  5
62
330
1F
100
AcDbEntity
  8
VRSTVA_1
 62
   250
100
AcDbSpline
210
0.0
220
0.0
230
1.0
 70
    24
 71
     3
 72
     8
 73
     4
 74
     0
 42
0.0000000001
 43
0.0000000001
 40
0.0
 40
0.0
 40
0.0
 40
0.0
 40
1.0
 40
1.0
 40
1.0
 40
1.0
 10
8.5306
 20
-0.7739
 30
0.0
 10
8.5306
 20
-0.7739
 30
0.0
 10
8.5306
 20
8.2247
 30
0.0
 10
8.5306
 20
8.2247
 30
0.0
  0
SPLINE
  5
63
330
1F
100
AcDbEntity
  8
VRSTVA_1
 62
   250
100
AcDbSpline
210
0.0
220
0.0
230
1.0
 70
    24
 71
     3
 72
     8
 73
     4
 74
     0
 42
0.0000000001
 43
0.0000000001
 40
0.0
 40
0.0
 40
0.0
 40
0.0
 40
1.0
 40
1.0
 40
1.0
 40
1.0
 10
11.3565
 20
-0.7739
 30
0.0
 10
11.3565
 20
-0.7739
 30
0.0
 10
11.3565
 20
8.2247
 30
0.0
 10
11.3565
 20
8.2247
 30
0.0
  0
SPLINE
  5
64
330
1F
100
AcDbEntity
  8
VRSTVA_1
 62
   250
100
AcDbSpline
210
0.0
220
0.0
230
1.0
 70
    24
 71
     3
 72
     8
 73
     4
 74
     0
 42
0.0000000001
 43
0.0000000001
 40
0.0
 40
0.0
 40
0.0
 40
0.0
 40
1.0
 40
1.0
 40
1.0
 40
1.0
 10
14.1831
 20
-0.7734
 30
0.0
 10
14.1831
 20
-0.7734
 30
0.0
 10
14.1831
 20
8.2241
 30
0.0
 10
14.1831
 20
8.2241
 30
0.0
  0
SPLINE
  5
65
330
1F
100
AcDbEntity
  8
VRSTVA_1
 62
   250
100
AcDbSpline
210
0.0
220
0.0
230
1.0
 70
    24
 71
     3
 72
     8
 73
     4
 74
     0
 42
0.0000000001
 43
0.0000000001
 40
0.0
 40
0.0
 40
0.0
 40
0.0
 40
1.0
 40
1.0
 40
1.0
 40
1.0
 10
17.121
 20
-0.4402
 30
0.0
 10
17.121
 20
-0.4402
 30
0.0
 10
17.121
 20
7.8909
 30
0.0
 10
17.121
 20
7.8909
 30
0.0
  0
SPLINE
  5
66
330
1F
100
AcDbEntity
  8
VRSTVA_1
 62
   250
100
AcDbSpline
210
0.0
220
0.0
230
1.0
 70
     8
 71
     3
 72
   228
 73
   224
 74
     0
 42
0.0000000001
 43
0.0000000001
 40
0.0
 40
0.0
 40
0.0
 40
0.0
 40
0.0175438596491228
 40
0.0175438596491228
 40
0.0175438596491228
 40
0.0175438596491228
 40
0.0350877192982456
 40
0.0350877192982456
 40
0.0350877192982456
 40
0.0350877192982456
 40
0.0526315789473684
 40
0.0526315789473684
 40
0.0526315789473684
 40
0.0526315789473684
 40
0.0701754385964912
 40
0.0701754385964912
 40
0.0701754385964912
 40
0.0701754385964912
 40
0.087719298245614
 40
0.087719298245614
 40
0.087719298245614
 40
0.087719298245614
 40
0.1052631578947368
 40
0.1052631578947368
 40
0.1052631578947368
 40
0.1052631578947368
 40
0.1228070175438596
 40
0.1228070175438596
 40
0.1228070175438596
 40
0.1228070175438596
 40
0.1403508771929824
 40
0.1403508771929824
 40
0.1403508771929824
 40
0.1403508771929824
 40
0.1578947368421053
 40
0.1578947368421053
 40
0.1578947368421053
 40
0.1578947368421053
 40
0.1754385964912281
 40
0.1754385964912281
 40
0.1754385964912281
 40
0.1754385964912281
 40
0.1929824561403509
 40
0.1929824561403509
 40
0.1929824561403509
 40
0.1929824561403509
 40
0.2105263157894737
 40
0.2105263157894737
 40
0.2105263157894737
 40
0.2105263157894737
 40
0.2280701754385965
 40
0.2280701754385965
 40
0.2280701754385965
 40
0.2280701754385965
 40
0.2456140350877193
 40
0.2456140350877193
 40
0.2456140350877193
 40
0.2456140350877193
 40
0.2631578947368421
 40
0.2631578947368421
 40
0.2631578947368421
 40
0.2631578947368421
 40
0.2807017543859649
 40
0.2807017543859649
 40
0.2807017543859649
 40
0.2807017543859649
 40
0.2982456140350877
 40
0.2982456140350877
 40
0.2982456140350877
 40
0.2982456140350877
 40
0.3157894736842105
 40
0.3157894736842105
 40
0.3157894736842105
 40
0.3157894736842105
 40
0.3333333333333333
 40
0.3333333333333333
 40
0.3333333333333333
 40
0.3333333333333333
 40
0.3508771929824561
 40
0.3508771929824561
 40
0.3508771929824561
 40
0.3508771929824561
 40
0.3684210526315789
 40
0.3684210526315789
 40
0.3684210526315789
 40
0.3684210526315789
 40
0.3859649122807017
 40
0.3859649122807017
 40
0.3859649122807017
 40
0.3859649122807017
 40
0.4035087719298245
 40
0.4035087719298245
 40
0.4035087719298245
 40
0.4035087719298245
 40
0.4210526315789473
 40
0.4210526315789473
 40
0.4210526315789473
 40
0.4210526315789473
 40
0.4385964912280702
 40
0.4385964912280702
 40
0.4385964912280702
 40
0.4385964912280702
 40
0.456140350877193
 40
0.456140350877193
 40
0.456140350877193
 40
0.456140350877193
 40
0.4736842105263158
 40
0.4736842105263158
 40
0.4736842105263158
 40
0.4736842105263158
 40
0.4912280701754386
 40
0.4912280701754386
 40
0.4912280701754386
 40
0.4912280701754386
 40
0.5087719298245614
 40
0.5087719298245614
 40
0.5087719298245614
 40
0.5087719298245614
 40
0.5263157894736842
 40
0.5263157894736842
 40
0.5263157894736842
 40
0.5263157894736842
 40
0.543859649122807
 40
0.543859649122807
 40
0.543859649122807
 40
0.543859649122807
 40
0.5614035087719298
 40
0.5614035087719298
 40
0.5614035087719298
 40
0.5614035087719298
 40
0.5789473684210527
 40
0.5789473684210527
 40
0.5789473684210527
 40
0.5789473684210527
 40
0.5964912280701754
 40
0.5964912280701754
 40
0.5964912280701754
 40
0.5964912280701754
 40
0.6140350877192983
 40
0.6140350877192983
 40
0.6140350877192983
 40
0.6140350877192983
 40
0.631578947368421
 40
0.631578947368421
 40
0.631578947368421
 40
0.631578947368421
 40
0.6491228070175439
 40
0.6491228070175439
 40
0.6491228070175439
 40
0.6491228070175439
 40
0.6666666666666666
 40
0.6666666666666666
 40
0.6666666666666666
 40
0.6666666666666666
 40
0.6842105263157895
 40
0.6842105263157895
 40
0.6842105263157895
 40
0.6842105263157895
 40
0.7017543859649122
 40
0.7017543859649122
 40
0.7017543859649122
 40
0.7017543859649122
 40
0.7192982456140351
 40
0.7192982456140351
 40
0.7192982456140351
 40
0.7192982456140351
 40
0.7368421052631579
 40
0.7368421052631579
 40
0.7368421052631579
 40
0.7368421052631579
 40
0.7543859649122807
 40
0.7543859649122807
 40
0.7543859649122807
 40
0.7543859649122807
 40
0.7719298245614035
 40
0.7719298245614035
 40
0.7719298245614035
 40
0.7719298245614035
 40
0.7894736842105263
 40
0.7894736842105263
 40
0.7894736842105263
 40
0.7894736842105263
 40
0.8070175438596491
 40
0.8070175438596491
 40
0.8070175438596491
 40
0.8070175438596491
 40
0.8245614035087719
 40
0.8245614035087719
 40
0.8245614035087719
 40
0.8245614035087719
 40
0.8421052631578947
 40
0.8421052631578947
 40
0.8421052631578947
 40
0.8421052631578947
 40
0.8596491228070176
 40
0.8596491228070176
 40
0.8596491228070176
 40
0.8596491228070176
 40
0.8771929824561403
 40
0.8771929824561403
 40
0.8771929824561403
 40
0.8771929824561403
 40
0.8947368421052632
 40
0.8947368421052632
 40
0.8947368421052632
 40
0.8947368421052632
 40
0.9122807017543859
 40
0.9122807017543859
 40
0.9122807017543859
 40
0.9122807017543859
 40
0.9298245614035088
 40
0.9298245614035088
 40
0.9298245614035088
 40
0.9298245614035088
 40
0.9473684210526315
 40
0.9473684210526315
 40
0.9473684210526315
 40
0.9473684210526315
 40
0.9649122807017544
 40
0.9649122807017544
 40
0.9649122807017544
 40
0.9649122807017544
 40
1.0
 40
1.0
 40
1.0
 40
1.0
 10
22.1196
 20
7.8909
 30
0.0
 10
22.1196
 20
7.8909
 30
0.0
 10
17.121
 20
7.8909
 30
0.0
 10
17.121
 20
7.8909
 30
0.0
 10
17.121
 20
7.8909
 30
0.0
 10
17.121
 20
7.8909
 30
0.0
 10
15.4366
 20
9.611
 30
0.0
 10
15.4366
 20
9.611
 30
0.0
 10
15.4366
 20
9.611
 30
0.0
 10
15.4366
 20
9.611
 30
0.0
 10
15.3129
 20
9.611
 30
0.0
 10
15.3129
 20
9.611
 30
0.0
 10
15.3129
 20
9.611
 30
0.0
 10
15.3129
 20
9.611
 30
0.0
 10
14.2729
 20
8.2216
 30
0.0
 10
14.2729
 20
8.2216
 30
0.0
 10
14.2729
 20
8.2216
 30
0.0
 10
14.2729
 20
8.2216
 30
0.0
 10
12.5645
 20
9.6357
 30
0.0
 10
12.5645
 20
9.6357
 30
0.0
 10
12.5645
 20
9.6357
 30
0.0
 10
12.5645
 20
9.6357
 30
0.0
 10
12.416
 20
9.6357
 30
0.0
 10
12.416
 20
9.6357
 30
0.0
 10
12.416
 20
9.6357
 30
0.0
 10
12.416
 20
9.6357
 30
0.0
 10
11.4007
 20
8.3207
 30
0.0
 10
11.4007
 20
8.3207
 30
0.0
 10
11.4007
 20
8.3207
 30
0.0
 10
11.4007
 20
8.3207
 30
0.0
 10
9.7419
 20
9.6357
 30
0.0
 10
9.7419
 20
9.6357
 30
0.0
 10
9.7419
 20
9.6357
 30
0.0
 10
9.7419
 20
9.6357
 30
0.0
 10
9.5191
 20
9.6357
 30
0.0
 10
9.5191
 20
9.6357
 30
0.0
 10
9.5191
 20
9.6357
 30
0.0
 10
9.5191
 20
9.6357
 30
0.0
 10
8.5534
 20
8.296
 30
0.0
 10
8.5534
 20
8.296
 30
0.0
 10
8.5534
 20
8.296
 30
0.0
 10
8.5534
 20
8.296
 30
0.0
 10
6.8944
 20
9.6357
 30
0.0
 10
6.8944
 20
9.6357
 30
0.0
 10
6.8944
 20
9.6357
 30
0.0
 10
6.8944
 20
9.6357
 30
0.0
 10
6.7707
 20
9.6357
 30
0.0
 10
6.7707
 20
9.6357
 30
0.0
 10
6.7707
 20
9.6357
 30
0.0
 10
6.7707
 20
9.6357
 30
0.0
 10
5.7555
 20
8.2463
 30
0.0
 10
5.7555
 20
8.2463
 30
0.0
 10
5.7555
 20
8.2463
 30
0.0
 10
5.7555
 20
8.2463
 30
0.0
 10
4.1461
 20
9.611
 30
0.0
 10
4.1461
 20
9.611
 30
0.0
 10
4.1461
 20
9.611
 30
0.0
 10
4.1461
 20
9.611
 30
0.0
 10
3.948
 20
9.611
 30
0.0
 10
3.948
 20
9.611
 30
0.0
 10
3.948
 20
9.611
 30
0.0
 10
3.948
 20
9.611
 30
0.0
 10
2.8834
 20
8.2463
 30
0.0
 10
2.8834
 20
8.2463
 30
0.0
 10
2.8834
 20
8.2463
 30
0.0
 10
2.8834
 20
8.2463
 30
0.0
 10
1.2492
 20
9.611
 30
0.0
 10
1.2492
 20
9.611
 30
0.0
 10
1.2492
 20
9.611
 30
0.0
 10
1.2492
 20
9.611
 30
0.0
 10
1.1255
 20
9.611
 30
0.0
 10
1.1255
 20
9.611
 30
0.0
 10
1.1255
 20
9.611
 30
0.0
 10
1.1255
 20
9.611
 30
0.0
 10
0.1351
 20
8.2711
 30
0.0
 10
0.1351
 20
8.2711
 30
0.0
 10
0.1351
 20
8.2711
 30
0.0
 10
0.1351
 20
8.2711
 30
0.0
 10
-1.5981
 20
9.6357
 30
0.0
 10
-1.5981
 20
9.6357
 30
0.0
 10
-1.5981
 20
9.6357
 30
0.0
 10
-1.5981
 20
9.6357
 30
0.0
 10
-1.7962
 20
8.9906
 30
0.0
 10
-1.7962
 20
8.9906
 30
0.0
 10
-1.7962
 20
8.9906
 30
0.0
 10
-1.7962
 20
8.9906
 30
0.0
 10
-2.1429
 20
7.9734
 30
0.0
 10
-2.1429
 20
7.9734
 30
0.0
 10
-2.1429
 20
7.9734
 30
0.0
 10
-2.1429
 20
7.9734
 30
0.0
 10
-2.5143
 20
6.9066
 30
0.0
 10
-2.5143
 20
6.9066
 30
0.0
 10
-2.5143
 20
6.9066
 30
0.0
 10
-2.5143
 20
6.9066
 30
0.0
 10
-2.6876
 20
6.1374
 30
0.0
 10
-2.6876
 20
6.1374
 30
0.0
 10
-2.6876
 20
6.1374
 30
0.0
 10
-2.6876
 20
6.1374
 30
0.0
 10
-2.7371
 20
5.5172
 30
0.0
 10
-2.7371
 20
5.5172
 30
0.0
 10
-2.7371
 20
5.5172
 30
0.0
 10
-2.7371
 20
5.5172
 30
0.0
 10
-2.7124
 20
4.9713
 30
0.0
 10
-2.7124
 20
4.9713
 30
0.0
 10
-2.7124
 20
4.9713
 30
0.0
 10
-2.7124
 20
4.9713
 30
0.0
 10
-2.539
 20
4.3014
 30
0.0
 10
-2.539
 20
4.3014
 30
0.0
 10
-2.539
 20
4.3014
 30
0.0
 10
-2.539
 20
4.3014
 30
0.0
 10
-2.3162
 20
3.5572
 30
0.0
 10
-2.3162
 20
3.5572
 30
0.0
 10
-2.3162
 20
3.5572
 30
0.0
 10
-2.3162
 20
3.5572
 30
0.0
 10
-2.0687
 20
2.6887
 30
0.0
 10
-2.0687
 20
2.6887
 30
0.0
 10
-2.0687
 20
2.6887
 30
0.0
 10
-2.0687
 20
2.6887
 30
0.0
 10
-1.9943
 20
1.7212
 30
0.0
 10
-1.9943
 20
1.7212
 30
0.0
 10
-1.9943
 20
1.7212
 30
0.0
 10
-1.9943
 20
1.7212
 30
0.0
 10
-2.0687
 20
0.5302
 30
0.0
 10
-2.0687
 20
0.5302
 30
0.0
 10
-2.0687
 20
0.5302
 30
0.0
 10
-2.0687
 20
0.5302
 30
0.0
 10
-2.0687
 20
-0.6855
 30
0.0
 10
-2.0687
 20
-0.6855
 30
0.0
 10
-2.0687
 20
-0.6855
 30
0.0
 10
-2.0687
 20
-0.6855
 30
0.0
 10
-2.0934
 20
-1.6282
 30
0.0
 10
-2.0934
 20
-1.6282
 30
0.0
 10
-2.0934
 20
-1.6282
 30
0.0
 10
-2.0934
 20
-1.6282
 30
0.0
 10
-1.9695
 20
-1.926
 30
0.0
 10
-1.9695
 20
-1.926
 30
0.0
 10
-1.9695
 20
-1.926
 30
0.0
 10
-1.9695
 20
-1.926
 30
0.0
 10
-1.8209
 20
-2.2237
 30
0.0
 10
-1.8209
 20
-2.2237
 30
0.0
 10
-1.8209
 20
-2.2237
 30
0.0
 10
-1.8209
 20
-2.2237
 30
0.0
 10
-1.6229
 20
-2.2237
 30
0.0
 10
-1.6229
 20
-2.2237
 30
0.0
 10
-1.6229
 20
-2.2237
 30
0.0
 10
-1.6229
 20
-2.2237
 30
0.0
 10
0.0607
 20
-0.7599
 30
0.0
 10
0.0607
 20
-0.7599
 30
0.0
 10
0.0607
 20
-0.7599
 30
0.0
 10
0.0607
 20
-0.7599
 30
0.0
 10
1.0758
 20
-2.1493
 30
0.0
 10
1.0758
 20
-2.1493
 30
0.0
 10
1.0758
 20
-2.1493
 30
0.0
 10
1.0758
 20
-2.1493
 30
0.0
 10
1.2244
 20
-2.0997
 30
0.0
 10
1.2244
 20
-2.0997
 30
0.0
 10
1.2244
 20
-2.0997
 30
0.0
 10
1.2244
 20
-2.0997
 30
0.0
 10
2.9329
 20
-0.735
 30
0.0
 10
2.9329
 20
-0.735
 30
0.0
 10
2.9329
 20
-0.735
 30
0.0
 10
2.9329
 20
-0.735
 30
0.0
 10
3.8985
 20
-2.174
 30
0.0
 10
3.8985
 20
-2.174
 30
0.0
 10
3.8985
 20
-2.174
 30
0.0
 10
3.8985
 20
-2.174
 30
0.0
 10
4.0966
 20
-2.174
 30
0.0
 10
4.0966
 20
-2.174
 30
0.0
 10
4.0966
 20
-2.174
 30
0.0
 10
4.0966
 20
-2.174
 30
0.0
 10
5.7307
 20
-0.7599
 30
0.0
 10
5.7307
 20
-0.7599
 30
0.0
 10
5.7307
 20
-0.7599
 30
0.0
 10
5.7307
 20
-0.7599
 30
0.0
 10
6.7211
 20
-2.1989
 30
0.0
 10
6.7211
 20
-2.1989
 30
0.0
 10
6.7211
 20
-2.1989
 30
0.0
 10
6.7211
 20
-2.1989
 30
0.0
 10
6.8944
 20
-2.174
 30
0.0
 10
6.8944
 20
-2.174
 30
0.0
 10
6.8944
 20
-2.174
 30
0.0
 10
6.8944
 20
-2.174
 30
0.0
 10
8.6029
 20
-0.6855
 30
0.0
 10
8.6029
 20
-0.6855
 30
0.0
 10
8.6029
 20
-0.6855
 30
0.0
 10
8.6029
 20
-0.6855
 30
0.0
 10
9.5686
 20
-2.1989
 30
0.0
 10
9.5686
 20
-2.1989
 30
0.0
 10
9.5686
 20
-2.1989
 30
0.0
 10
9.5686
 20
-2.1989
 30
0.0
 10
9.8161
 20
-2.1244
 30
0.0
 10
9.8161
 20
-2.1244
 30
0.0
 10
9.8161
 20
-2.1244
 30
0.0
 10
9.8161
 20
-2.1244
 30
0.0
 10
11.376
 20
-0.7599
 30
0.0
 10
11.376
 20
-0.7599
 30
0.0
 10
11.376
 20
-0.7599
 30
0.0
 10
11.376
 20
-0.7599
 30
0.0
 10
12.3664
 20
-2.1493
 30
0.0
 10
12.3664
 20
-2.1493
 30
0.0
 10
12.3664
 20
-2.1493
 30
0.0
 10
12.3664
 20
-2.1493
 30
0.0
 10
12.5645
 20
-2.1493
 30
0.0
 10
12.5645
 20
-2.1493
 30
0.0
 10
12.5645
 20
-2.1493
 30
0.0
 10
12.5645
 20
-2.1493
 30
0.0
 10
14.2234
 20
-0.7847
 30
0.0
 10
14.2234
 20
-0.7847
 30
0.0
 10
14.2234
 20
-0.7847
 30
0.0
 10
14.2234
 20
-0.7847
 30
0.0
 10
15.2633
 20
-2.0997
 30
0.0
 10
15.2633
 20
-2.0997
 30
0.0
 10
15.2633
 20
-2.0997
 30
0.0
 10
15.2633
 20
-2.0997
 30
0.0
 10
15.4366
 20
-2.05
 30
0.0
 10
15.4366
 20
-2.05
 30
0.0
 10
15.4366
 20
-2.05
 30
0.0
 10
15.4366
 20
-2.05
 30
0.0
 10
17.2193
 20
-0.3877
 30
0.0
 10
17.2193
 20
-0.3877
 30
0.0
 10
17.2193
 20
-0.3877
 30
0.0
 10
17.2193
 20
-0.3877
 30
0.0
 10
22.0476
 20
-0.4126
 30
0.0
 10
22.0476
 20
-0.4126
 30
0.0
  0
SPLINE
  5
67
330
1F
100
AcDbEntity
  8
VRSTVA_1
 62
   250
100
AcDbSpline
210
0.0
220
0.0
230
1.0
 70
     8
 71
     3
 72
   152
 73
   148
 74
     0
 42
0.0000000001
 43
0.0000000001
 40
0.0
 40
0.0
 40
0.0
 40
0.0
 40
0.0263157894736842
 40
0.0263157894736842
 40
0.0263157894736842
 40
0.0263157894736842
 40
0.0526315789473684
 40
0.0526315789473684
 40
0.0526315789473684
 40
0.0526315789473684
 40
0.0789473684210526
 40
0.0789473684210526
 40
0.0789473684210526
 40
0.0789473684210526
 40
0.1052631578947368
 40
0.1052631578947368
 40
0.1052631578947368
 40
0.1052631578947368
 40
0.131578947368421
 40
0.131578947368421
 40
0.131578947368421
 40
0.131578947368421
 40
0.1578947368421053
 40
0.1578947368421053
 40
0.1578947368421053
 40
0.1578947368421053
 40
0.1842105263157895
 40
0.1842105263157895
 40
0.1842105263157895
 40
0.1842105263157895
 40
0.2105263157894737
 40
0.2105263157894737
 40
0.2105263157894737
 40
0.2105263157894737
 40
0.2368421052631579
 40
0.2368421052631579
 40
0.2368421052631579
 40
0.2368421052631579
 40
0.2631578947368421
 40
0.2631578947368421
 40
0.2631578947368421
 40
0.2631578947368421
 40
0.2894736842105263
 40
0.2894736842105263
 40
0.2894736842105263
 40
0.2894736842105263
 40
0.3157894736842105
 40
0.3157894736842105
 40
0.3157894736842105
 40
0.3157894736842105
 40
0.3421052631578947
 40
0.3421052631578947
 40
0.3421052631578947
 40
0.3421052631578947
 40
0.3684210526315789
 40
0.3684210526315789
 40
0.3684210526315789
 40
0.3684210526315789
 40
0.3947368421052632
 40
0.3947368421052632
 40
0.3947368421052632
 40
0.3947368421052632
 40
0.4210526315789473
 40
0.4210526315789473
 40
0.4210526315789473
 40
0.4210526315789473
 40
0.4473684210526316
 40
0.4473684210526316
 40
0.4473684210526316
 40
0.4473684210526316
 40
0.4736842105263158
 40
0.4736842105263158
 40
0.4736842105263158
 40
0.4736842105263158
 40
0.5
 40
0.5
 40
0.5
 40
0.5
 40
0.5263157894736842
 40
0.5263157894736842
 40
0.5263157894736842
 40
0.5263157894736842
 40
0.5526315789473685
 40
0.5526315789473685
 40
0.5526315789473685
 40
0.5526315789473685
 40
0.5789473684210527
 40
0.5789473684210527
 40
0.5789473684210527
 40
0.5789473684210527
 40
0.6052631578947368
 40
0.6052631578947368
 40
0.6052631578947368
 40
0.6052631578947368
 40
0.631578947368421
 40
0.631578947368421
 40
0.631578947368421
 40
0.631578947368421
 40
0.6578947368421053
 40
0.6578947368421053
 40
0.6578947368421053
 40
0.6578947368421053
 40
0.6842105263157895
 40
0.6842105263157895
 40
0.6842105263157895
 40
0.6842105263157895
 40
0.7105263157894737
 40
0.7105263157894737
 40
0.7105263157894737
 40
0.7105263157894737
 40
0.7368421052631579
 40
0.7368421052631579
 40
0.7368421052631579
 40
0.7368421052631579
 40
0.7631578947368421
 40
0.7631578947368421
 40
0.7631578947368421
 40
0.7631578947368421
 40
0.7894736842105263
 40
0.7894736842105263
 40
0.7894736842105263
 40
0.7894736842105263
 40
0.8157894736842105
 40
0.8157894736842105
 40
0.8157894736842105
 40
0.8157894736842105
 40
0.8421052631578947
 40
0.8421052631578947
 40
0.8421052631578947
 40
0.8421052631578947
 40
0.868421052631579
 40
0.868421052631579
 40
0.868421052631579
 40
0.868421052631579
 40
0.8947368421052632
 40
0.8947368421052632
 40
0.8947368421052632
 40
0.8947368421052632
 40
0.9210526315789473
 40
0.9210526315789473
 40
0.9210526315789473
 40
0.9210526315789473
 40
0.9473684210526315
 40
0.9473684210526315
 40
0.9473684210526315
 40
0.9473684210526315
 40
1.0
 40
1.0
 40
1.0
 40
1.0
 10
-21.0822
 20
-0.4372
 30
0.0
 10
-21.0822
 20
-0.4372
 30
0.0
 10
-16.3721
 20
-0.385
 30
0.0
 10
-16.3721
 20
-0.385
 30
0.0
 10
-16.3721
 20
-0.385
 30
0.0
 10
-16.3721
 20
-0.385
 30
0.0
 10
-14.6025
 20
-2.106
 30
0.0
 10
-14.6025
 20
-2.106
 30
0.0
 10
-14.6025
 20
-2.106
 30
0.0
 10
-14.6025
 20
-2.106
 30
0.0
 10
-14.4723
 20
-2.1322
 30
0.0
 10
-14.4723
 20
-2.1322
 30
0.0
 10
-14.4723
 20
-2.1322
 30
0.0
 10
-14.4723
 20
-2.1322
 30
0.0
 10
-12.833
 20
-0.7761
 30
0.0
 10
-12.833
 20
-0.7761
 30
0.0
 10
-12.833
 20
-0.7761
 30
0.0
 10
-12.833
 20
-0.7761
 30
0.0
 10
-11.8441
 20
-2.2364
 30
0.0
 10
-11.8441
 20
-2.2364
 30
0.0
 10
-11.8441
 20
-2.2364
 30
0.0
 10
-11.8441
 20
-2.2364
 30
0.0
 10
-11.688
 20
-2.2364
 30
0.0
 10
-11.688
 20
-2.2364
 30
0.0
 10
-11.688
 20
-2.2364
 30
0.0
 10
-11.688
 20
-2.2364
 30
0.0
 10
-10.0225
 20
-0.8544
 30
0.0
 10
-10.0225
 20
-0.8544
 30
0.0
 10
-10.0225
 20
-0.8544
 30
0.0
 10
-10.0225
 20
-0.8544
 30
0.0
 10
-9.0337
 20
-2.1842
 30
0.0
 10
-9.0337
 20
-2.1842
 30
0.0
 10
-9.0337
 20
-2.1842
 30
0.0
 10
-9.0337
 20
-2.1842
 30
0.0
 10
-8.7995
 20
-2.1322
 30
0.0
 10
-8.7995
 20
-2.1322
 30
0.0
 10
-8.7995
 20
-2.1322
 30
0.0
 10
-8.7995
 20
-2.1322
 30
0.0
 10
-7.212
 20
-0.7501
 30
0.0
 10
-7.212
 20
-0.7501
 30
0.0
 10
-7.212
 20
-0.7501
 30
0.0
 10
-7.212
 20
-0.7501
 30
0.0
 10
-6.3012
 20
-2.1582
 30
0.0
 10
-6.3012
 20
-2.1582
 30
0.0
 10
-6.3012
 20
-2.1582
 30
0.0
 10
-6.3012
 20
-2.1582
 30
0.0
 10
-6.067
 20
-2.2364
 30
0.0
 10
-6.067
 20
-2.2364
 30
0.0
 10
-6.067
 20
-2.2364
 30
0.0
 10
-6.067
 20
-2.2364
 30
0.0
 10
-4.3755
 20
-0.8023
 30
0.0
 10
-4.3755
 20
-0.8023
 30
0.0
 10
-4.3755
 20
-0.8023
 30
0.0
 10
-4.3755
 20
-0.8023
 30
0.0
 10
-3.8812
 20
-1.8713
 30
0.0
 10
-3.8812
 20
-1.8713
 30
0.0
 10
-3.8812
 20
-1.8713
 30
0.0
 10
-3.8812
 20
-1.8713
 30
0.0
 10
-3.5949
 20
-1.8453
 30
0.0
 10
-3.5949
 20
-1.8453
 30
0.0
 10
-3.5949
 20
-1.8453
 30
0.0
 10
-3.5949
 20
-1.8453
 30
0.0
 10
-3.6469
 20
0.2669
 30
0.0
 10
-3.6469
 20
0.2669
 30
0.0
 10
-3.6469
 20
0.2669
 30
0.0
 10
-3.6469
 20
0.2669
 30
0.0
 10
-3.673
 20
1.7532
 30
0.0
 10
-3.673
 20
1.7532
 30
0.0
 10
-3.673
 20
1.7532
 30
0.0
 10
-3.673
 20
1.7532
 30
0.0
 10
-3.9231
 20
3.6918
 30
0.0
 10
-3.9231
 20
3.6918
 30
0.0
 10
-3.9231
 20
3.6918
 30
0.0
 10
-3.9231
 20
3.6918
 30
0.0
 10
-4.3427
 20
4.8563
 30
0.0
 10
-4.3427
 20
4.8563
 30
0.0
 10
-4.3427
 20
4.8563
 30
0.0
 10
-4.3427
 20
4.8563
 30
0.0
 10
-4.3912
 20
5.6811
 30
0.0
 10
-4.3912
 20
5.6811
 30
0.0
 10
-4.3912
 20
5.6811
 30
0.0
 10
-4.3912
 20
5.6811
 30
0.0
 10
-4.1812
 20
6.5868
 30
0.0
 10
-4.1812
 20
6.5868
 30
0.0
 10
-4.1812
 20
6.5868
 30
0.0
 10
-4.1812
 20
6.5868
 30
0.0
 10
-3.1644
 20
9.5789
 30
0.0
 10
-3.1644
 20
9.5789
 30
0.0
 10
-3.1644
 20
9.5789
 30
0.0
 10
-3.1644
 20
9.5789
 30
0.0
 10
-3.342
 20
9.6275
 30
0.0
 10
-3.342
 20
9.6275
 30
0.0
 10
-3.342
 20
9.6275
 30
0.0
 10
-3.342
 20
9.6275
 30
0.0
 10
-4.3677
 20
8.2247
 30
0.0
 10
-4.3677
 20
8.2247
 30
0.0
 10
-4.3677
 20
8.2247
 30
0.0
 10
-4.3677
 20
8.2247
 30
0.0
 10
-6.0085
 20
9.6015
 30
0.0
 10
-6.0085
 20
9.6015
 30
0.0
 10
-6.0085
 20
9.6015
 30
0.0
 10
-6.0085
 20
9.6015
 30
0.0
 10
-6.1639
 20
9.6057
 30
0.0
 10
-6.1639
 20
9.6057
 30
0.0
 10
-6.1639
 20
9.6057
 30
0.0
 10
-6.1639
 20
9.6057
 30
0.0
 10
-7.202
 20
8.2489
 30
0.0
 10
-7.202
 20
8.2489
 30
0.0
 10
-7.202
 20
8.2489
 30
0.0
 10
-7.202
 20
8.2489
 30
0.0
 10
-8.8044
 20
9.5604
 30
0.0
 10
-8.8044
 20
9.5604
 30
0.0
 10
-8.8044
 20
9.5604
 30
0.0
 10
-8.8044
 20
9.5604
 30
0.0
 10
-8.9849
 20
9.5831
 30
0.0
 10
-8.9849
 20
9.5831
 30
0.0
 10
-8.9849
 20
9.5831
 30
0.0
 10
-8.9849
 20
9.5831
 30
0.0
 10
-9.9553
 20
8.2489
 30
0.0
 10
-9.9553
 20
8.2489
 30
0.0
 10
-9.9553
 20
8.2489
 30
0.0
 10
-9.9553
 20
8.2489
 30
0.0
 10
-11.6706
 20
9.6509
 30
0.0
 10
-11.6706
 20
9.6509
 30
0.0
 10
-11.6706
 20
9.6509
 30
0.0
 10
-11.6706
 20
9.6509
 30
0.0
 10
-11.8285
 20
9.6509
 30
0.0
 10
-11.8285
 20
9.6509
 30
0.0
 10
-11.8285
 20
9.6509
 30
0.0
 10
-11.8285
 20
9.6509
 30
0.0
 10
-12.8441
 20
8.2941
 30
0.0
 10
-12.8441
 20
8.2941
 30
0.0
 10
-12.8441
 20
8.2941
 30
0.0
 10
-12.8441
 20
8.2941
 30
0.0
 10
-14.4465
 20
9.5831
 30
0.0
 10
-14.4465
 20
9.5831
 30
0.0
 10
-14.4465
 20
9.5831
 30
0.0
 10
-14.4465
 20
9.5831
 30
0.0
 10
-14.6045
 20
9.5831
 30
0.0
 10
-14.6045
 20
9.5831
 30
0.0
 10
-14.6045
 20
9.5831
 30
0.0
 10
-14.6045
 20
9.5831
 30
0.0
 10
-16.2971
 20
7.9096
 30
0.0
 10
-16.2971
 20
7.9096
 30
0.0
 10
-16.2971
 20
7.9096
 30
0.0
 10
-16.2971
 20
7.9096
 30
0.0
 10
-21.1706
 20
7.8819
 30
0.0
 10
-21.1706
 20
7.8819
 30
0.0
  0
SPLINE
  5
68
330
1F
100
AcDbEntity
  8
VRSTVA_1
 62
   250
100
AcDbSpline
210
0.0
220
0.0
230
1.0
 70
    24
 71
     3
 72
     8
 73
     4
 74
     0
 42
0.0000000001
 43
0.0000000001
 40
0.0
 40
0.0
 40
0.0
 40
0.0
 40
1.0
 40
1.0
 40
1.0
 40
1.0
 10
-16.2831
 20
-0.4402
 30
0.0
 10
-16.2831
 20
-0.4402
 30
0.0
 10
-16.2831
 20
7.8909
 30
0.0
 10
-16.2831
 20
7.8909
 30
0.0
  0
SPLINE
  5
69
330
1F
100
AcDbEntity
  8
VRSTVA_1
 62
   250
100
AcDbSpline
210
0.0
220
0.0
230
1.0
 70
    24
 71
     3
 72
     8
 73
     4
 74
     0
 42
0.0000000001
 43
0.0000000001
 40
0.0
 40
0.0
 40
0.0
 40
0.0
 40
1.0
 40
1.0
 40
1.0
 40
1.0
 10
-14.5336
 20
-2.1897
 30
0.0
 10
-14.5336
 20
-2.1897
 30
0.0
 10
-14.5336
 20
9.6404
 30
0.0
 10
-14.5336
 20
9.6404
 30
0.0
  0
SPLINE
  5
6A
330
1F
100
AcDbEntity
  8
VRSTVA_1
 62
   250
100
AcDbSpline
210
0.0
220
0.0
230
1.0
 70
    24
 71
     3
 72
     8
 73
     4
 74
     0
 42
0.0000000001
 43
0.0000000001
 40
0.0
 40
0.0
 40
0.0
 40
0.0
 40
1.0
 40
1.0
 40
1.0
 40
1.0
 10
-12.8458
 20
-0.7734
 30
0.0
 10
-12.8458
 20
-0.7734
 30
0.0
 10
-12.8458
 20
8.2241
 30
0.0
 10
-12.8458
 20
8.2241
 30
0.0
  0
SPLINE
  5
6B
330
1F
100
AcDbEntity
  8
VRSTVA_1
 62
   250
100
AcDbSpline
210
0.0
220
0.0
230
1.0
 70
    24
 71
     3
 72
     8
 73
     4
 74
     0
 42
0.0000000001
 43
0.0000000001
 40
0.0
 40
0.0
 40
0.0
 40
0.0
 40
1.0
 40
1.0
 40
1.0
 40
1.0
 10
-10.0195
 20
-0.7739
 30
0.0
 10
-10.0195
 20
-0.7739
 30
0.0
 10
-10.0195
 20
8.2247
 30
0.0
 10
-10.0195
 20
8.2247
 30
0.0
  0
SPLINE
  5
6C
330
1F
100
AcDbEntity
  8
VRSTVA_1
 62
   250
100
AcDbSpline
210
0.0
220
0.0
230
1.0
 70
    24
 71
     3
 72
     8
 73
     4
 74
     0
 42
0.0000000001
 43
0.0000000001
 40
0.0
 40
0.0
 40
0.0
 40
0.0
 40
1.0
 40
1.0
 40
1.0
 40
1.0
 10
-7.1936
 20
-0.7739
 30
0.0
 10
-7.1936
 20
-0.7739
 30
0.0
 10
-7.1936
 20
8.2247
 30
0.0
 10
-7.1936
 20
8.2247
 30
0.0
  0
SPLINE
  5
6D
330
1F
100
AcDbEntity
  8
VRSTVA_1
 62
   250
100
AcDbSpline
210
0.0
220
0.0
230
1.0
 70
    24
 71
     3
 72
     8
 73
     4
 74
     0
 42
0.0000000001
 43
0.0000000001
 40
0.0
 40
0.0
 40
0.0
 40
0.0
 40
1.0
 40
1.0
 40
1.0
 40
1.0
 10
-4.3678
 20
-0.7739
 30
0.0
 10
-4.3678
 20
-0.7739
 30
0.0
 10
-4.3678
 20
8.2247
 30
0.0
 10
-4.3678
 20
8.2247
 30
0.0
  0
SPLINE
  5
6E
330
1F
100
AcDbEntity
  8
VRSTVA_1
  6
NEW_LINE1
 62
   250
100
AcDbSpline
210
0.0
220
0.0
230
1.0
 70
    24
 71
     3
 72
     8
 73
     4
 74
     0
 42
0.0000000001
 43
0.0000000001
 40
0.0
 40
0.0
 40
0.0
 40
0.0
 40
1.0
 40
1.0
 40
1.0
 40
1.0
 10
-50.4451
 20
3.7254
 30
0.0
 10
-50.4451
 20
3.7254
 30
0.0
 10
50.1938
 20
3.7254
 30
0.0
 10
50.1938
 20
3.7254
 30
0.0
  0
SPLINE
  5
70
330
1F
100
AcDbEntity
  8
VRSTVA_1
 62
   250
100
AcDbSpline
210
0.0
220
0.0
230
1.0
 70
     8
 71
     3
 72
    92
 73
    88
 74
     0
 42
0.0000000001
 43
0.0000000001
 40
0.0
 40
0.0
 40
0.0
 40
0.0
 40
0.0434782608695652
 40
0.0434782608695652
 40
0.0434782608695652
 40
0.0434782608695652
 40
0.0869565217391304
 40
0.0869565217391304
 40
0.0869565217391304
 40
0.0869565217391304
 40
0.1304347826086956
 40
0.1304347826086956
 40
0.1304347826086956
 40
0.1304347826086956
 40
0.1739130434782609
 40
0.1739130434782609
 40
0.1739130434782609
 40
0.1739130434782609
 40
0.2173913043478261
 40
0.2173913043478261
 40
0.2173913043478261
 40
0.2173913043478261
 40
0.2608695652173913
 40
0.2608695652173913
 40
0.2608695652173913
 40
0.2608695652173913
 40
0.3043478260869565
 40
0.3043478260869565
 40
0.3043478260869565
 40
0.3043478260869565
 40
0.3478260869565217
 40
0.3478260869565217
 40
0.3478260869565217
 40
0.3478260869565217
 40
0.391304347826087
 40
0.391304347826087
 40
0.391304347826087
 40
0.391304347826087
 40
0.4347826086956522
 40
0.4347826086956522
 40
0.4347826086956522
 40
0.4347826086956522
 40
0.4782608695652174
 40
0.4782608695652174
 40
0.4782608695652174
 40
0.4782608695652174
 40
0.5217391304347826
 40
0.5217391304347826
 40
0.5217391304347826
 40
0.5217391304347826
 40
0.5652173913043478
 40
0.5652173913043478
 40
0.5652173913043478
 40
0.5652173913043478
 40
0.6086956521739131
 40
0.6086956521739131
 40
0.6086956521739131
 40
0.6086956521739131
 40
0.6521739130434783
 40
0.6521739130434783
 40
0.6521739130434783
 40
0.6521739130434783
 40
0.6956521739130435
 40
0.6956521739130435
 40
0.6956521739130435
 40
0.6956521739130435
 40
0.7391304347826086
 40
0.7391304347826086
 40
0.7391304347826086
 40
0.7391304347826086
 40
0.782608695652174
 40
0.782608695652174
 40
0.782608695652174
 40
0.782608695652174
 40
0.8260869565217391
 40
0.8260869565217391
 40
0.8260869565217391
 40
0.8260869565217391
 40
0.8695652173913043
 40
0.8695652173913043
 40
0.8695652173913043
 40
0.8695652173913043
 40
0.9130434782608695
 40
0.9130434782608695
 40
0.9130434782608695
 40
0.9130434782608695
 40
1.0
 40
1.0
 40
1.0
 40
1.0
 10
22.1265
 20
8.5573
 30
0.0
 10
22.1265
 20
8.5573
 30
0.0
 10
22.2946
 20
8.8445
 30
0.0
 10
22.2946
 20
8.8445
 30
0.0
 10
22.2946
 20
8.8445
 30
0.0
 10
22.2946
 20
8.8445
 30
0.0
 10
22.5674
 20
8.9852
 30
0.0
 10
22.5674
 20
8.9852
 30
0.0
 10
22.5674
 20
8.9852
 30
0.0
 10
22.5674
 20
8.9852
 30
0.0
 10
22.8012
 20
9.0064
 30
0.0
 10
22.8012
 20
9.0064
 30
0.0
 10
22.8012
 20
9.0064
 30
0.0
 10
22.8012
 20
9.0064
 30
0.0
 10
32.0672
 20
9.0491
 30
0.0
 10
32.0672
 20
9.0491
 30
0.0
 10
32.0672
 20
9.0491
 30
0.0
 10
32.0672
 20
9.0491
 30
0.0
 10
32.0459
 20
9.5815
 30
0.0
 10
32.0459
 20
9.5815
 30
0.0
 10
32.0459
 20
9.5815
 30
0.0
 10
32.0459
 20
9.5815
 30
0.0
 10
22.7162
 20
9.5388
 30
0.0
 10
22.7162
 20
9.5388
 30
0.0
 10
22.7162
 20
9.5388
 30
0.0
 10
22.7162
 20
9.5388
 30
0.0
 10
22.3974
 20
9.4536
 30
0.0
 10
22.3974
 20
9.4536
 30
0.0
 10
22.3974
 20
9.4536
 30
0.0
 10
22.3974
 20
9.4536
 30
0.0
 10
22.2061
 20
9.2407
 30
0.0
 10
22.2061
 20
9.2407
 30
0.0
 10
22.2061
 20
9.2407
 30
0.0
 10
22.2061
 20
9.2407
 30
0.0
 10
22.1211
 20
8.9425
 30
0.0
 10
22.1211
 20
8.9425
 30
0.0
 10
22.1211
 20
8.9425
 30
0.0
 10
22.1211
 20
8.9425
 30
0.0
 10
22.1199
 20
-1.4282
 30
0.0
 10
22.1199
 20
-1.4282
 30
0.0
 10
22.1199
 20
-1.4282
 30
0.0
 10
22.1199
 20
-1.4282
 30
0.0
 10
22.1419
 20
-1.5974
 30
0.0
 10
22.1419
 20
-1.5974
 30
0.0
 10
22.1419
 20
-1.5974
 30
0.0
 10
22.1419
 20
-1.5974
 30
0.0
 10
22.2101
 20
-1.7578
 30
0.0
 10
22.2101
 20
-1.7578
 30
0.0
 10
22.2101
 20
-1.7578
 30
0.0
 10
22.2101
 20
-1.7578
 30
0.0
 10
22.3168
 20
-1.8933
 30
0.0
 10
22.3168
 20
-1.8933
 30
0.0
 10
22.3168
 20
-1.8933
 30
0.0
 10
22.3168
 20
-1.8933
 30
0.0
 10
22.454
 20
-1.9967
 30
0.0
 10
22.454
 20
-1.9967
 30
0.0
 10
22.454
 20
-1.9967
 30
0.0
 10
22.454
 20
-1.9967
 30
0.0
 10
22.6169
 20
-2.0621
 30
0.0
 10
22.6169
 20
-2.0621
 30
0.0
 10
22.6169
 20
-2.0621
 30
0.0
 10
22.6169
 20
-2.0621
 30
0.0
 10
22.7861
 20
-2.0825
 30
0.0
 10
22.7861
 20
-2.0825
 30
0.0
 10
22.7861
 20
-2.0825
 30
0.0
 10
22.7861
 20
-2.0825
 30
0.0
 10
31.9972
 20
-2.1062
 30
0.0
 10
31.9972
 20
-2.1062
 30
0.0
 10
31.9972
 20
-2.1062
 30
0.0
 10
31.9972
 20
-2.1062
 30
0.0
 10
32.0247
 20
-1.5135
 30
0.0
 10
32.0247
 20
-1.5135
 30
0.0
 10
32.0247
 20
-1.5135
 30
0.0
 10
32.0247
 20
-1.5135
 30
0.0
 10
22.8437
 20
-1.5774
 30
0.0
 10
22.8437
 20
-1.5774
 30
0.0
 10
22.8437
 20
-1.5774
 30
0.0
 10
22.8437
 20
-1.5774
 30
0.0
 10
22.5831
 20
-1.572
 30
0.0
 10
22.5831
 20
-1.572
 30
0.0
 10
22.5831
 20
-1.572
 30
0.0
 10
22.5831
 20
-1.572
 30
0.0
 10
22.3468
 20
-1.4265
 30
0.0
 10
22.3468
 20
-1.4265
 30
0.0
 10
22.3468
 20
-1.4265
 30
0.0
 10
22.3468
 20
-1.4265
 30
0.0
 10
22.1402
 20
-1.0801
 30
0.0
 10
22.1402
 20
-1.0801
 30
0.0
  0
SPLINE
  5
71
330
1F
100
AcDbEntity
  8
VRSTVA_1
 62
   250
100
AcDbSpline
210
0.0
220
0.0
230
1.0
 70
     8
 71
     3
 72
    48
 73
    44
 74
     0
 42
0.0000000001
 43
0.0000000001
 40
0.0
 40
0.0
 40
0.0
 40
0.0
 40
0.0833333333333333
 40
0.0833333333333333
 40
0.0833333333333333
 40
0.0833333333333333
 40
0.1666666666666667
 40
0.1666666666666667
 40
0.1666666666666667
 40
0.1666666666666667
 40
0.25
 40
0.25
 40
0.25
 40
0.25
 40
0.3333333333333333
 40
0.3333333333333333
 40
0.3333333333333333
 40
0.3333333333333333
 40
0.4166666666666667
 40
0.4166666666666667
 40
0.4166666666666667
 40
0.4166666666666667
 40
0.5
 40
0.5
 40
0.5
 40
0.5
 40
0.5833333333333334
 40
0.5833333333333334
 40
0.5833333333333334
 40
0.5833333333333334
 40
0.6666666666666666
 40
0.6666666666666666
 40
0.6666666666666666
 40
0.6666666666666666
 40
0.75
 40
0.75
 40
0.75
 40
0.75
 40
0.8333333333333334
 40
0.8333333333333334
 40
0.8333333333333334
 40
0.8333333333333334
 40
1.0
 40
1.0
 40
1.0
 40
1.0
 10
22.1199
 20
1.6685
 30
0.0
 10
22.1199
 20
1.6685
 30
0.0
 10
22.1419
 20
1.6232
 30
0.0
 10
22.1419
 20
1.6232
 30
0.0
 10
22.1419
 20
1.6232
 30
0.0
 10
22.1419
 20
1.6232
 30
0.0
 10
22.2109
 20
1.5794
 30
0.0
 10
22.2109
 20
1.5794
 30
0.0
 10
22.2109
 20
1.5794
 30
0.0
 10
22.2109
 20
1.5794
 30
0.0
 10
22.3168
 20
1.5428
 30
0.0
 10
22.3168
 20
1.5428
 30
0.0
 10
22.3168
 20
1.5428
 30
0.0
 10
22.3168
 20
1.5428
 30
0.0
 10
22.4547
 20
1.5152
 30
0.0
 10
22.4547
 20
1.5152
 30
0.0
 10
22.4547
 20
1.5152
 30
0.0
 10
22.4547
 20
1.5152
 30
0.0
 10
22.6169
 20
1.4979
 30
0.0
 10
22.6169
 20
1.4979
 30
0.0
 10
22.6169
 20
1.4979
 30
0.0
 10
22.6169
 20
1.4979
 30
0.0
 10
22.7861
 20
1.4922
 30
0.0
 10
22.7861
 20
1.4922
 30
0.0
 10
22.7861
 20
1.4922
 30
0.0
 10
22.7861
 20
1.4922
 30
0.0
 10
31.9863
 20
1.4465
 30
0.0
 10
31.9863
 20
1.4465
 30
0.0
 10
31.9863
 20
1.4465
 30
0.0
 10
31.9863
 20
1.4465
 30
0.0
 10
32.0079
 20
3.2641
 30
0.0
 10
32.0079
 20
3.2641
 30
0.0
 10
32.0079
 20
3.2641
 30
0.0
 10
32.0079
 20
3.2641
 30
0.0
 10
22.6361
 20
3.221
 30
0.0
 10
22.6361
 20
3.221
 30
0.0
 10
22.6361
 20
3.221
 30
0.0
 10
22.6361
 20
3.221
 30
0.0
 10
22.4201
 20
3.221
 30
0.0
 10
22.4201
 20
3.221
 30
0.0
 10
22.4201
 20
3.221
 30
0.0
 10
22.4201
 20
3.221
 30
0.0
 10
22.1394
 20
3.3507
 30
0.0
 10
22.1394
 20
3.3507
 30
0.0
  0
SPLINE
  5
72
330
1F
100
AcDbEntity
  8
VRSTVA_1
 62
   250
100
AcDbSpline
210
0.0
220
0.0
230
1.0
 70
     8
 71
     3
 72
    56
 73
    52
 74
     0
 42
0.0000000001
 43
0.0000000001
 40
0.0
 40
0.0
 40
0.0
 40
0.0
 40
0.0714285714285714
 40
0.0714285714285714
 40
0.0714285714285714
 40
0.0714285714285714
 40
0.1428571428571428
 40
0.1428571428571428
 40
0.1428571428571428
 40
0.1428571428571428
 40
0.2142857142857143
 40
0.2142857142857143
 40
0.2142857142857143
 40
0.2142857142857143
 40
0.2857142857142857
 40
0.2857142857142857
 40
0.2857142857142857
 40
0.2857142857142857
 40
0.3571428571428572
 40
0.3571428571428572
 40
0.3571428571428572
 40
0.3571428571428572
 40
0.4285714285714285
 40
0.4285714285714285
 40
0.4285714285714285
 40
0.4285714285714285
 40
0.5
 40
0.5
 40
0.5
 40
0.5
 40
0.5714285714285714
 40
0.5714285714285714
 40
0.5714285714285714
 40
0.5714285714285714
 40
0.6428571428571429
 40
0.6428571428571429
 40
0.6428571428571429
 40
0.6428571428571429
 40
0.7142857142857143
 40
0.7142857142857143
 40
0.7142857142857143
 40
0.7142857142857143
 40
0.7857142857142857
 40
0.7857142857142857
 40
0.7857142857142857
 40
0.7857142857142857
 40
0.8571428571428571
 40
0.8571428571428571
 40
0.8571428571428571
 40
0.8571428571428571
 40
1.0
 40
1.0
 40
1.0
 40
1.0
 10
22.1199
 20
7.4129
 30
0.0
 10
22.1199
 20
7.4129
 30
0.0
 10
22.1419
 20
7.5381
 30
0.0
 10
22.1419
 20
7.5381
 30
0.0
 10
22.1419
 20
7.5381
 30
0.0
 10
22.1419
 20
7.5381
 30
0.0
 10
22.2109
 20
7.6564
 30
0.0
 10
22.2109
 20
7.6564
 30
0.0
 10
22.2109
 20
7.6564
 30
0.0
 10
22.2109
 20
7.6564
 30
0.0
 10
22.3168
 20
7.756
 30
0.0
 10
22.3168
 20
7.756
 30
0.0
 10
22.3168
 20
7.756
 30
0.0
 10
22.3168
 20
7.756
 30
0.0
 10
22.4547
 20
7.8316
 30
0.0
 10
22.4547
 20
7.8316
 30
0.0
 10
22.4547
 20
7.8316
 30
0.0
 10
22.4547
 20
7.8316
 30
0.0
 10
22.6169
 20
7.8793
 30
0.0
 10
22.6169
 20
7.8793
 30
0.0
 10
22.6169
 20
7.8793
 30
0.0
 10
22.6169
 20
7.8793
 30
0.0
 10
22.7861
 20
7.8952
 30
0.0
 10
22.7861
 20
7.8952
 30
0.0
 10
22.7861
 20
7.8952
 30
0.0
 10
22.7861
 20
7.8952
 30
0.0
 10
32.0329
 20
7.8839
 30
0.0
 10
32.0329
 20
7.8839
 30
0.0
 10
32.0329
 20
7.8839
 30
0.0
 10
32.0329
 20
7.8839
 30
0.0
 10
32.0329
 20
7.1248
 30
0.0
 10
32.0329
 20
7.1248
 30
0.0
 10
32.0329
 20
7.1248
 30
0.0
 10
32.0329
 20
7.1248
 30
0.0
 10
22.7688
 20
7.0902
 30
0.0
 10
22.7688
 20
7.0902
 30
0.0
 10
22.7688
 20
7.0902
 30
0.0
 10
22.7688
 20
7.0902
 30
0.0
 10
22.4761
 20
7.0385
 30
0.0
 10
22.4761
 20
7.0385
 30
0.0
 10
22.4761
 20
7.0385
 30
0.0
 10
22.4761
 20
7.0385
 30
0.0
 10
22.3038
 20
6.9522
 30
0.0
 10
22.3038
 20
6.9522
 30
0.0
 10
22.3038
 20
6.9522
 30
0.0
 10
22.3038
 20
6.9522
 30
0.0
 10
22.2004
 20
6.8141
 30
0.0
 10
22.2004
 20
6.8141
 30
0.0
 10
22.2004
 20
6.8141
 30
0.0
 10
22.2004
 20
6.8141
 30
0.0
 10
22.1316
 20
6.5899
 30
0.0
 10
22.1316
 20
6.5899
 30
0.0
  0
SPLINE
  5
73
330
1F
100
AcDbEntity
  8
VRSTVA_1
 62
   250
100
AcDbSpline
210
0.0
220
0.0
230
1.0
 70
     8
 71
     3
 72
    52
 73
    48
 74
     0
 42
0.0000000001
 43
0.0000000001
 40
0.0
 40
0.0
 40
0.0
 40
0.0
 40
0.0769230769230769
 40
0.0769230769230769
 40
0.0769230769230769
 40
0.0769230769230769
 40
0.1538461538461539
 40
0.1538461538461539
 40
0.1538461538461539
 40
0.1538461538461539
 40
0.2307692307692308
 40
0.2307692307692308
 40
0.2307692307692308
 40
0.2307692307692308
 40
0.3076923076923077
 40
0.3076923076923077
 40
0.3076923076923077
 40
0.3076923076923077
 40
0.3846153846153846
 40
0.3846153846153846
 40
0.3846153846153846
 40
0.3846153846153846
 40
0.4615384615384616
 40
0.4615384615384616
 40
0.4615384615384616
 40
0.4615384615384616
 40
0.5384615384615384
 40
0.5384615384615384
 40
0.5384615384615384
 40
0.5384615384615384
 40
0.6153846153846154
 40
0.6153846153846154
 40
0.6153846153846154
 40
0.6153846153846154
 40
0.6923076923076923
 40
0.6923076923076923
 40
0.6923076923076923
 40
0.6923076923076923
 40
0.7692307692307693
 40
0.7692307692307693
 40
0.7692307692307693
 40
0.7692307692307693
 40
0.8461538461538461
 40
0.8461538461538461
 40
0.8461538461538461
 40
0.8461538461538461
 40
1.0
 40
1.0
 40
1.0
 40
1.0
 10
22.1199
 20
0.0376
 30
0.0
 10
22.1199
 20
0.0376
 30
0.0
 10
22.1419
 20
-0.0872
 30
0.0
 10
22.1419
 20
-0.0872
 30
0.0
 10
22.1419
 20
-0.0872
 30
0.0
 10
22.1419
 20
-0.0872
 30
0.0
 10
22.2109
 20
-0.206
 30
0.0
 10
22.2109
 20
-0.206
 30
0.0
 10
22.2109
 20
-0.206
 30
0.0
 10
22.2109
 20
-0.206
 30
0.0
 10
22.3168
 20
-0.3049
 30
0.0
 10
22.3168
 20
-0.3049
 30
0.0
 10
22.3168
 20
-0.3049
 30
0.0
 10
22.3168
 20
-0.3049
 30
0.0
 10
22.4547
 20
-0.3815
 30
0.0
 10
22.4547
 20
-0.3815
 30
0.0
 10
22.4547
 20
-0.3815
 30
0.0
 10
22.4547
 20
-0.3815
 30
0.0
 10
22.6169
 20
-0.4291
 30
0.0
 10
22.6169
 20
-0.4291
 30
0.0
 10
22.6169
 20
-0.4291
 30
0.0
 10
22.6169
 20
-0.4291
 30
0.0
 10
22.7861
 20
-0.4443
 30
0.0
 10
22.7861
 20
-0.4443
 30
0.0
 10
22.7861
 20
-0.4443
 30
0.0
 10
22.7861
 20
-0.4443
 30
0.0
 10
32.0399
 20
-0.4432
 30
0.0
 10
32.0399
 20
-0.4432
 30
0.0
 10
32.0399
 20
-0.4432
 30
0.0
 10
32.0399
 20
-0.4432
 30
0.0
 10
32.0209
 20
0.9841
 30
0.0
 10
32.0209
 20
0.9841
 30
0.0
 10
32.0209
 20
0.9841
 30
0.0
 10
32.0209
 20
0.9841
 30
0.0
 10
22.6388
 20
0.946
 30
0.0
 10
22.6388
 20
0.946
 30
0.0
 10
22.6388
 20
0.946
 30
0.0
 10
22.6388
 20
0.946
 30
0.0
 10
22.4294
 20
1.0221
 30
0.0
 10
22.4294
 20
1.0221
 30
0.0
 10
22.4294
 20
1.0221
 30
0.0
 10
22.4294
 20
1.0221
 30
0.0
 10
22.2201
 20
1.1934
 30
0.0
 10
22.2201
 20
1.1934
 30
0.0
 10
22.2201
 20
1.1934
 30
0.0
 10
22.2201
 20
1.1934
 30
0.0
 10
22.0869
 20
1.4598
 30
0.0
 10
22.0869
 20
1.4598
 30
0.0
  0
SPLINE
  5
74
330
1F
100
AcDbEntity
  8
VRSTVA_1
 62
   250
100
AcDbSpline
210
0.0
220
0.0
230
1.0
 70
     8
 71
     3
 72
    48
 73
    44
 74
     0
 42
0.0000000001
 43
0.0000000001
 40
0.0
 40
0.0
 40
0.0
 40
0.0
 40
0.0833333333333333
 40
0.0833333333333333
 40
0.0833333333333333
 40
0.0833333333333333
 40
0.1666666666666667
 40
0.1666666666666667
 40
0.1666666666666667
 40
0.1666666666666667
 40
0.25
 40
0.25
 40
0.25
 40
0.25
 40
0.3333333333333333
 40
0.3333333333333333
 40
0.3333333333333333
 40
0.3333333333333333
 40
0.4166666666666667
 40
0.4166666666666667
 40
0.4166666666666667
 40
0.4166666666666667
 40
0.5
 40
0.5
 40
0.5
 40
0.5
 40
0.5833333333333334
 40
0.5833333333333334
 40
0.5833333333333334
 40
0.5833333333333334
 40
0.6666666666666666
 40
0.6666666666666666
 40
0.6666666666666666
 40
0.6666666666666666
 40
0.75
 40
0.75
 40
0.75
 40
0.75
 40
0.8333333333333334
 40
0.8333333333333334
 40
0.8333333333333334
 40
0.8333333333333334
 40
1.0
 40
1.0
 40
1.0
 40
1.0
 10
22.1199
 20
5.7822
 30
0.0
 10
22.1199
 20
5.7822
 30
0.0
 10
22.1419
 20
5.8274
 30
0.0
 10
22.1419
 20
5.8274
 30
0.0
 10
22.1419
 20
5.8274
 30
0.0
 10
22.1419
 20
5.8274
 30
0.0
 10
22.2109
 20
5.8708
 30
0.0
 10
22.2109
 20
5.8708
 30
0.0
 10
22.2109
 20
5.8708
 30
0.0
 10
22.2109
 20
5.8708
 30
0.0
 10
22.3168
 20
5.9076
 30
0.0
 10
22.3168
 20
5.9076
 30
0.0
 10
22.3168
 20
5.9076
 30
0.0
 10
22.3168
 20
5.9076
 30
0.0
 10
22.4547
 20
5.9355
 30
0.0
 10
22.4547
 20
5.9355
 30
0.0
 10
22.4547
 20
5.9355
 30
0.0
 10
22.4547
 20
5.9355
 30
0.0
 10
22.6169
 20
5.9527
 30
0.0
 10
22.6169
 20
5.9527
 30
0.0
 10
22.6169
 20
5.9527
 30
0.0
 10
22.6169
 20
5.9527
 30
0.0
 10
22.7861
 20
5.9585
 30
0.0
 10
22.7861
 20
5.9585
 30
0.0
 10
22.7861
 20
5.9585
 30
0.0
 10
22.7861
 20
5.9585
 30
0.0
 10
32.0399
 20
5.932
 30
0.0
 10
32.0399
 20
5.932
 30
0.0
 10
32.0399
 20
5.932
 30
0.0
 10
32.0399
 20
5.932
 30
0.0
 10
32.0209
 20
4.2193
 30
0.0
 10
32.0209
 20
4.2193
 30
0.0
 10
32.0209
 20
4.2193
 30
0.0
 10
32.0209
 20
4.2193
 30
0.0
 10
22.5627
 20
4.2383
 30
0.0
 10
22.5627
 20
4.2383
 30
0.0
 10
22.5627
 20
4.2383
 30
0.0
 10
22.5627
 20
4.2383
 30
0.0
 10
22.2962
 20
4.2193
 30
0.0
 10
22.2962
 20
4.2193
 30
0.0
 10
22.2962
 20
4.2193
 30
0.0
 10
22.2962
 20
4.2193
 30
0.0
 10
22.1059
 20
4.0861
 30
0.0
 10
22.1059
 20
4.0861
 30
0.0
  0
SPLINE
  5
75
330
1F
100
AcDbEntity
  8
VRSTVA_1
 62
   250
100
AcDbSpline
210
0.0
220
0.0
230
1.0
 70
     8
 71
     3
 72
    32
 73
    28
 74
     0
 42
0.0000000001
 43
0.0000000001
 40
0.0
 40
0.0
 40
0.0
 40
0.0
 40
0.125
 40
0.125
 40
0.125
 40
0.125
 40
0.25
 40
0.25
 40
0.25
 40
0.25
 40
0.375
 40
0.375
 40
0.375
 40
0.375
 40
0.5
 40
0.5
 40
0.5
 40
0.5
 40
0.625
 40
0.625
 40
0.625
 40
0.625
 40
0.75
 40
0.75
 40
0.75
 40
0.75
 40
1.0
 40
1.0
 40
1.0
 40
1.0
 10
32.623
 20
10.2133
 30
0.0
 10
32.623
 20
10.2133
 30
0.0
 10
32.6747
 20
-2.9792
 30
0.0
 10
32.6747
 20
-2.9792
 30
0.0
 10
32.6747
 20
-2.9792
 30
0.0
 10
32.6747
 20
-2.9792
 30
0.0
 10
32.0573
 20
-2.3981
 30
0.0
 10
32.0573
 20
-2.3981
 30
0.0
 10
32.0573
 20
-2.3981
 30
0.0
 10
32.0573
 20
-2.3981
 30
0.0
 10
32.0573
 20
9.8406
 30
0.0
 10
32.0573
 20
9.8406
 30
0.0
 10
32.0573
 20
9.8406
 30
0.0
 10
32.0573
 20
9.8406
 30
0.0
 10
32.6384
 20
10.3854
 30
0.0
 10
32.6384
 20
10.3854
 30
0.0
 10
32.6384
 20
10.3854
 30
0.0
 10
32.6384
 20
10.3854
 30
0.0
 10
50.4452
 20
10.3903
 30
0.0
 10
50.4452
 20
10.3903
 30
0.0
 10
50.4452
 20
10.3903
 30
0.0
 10
50.4452
 20
10.3903
 30
0.0
 10
50.4452
 20
-2.9394
 30
0.0
 10
50.4452
 20
-2.9394
 30
0.0
 10
50.4452
 20
-2.9394
 30
0.0
 10
50.4452
 20
-2.9394
 30
0.0
 10
32.6904
 20
-2.9824
 30
0.0
 10
32.6904
 20
-2.9824
 30
0.0
  0
SPLINE
  5
76
330
1F
100
AcDbEntity
  8
VRSTVA_1
 62
   250
100
AcDbSpline
210
0.0
220
0.0
230
1.0
 70
     8
 71
     3
 72
    92
 73
    88
 74
     0
 42
0.0000000001
 43
0.0000000001
 40
0.0
 40
0.0
 40
0.0
 40
0.0
 40
0.0434782608695652
 40
0.0434782608695652
 40
0.0434782608695652
 40
0.0434782608695652
 40
0.0869565217391304
 40
0.0869565217391304
 40
0.0869565217391304
 40
0.0869565217391304
 40
0.1304347826086956
 40
0.1304347826086956
 40
0.1304347826086956
 40
0.1304347826086956
 40
0.1739130434782609
 40
0.1739130434782609
 40
0.1739130434782609
 40
0.1739130434782609
 40
0.2173913043478261
 40
0.2173913043478261
 40
0.2173913043478261
 40
0.2173913043478261
 40
0.2608695652173913
 40
0.2608695652173913
 40
0.2608695652173913
 40
0.2608695652173913
 40
0.3043478260869565
 40
0.3043478260869565
 40
0.3043478260869565
 40
0.3043478260869565
 40
0.3478260869565217
 40
0.3478260869565217
 40
0.3478260869565217
 40
0.3478260869565217
 40
0.391304347826087
 40
0.391304347826087
 40
0.391304347826087
 40
0.391304347826087
 40
0.4347826086956522
 40
0.4347826086956522
 40
0.4347826086956522
 40
0.4347826086956522
 40
0.4782608695652174
 40
0.4782608695652174
 40
0.4782608695652174
 40
0.4782608695652174
 40
0.5217391304347826
 40
0.5217391304347826
 40
0.5217391304347826
 40
0.5217391304347826
 40
0.5652173913043478
 40
0.5652173913043478
 40
0.5652173913043478
 40
0.5652173913043478
 40
0.6086956521739131
 40
0.6086956521739131
 40
0.6086956521739131
 40
0.6086956521739131
 40
0.6521739130434783
 40
0.6521739130434783
 40
0.6521739130434783
 40
0.6521739130434783
 40
0.6956521739130435
 40
0.6956521739130435
 40
0.6956521739130435
 40
0.6956521739130435
 40
0.7391304347826086
 40
0.7391304347826086
 40
0.7391304347826086
 40
0.7391304347826086
 40
0.782608695652174
 40
0.782608695652174
 40
0.782608695652174
 40
0.782608695652174
 40
0.8260869565217391
 40
0.8260869565217391
 40
0.8260869565217391
 40
0.8260869565217391
 40
0.8695652173913043
 40
0.8695652173913043
 40
0.8695652173913043
 40
0.8695652173913043
 40
0.9130434782608695
 40
0.9130434782608695
 40
0.9130434782608695
 40
0.9130434782608695
 40
1.0
 40
1.0
 40
1.0
 40
1.0
 10
-21.2153
 20
8.5573
 30
0.0
 10
-21.2153
 20
8.5573
 30
0.0
 10
-21.3834
 20
8.8445
 30
0.0
 10
-21.3834
 20
8.8445
 30
0.0
 10
-21.3834
 20
8.8445
 30
0.0
 10
-21.3834
 20
8.8445
 30
0.0
 10
-21.6562
 20
8.9852
 30
0.0
 10
-21.6562
 20
8.9852
 30
0.0
 10
-21.6562
 20
8.9852
 30
0.0
 10
-21.6562
 20
8.9852
 30
0.0
 10
-21.8899
 20
9.0064
 30
0.0
 10
-21.8899
 20
9.0064
 30
0.0
 10
-21.8899
 20
9.0064
 30
0.0
 10
-21.8899
 20
9.0064
 30
0.0
 10
-31.1561
 20
9.0491
 30
0.0
 10
-31.1561
 20
9.0491
 30
0.0
 10
-31.1561
 20
9.0491
 30
0.0
 10
-31.1561
 20
9.0491
 30
0.0
 10
-31.1348
 20
9.5815
 30
0.0
 10
-31.1348
 20
9.5815
 30
0.0
 10
-31.1348
 20
9.5815
 30
0.0
 10
-31.1348
 20
9.5815
 30
0.0
 10
-21.8049
 20
9.5388
 30
0.0
 10
-21.8049
 20
9.5388
 30
0.0
 10
-21.8049
 20
9.5388
 30
0.0
 10
-21.8049
 20
9.5388
 30
0.0
 10
-21.4862
 20
9.4536
 30
0.0
 10
-21.4862
 20
9.4536
 30
0.0
 10
-21.4862
 20
9.4536
 30
0.0
 10
-21.4862
 20
9.4536
 30
0.0
 10
-21.2949
 20
9.2407
 30
0.0
 10
-21.2949
 20
9.2407
 30
0.0
 10
-21.2949
 20
9.2407
 30
0.0
 10
-21.2949
 20
9.2407
 30
0.0
 10
-21.2099
 20
8.9425
 30
0.0
 10
-21.2099
 20
8.9425
 30
0.0
 10
-21.2099
 20
8.9425
 30
0.0
 10
-21.2099
 20
8.9425
 30
0.0
 10
-21.2086
 20
-1.4282
 30
0.0
 10
-21.2086
 20
-1.4282
 30
0.0
 10
-21.2086
 20
-1.4282
 30
0.0
 10
-21.2086
 20
-1.4282
 30
0.0
 10
-21.2307
 20
-1.5974
 30
0.0
 10
-21.2307
 20
-1.5974
 30
0.0
 10
-21.2307
 20
-1.5974
 30
0.0
 10
-21.2307
 20
-1.5974
 30
0.0
 10
-21.2989
 20
-1.7578
 30
0.0
 10
-21.2989
 20
-1.7578
 30
0.0
 10
-21.2989
 20
-1.7578
 30
0.0
 10
-21.2989
 20
-1.7578
 30
0.0
 10
-21.4056
 20
-1.8933
 30
0.0
 10
-21.4056
 20
-1.8933
 30
0.0
 10
-21.4056
 20
-1.8933
 30
0.0
 10
-21.4056
 20
-1.8933
 30
0.0
 10
-21.5428
 20
-1.9967
 30
0.0
 10
-21.5428
 20
-1.9967
 30
0.0
 10
-21.5428
 20
-1.9967
 30
0.0
 10
-21.5428
 20
-1.9967
 30
0.0
 10
-21.7057
 20
-2.0621
 30
0.0
 10
-21.7057
 20
-2.0621
 30
0.0
 10
-21.7057
 20
-2.0621
 30
0.0
 10
-21.7057
 20
-2.0621
 30
0.0
 10
-21.8749
 20
-2.0825
 30
0.0
 10
-21.8749
 20
-2.0825
 30
0.0
 10
-21.8749
 20
-2.0825
 30
0.0
 10
-21.8749
 20
-2.0825
 30
0.0
 10
-31.0862
 20
-2.1062
 30
0.0
 10
-31.0862
 20
-2.1062
 30
0.0
 10
-31.0862
 20
-2.1062
 30
0.0
 10
-31.0862
 20
-2.1062
 30
0.0
 10
-31.1136
 20
-1.5135
 30
0.0
 10
-31.1136
 20
-1.5135
 30
0.0
 10
-31.1136
 20
-1.5135
 30
0.0
 10
-31.1136
 20
-1.5135
 30
0.0
 10
-21.9324
 20
-1.5774
 30
0.0
 10
-21.9324
 20
-1.5774
 30
0.0
 10
-21.9324
 20
-1.5774
 30
0.0
 10
-21.9324
 20
-1.5774
 30
0.0
 10
-21.6719
 20
-1.572
 30
0.0
 10
-21.6719
 20
-1.572
 30
0.0
 10
-21.6719
 20
-1.572
 30
0.0
 10
-21.6719
 20
-1.572
 30
0.0
 10
-21.4356
 20
-1.4265
 30
0.0
 10
-21.4356
 20
-1.4265
 30
0.0
 10
-21.4356
 20
-1.4265
 30
0.0
 10
-21.4356
 20
-1.4265
 30
0.0
 10
-21.2289
 20
-1.0801
 30
0.0
 10
-21.2289
 20
-1.0801
 30
0.0
  0
SPLINE
  5
77
330
1F
100
AcDbEntity
  8
VRSTVA_1
 62
   250
100
AcDbSpline
210
0.0
220
0.0
230
1.0
 70
     8
 71
     3
 72
    48
 73
    44
 74
     0
 42
0.0000000001
 43
0.0000000001
 40
0.0
 40
0.0
 40
0.0
 40
0.0
 40
0.0833333333333333
 40
0.0833333333333333
 40
0.0833333333333333
 40
0.0833333333333333
 40
0.1666666666666667
 40
0.1666666666666667
 40
0.1666666666666667
 40
0.1666666666666667
 40
0.25
 40
0.25
 40
0.25
 40
0.25
 40
0.3333333333333333
 40
0.3333333333333333
 40
0.3333333333333333
 40
0.3333333333333333
 40
0.4166666666666667
 40
0.4166666666666667
 40
0.4166666666666667
 40
0.4166666666666667
 40
0.5
 40
0.5
 40
0.5
 40
0.5
 40
0.5833333333333334
 40
0.5833333333333334
 40
0.5833333333333334
 40
0.5833333333333334
 40
0.6666666666666666
 40
0.6666666666666666
 40
0.6666666666666666
 40
0.6666666666666666
 40
0.75
 40
0.75
 40
0.75
 40
0.75
 40
0.8333333333333334
 40
0.8333333333333334
 40
0.8333333333333334
 40
0.8333333333333334
 40
1.0
 40
1.0
 40
1.0
 40
1.0
 10
-21.2086
 20
1.6685
 30
0.0
 10
-21.2086
 20
1.6685
 30
0.0
 10
-21.2307
 20
1.6232
 30
0.0
 10
-21.2307
 20
1.6232
 30
0.0
 10
-21.2307
 20
1.6232
 30
0.0
 10
-21.2307
 20
1.6232
 30
0.0
 10
-21.2997
 20
1.5794
 30
0.0
 10
-21.2997
 20
1.5794
 30
0.0
 10
-21.2997
 20
1.5794
 30
0.0
 10
-21.2997
 20
1.5794
 30
0.0
 10
-21.4056
 20
1.5428
 30
0.0
 10
-21.4056
 20
1.5428
 30
0.0
 10
-21.4056
 20
1.5428
 30
0.0
 10
-21.4056
 20
1.5428
 30
0.0
 10
-21.5434
 20
1.5152
 30
0.0
 10
-21.5434
 20
1.5152
 30
0.0
 10
-21.5434
 20
1.5152
 30
0.0
 10
-21.5434
 20
1.5152
 30
0.0
 10
-21.7057
 20
1.4979
 30
0.0
 10
-21.7057
 20
1.4979
 30
0.0
 10
-21.7057
 20
1.4979
 30
0.0
 10
-21.7057
 20
1.4979
 30
0.0
 10
-21.8749
 20
1.4922
 30
0.0
 10
-21.8749
 20
1.4922
 30
0.0
 10
-21.8749
 20
1.4922
 30
0.0
 10
-21.8749
 20
1.4922
 30
0.0
 10
-31.0752
 20
1.4465
 30
0.0
 10
-31.0752
 20
1.4465
 30
0.0
 10
-31.0752
 20
1.4465
 30
0.0
 10
-31.0752
 20
1.4465
 30
0.0
 10
-31.0968
 20
3.2641
 30
0.0
 10
-31.0968
 20
3.2641
 30
0.0
 10
-31.0968
 20
3.2641
 30
0.0
 10
-31.0968
 20
3.2641
 30
0.0
 10
-21.7249
 20
3.221
 30
0.0
 10
-21.7249
 20
3.221
 30
0.0
 10
-21.7249
 20
3.221
 30
0.0
 10
-21.7249
 20
3.221
 30
0.0
 10
-21.5089
 20
3.221
 30
0.0
 10
-21.5089
 20
3.221
 30
0.0
 10
-21.5089
 20
3.221
 30
0.0
 10
-21.5089
 20
3.221
 30
0.0
 10
-21.2281
 20
3.3507
 30
0.0
 10
-21.2281
 20
3.3507
 30
0.0
  0
SPLINE
  5
78
330
1F
100
AcDbEntity
  8
VRSTVA_1
 62
   250
100
AcDbSpline
210
0.0
220
0.0
230
1.0
 70
     8
 71
     3
 72
    56
 73
    52
 74
     0
 42
0.0000000001
 43
0.0000000001
 40
0.0
 40
0.0
 40
0.0
 40
0.0
 40
0.0714285714285714
 40
0.0714285714285714
 40
0.0714285714285714
 40
0.0714285714285714
 40
0.1428571428571428
 40
0.1428571428571428
 40
0.1428571428571428
 40
0.1428571428571428
 40
0.2142857142857143
 40
0.2142857142857143
 40
0.2142857142857143
 40
0.2142857142857143
 40
0.2857142857142857
 40
0.2857142857142857
 40
0.2857142857142857
 40
0.2857142857142857
 40
0.3571428571428572
 40
0.3571428571428572
 40
0.3571428571428572
 40
0.3571428571428572
 40
0.4285714285714285
 40
0.4285714285714285
 40
0.4285714285714285
 40
0.4285714285714285
 40
0.5
 40
0.5
 40
0.5
 40
0.5
 40
0.5714285714285714
 40
0.5714285714285714
 40
0.5714285714285714
 40
0.5714285714285714
 40
0.6428571428571429
 40
0.6428571428571429
 40
0.6428571428571429
 40
0.6428571428571429
 40
0.7142857142857143
 40
0.7142857142857143
 40
0.7142857142857143
 40
0.7142857142857143
 40
0.7857142857142857
 40
0.7857142857142857
 40
0.7857142857142857
 40
0.7857142857142857
 40
0.8571428571428571
 40
0.8571428571428571
 40
0.8571428571428571
 40
0.8571428571428571
 40
1.0
 40
1.0
 40
1.0
 40
1.0
 10
-21.2086
 20
7.4129
 30
0.0
 10
-21.2086
 20
7.4129
 30
0.0
 10
-21.2307
 20
7.5381
 30
0.0
 10
-21.2307
 20
7.5381
 30
0.0
 10
-21.2307
 20
7.5381
 30
0.0
 10
-21.2307
 20
7.5381
 30
0.0
 10
-21.2997
 20
7.6564
 30
0.0
 10
-21.2997
 20
7.6564
 30
0.0
 10
-21.2997
 20
7.6564
 30
0.0
 10
-21.2997
 20
7.6564
 30
0.0
 10
-21.4056
 20
7.756
 30
0.0
 10
-21.4056
 20
7.756
 30
0.0
 10
-21.4056
 20
7.756
 30
0.0
 10
-21.4056
 20
7.756
 30
0.0
 10
-21.5434
 20
7.8316
 30
0.0
 10
-21.5434
 20
7.8316
 30
0.0
 10
-21.5434
 20
7.8316
 30
0.0
 10
-21.5434
 20
7.8316
 30
0.0
 10
-21.7057
 20
7.8793
 30
0.0
 10
-21.7057
 20
7.8793
 30
0.0
 10
-21.7057
 20
7.8793
 30
0.0
 10
-21.7057
 20
7.8793
 30
0.0
 10
-21.8749
 20
7.8952
 30
0.0
 10
-21.8749
 20
7.8952
 30
0.0
 10
-21.8749
 20
7.8952
 30
0.0
 10
-21.8749
 20
7.8952
 30
0.0
 10
-31.1218
 20
7.8839
 30
0.0
 10
-31.1218
 20
7.8839
 30
0.0
 10
-31.1218
 20
7.8839
 30
0.0
 10
-31.1218
 20
7.8839
 30
0.0
 10
-31.1218
 20
7.1248
 30
0.0
 10
-31.1218
 20
7.1248
 30
0.0
 10
-31.1218
 20
7.1248
 30
0.0
 10
-31.1218
 20
7.1248
 30
0.0
 10
-21.8576
 20
7.0902
 30
0.0
 10
-21.8576
 20
7.0902
 30
0.0
 10
-21.8576
 20
7.0902
 30
0.0
 10
-21.8576
 20
7.0902
 30
0.0
 10
-21.5648
 20
7.0385
 30
0.0
 10
-21.5648
 20
7.0385
 30
0.0
 10
-21.5648
 20
7.0385
 30
0.0
 10
-21.5648
 20
7.0385
 30
0.0
 10
-21.3926
 20
6.9522
 30
0.0
 10
-21.3926
 20
6.9522
 30
0.0
 10
-21.3926
 20
6.9522
 30
0.0
 10
-21.3926
 20
6.9522
 30
0.0
 10
-21.2892
 20
6.8141
 30
0.0
 10
-21.2892
 20
6.8141
 30
0.0
 10
-21.2892
 20
6.8141
 30
0.0
 10
-21.2892
 20
6.8141
 30
0.0
 10
-21.2204
 20
6.5899
 30
0.0
 10
-21.2204
 20
6.5899
 30
0.0
  0
SPLINE
  5
79
330
1F
100
AcDbEntity
  8
VRSTVA_1
 62
   250
100
AcDbSpline
210
0.0
220
0.0
230
1.0
 70
     8
 71
     3
 72
    52
 73
    48
 74
     0
 42
0.0000000001
 43
0.0000000001
 40
0.0
 40
0.0
 40
0.0
 40
0.0
 40
0.0769230769230769
 40
0.0769230769230769
 40
0.0769230769230769
 40
0.0769230769230769
 40
0.1538461538461539
 40
0.1538461538461539
 40
0.1538461538461539
 40
0.1538461538461539
 40
0.2307692307692308
 40
0.2307692307692308
 40
0.2307692307692308
 40
0.2307692307692308
 40
0.3076923076923077
 40
0.3076923076923077
 40
0.3076923076923077
 40
0.3076923076923077
 40
0.3846153846153846
 40
0.3846153846153846
 40
0.3846153846153846
 40
0.3846153846153846
 40
0.4615384615384616
 40
0.4615384615384616
 40
0.4615384615384616
 40
0.4615384615384616
 40
0.5384615384615384
 40
0.5384615384615384
 40
0.5384615384615384
 40
0.5384615384615384
 40
0.6153846153846154
 40
0.6153846153846154
 40
0.6153846153846154
 40
0.6153846153846154
 40
0.6923076923076923
 40
0.6923076923076923
 40
0.6923076923076923
 40
0.6923076923076923
 40
0.7692307692307693
 40
0.7692307692307693
 40
0.7692307692307693
 40
0.7692307692307693
 40
0.8461538461538461
 40
0.8461538461538461
 40
0.8461538461538461
 40
0.8461538461538461
 40
1.0
 40
1.0
 40
1.0
 40
1.0
 10
-21.2086
 20
0.0376
 30
0.0
 10
-21.2086
 20
0.0376
 30
0.0
 10
-21.2307
 20
-0.0872
 30
0.0
 10
-21.2307
 20
-0.0872
 30
0.0
 10
-21.2307
 20
-0.0872
 30
0.0
 10
-21.2307
 20
-0.0872
 30
0.0
 10
-21.2997
 20
-0.206
 30
0.0
 10
-21.2997
 20
-0.206
 30
0.0
 10
-21.2997
 20
-0.206
 30
0.0
 10
-21.2997
 20
-0.206
 30
0.0
 10
-21.4056
 20
-0.3049
 30
0.0
 10
-21.4056
 20
-0.3049
 30
0.0
 10
-21.4056
 20
-0.3049
 30
0.0
 10
-21.4056
 20
-0.3049
 30
0.0
 10
-21.5434
 20
-0.3815
 30
0.0
 10
-21.5434
 20
-0.3815
 30
0.0
 10
-21.5434
 20
-0.3815
 30
0.0
 10
-21.5434
 20
-0.3815
 30
0.0
 10
-21.7057
 20
-0.4291
 30
0.0
 10
-21.7057
 20
-0.4291
 30
0.0
 10
-21.7057
 20
-0.4291
 30
0.0
 10
-21.7057
 20
-0.4291
 30
0.0
 10
-21.8749
 20
-0.4443
 30
0.0
 10
-21.8749
 20
-0.4443
 30
0.0
 10
-21.8749
 20
-0.4443
 30
0.0
 10
-21.8749
 20
-0.4443
 30
0.0
 10
-31.1288
 20
-0.4432
 30
0.0
 10
-31.1288
 20
-0.4432
 30
0.0
 10
-31.1288
 20
-0.4432
 30
0.0
 10
-31.1288
 20
-0.4432
 30
0.0
 10
-31.1098
 20
0.9841
 30
0.0
 10
-31.1098
 20
0.9841
 30
0.0
 10
-31.1098
 20
0.9841
 30
0.0
 10
-31.1098
 20
0.9841
 30
0.0
 10
-21.7275
 20
0.946
 30
0.0
 10
-21.7275
 20
0.946
 30
0.0
 10
-21.7275
 20
0.946
 30
0.0
 10
-21.7275
 20
0.946
 30
0.0
 10
-21.5182
 20
1.0221
 30
0.0
 10
-21.5182
 20
1.0221
 30
0.0
 10
-21.5182
 20
1.0221
 30
0.0
 10
-21.5182
 20
1.0221
 30
0.0
 10
-21.3089
 20
1.1934
 30
0.0
 10
-21.3089
 20
1.1934
 30
0.0
 10
-21.3089
 20
1.1934
 30
0.0
 10
-21.3089
 20
1.1934
 30
0.0
 10
-21.1757
 20
1.4598
 30
0.0
 10
-21.1757
 20
1.4598
 30
0.0
  0
SPLINE
  5
7A
330
1F
100
AcDbEntity
  8
VRSTVA_1
 62
   250
100
AcDbSpline
210
0.0
220
0.0
230
1.0
 70
     8
 71
     3
 72
    48
 73
    44
 74
     0
 42
0.0000000001
 43
0.0000000001
 40
0.0
 40
0.0
 40
0.0
 40
0.0
 40
0.0833333333333333
 40
0.0833333333333333
 40
0.0833333333333333
 40
0.0833333333333333
 40
0.1666666666666667
 40
0.1666666666666667
 40
0.1666666666666667
 40
0.1666666666666667
 40
0.25
 40
0.25
 40
0.25
 40
0.25
 40
0.3333333333333333
 40
0.3333333333333333
 40
0.3333333333333333
 40
0.3333333333333333
 40
0.4166666666666667
 40
0.4166666666666667
 40
0.4166666666666667
 40
0.4166666666666667
 40
0.5
 40
0.5
 40
0.5
 40
0.5
 40
0.5833333333333334
 40
0.5833333333333334
 40
0.5833333333333334
 40
0.5833333333333334
 40
0.6666666666666666
 40
0.6666666666666666
 40
0.6666666666666666
 40
0.6666666666666666
 40
0.75
 40
0.75
 40
0.75
 40
0.75
 40
0.8333333333333334
 40
0.8333333333333334
 40
0.8333333333333334
 40
0.8333333333333334
 40
1.0
 40
1.0
 40
1.0
 40
1.0
 10
-21.2086
 20
5.7822
 30
0.0
 10
-21.2086
 20
5.7822
 30
0.0
 10
-21.2307
 20
5.8274
 30
0.0
 10
-21.2307
 20
5.8274
 30
0.0
 10
-21.2307
 20
5.8274
 30
0.0
 10
-21.2307
 20
5.8274
 30
0.0
 10
-21.2997
 20
5.8708
 30
0.0
 10
-21.2997
 20
5.8708
 30
0.0
 10
-21.2997
 20
5.8708
 30
0.0
 10
-21.2997
 20
5.8708
 30
0.0
 10
-21.4056
 20
5.9076
 30
0.0
 10
-21.4056
 20
5.9076
 30
0.0
 10
-21.4056
 20
5.9076
 30
0.0
 10
-21.4056
 20
5.9076
 30
0.0
 10
-21.5434
 20
5.9355
 30
0.0
 10
-21.5434
 20
5.9355
 30
0.0
 10
-21.5434
 20
5.9355
 30
0.0
 10
-21.5434
 20
5.9355
 30
0.0
 10
-21.7057
 20
5.9527
 30
0.0
 10
-21.7057
 20
5.9527
 30
0.0
 10
-21.7057
 20
5.9527
 30
0.0
 10
-21.7057
 20
5.9527
 30
0.0
 10
-21.8749
 20
5.9585
 30
0.0
 10
-21.8749
 20
5.9585
 30
0.0
 10
-21.8749
 20
5.9585
 30
0.0
 10
-21.8749
 20
5.9585
 30
0.0
 10
-31.1288
 20
5.932
 30
0.0
 10
-31.1288
 20
5.932
 30
0.0
 10
-31.1288
 20
5.932
 30
0.0
 10
-31.1288
 20
5.932
 30
0.0
 10
-31.1098
 20
4.2193
 30
0.0
 10
-31.1098
 20
4.2193
 30
0.0
 10
-31.1098
 20
4.2193
 30
0.0
 10
-31.1098
 20
4.2193
 30
0.0
 10
-21.6514
 20
4.2383
 30
0.0
 10
-21.6514
 20
4.2383
 30
0.0
 10
-21.6514
 20
4.2383
 30
0.0
 10
-21.6514
 20
4.2383
 30
0.0
 10
-21.385
 20
4.2193
 30
0.0
 10
-21.385
 20
4.2193
 30
0.0
 10
-21.385
 20
4.2193
 30
0.0
 10
-21.385
 20
4.2193
 30
0.0
 10
-21.1947
 20
4.0861
 30
0.0
 10
-21.1947
 20
4.0861
 30
0.0
  0
SPLINE
  5
7B
330
1F
100
AcDbEntity
  8
VRSTVA_1
 62
   250
100
AcDbSpline
210
0.0
220
0.0
230
1.0
 70
     8
 71
     3
 72
    32
 73
    28
 74
     0
 42
0.0000000001
 43
0.0000000001
 40
0.0
 40
0.0
 40
0.0
 40
0.0
 40
0.125
 40
0.125
 40
0.125
 40
0.125
 40
0.25
 40
0.25
 40
0.25
 40
0.25
 40
0.375
 40
0.375
 40
0.375
 40
0.375
 40
0.5
 40
0.5
 40
0.5
 40
0.5
 40
0.625
 40
0.625
 40
0.625
 40
0.625
 40
0.75
 40
0.75
 40
0.75
 40
0.75
 40
1.0
 40
1.0
 40
1.0
 40
1.0
 10
-31.712
 20
10.2133
 30
0.0
 10
-31.712
 20
10.2133
 30
0.0
 10
-31.7637
 20
-2.9792
 30
0.0
 10
-31.7637
 20
-2.9792
 30
0.0
 10
-31.7637
 20
-2.9792
 30
0.0
 10
-31.7637
 20
-2.9792
 30
0.0
 10
-31.1463
 20
-2.3981
 30
0.0
 10
-31.1463
 20
-2.3981
 30
0.0
 10
-31.1463
 20
-2.3981
 30
0.0
 10
-31.1463
 20
-2.3981
 30
0.0
 10
-31.1463
 20
9.8406
 30
0.0
 10
-31.1463
 20
9.8406
 30
0.0
 10
-31.1463
 20
9.8406
 30
0.0
 10
-31.1463
 20
9.8406
 30
0.0
 10
-31.7273
 20
10.3854
 30
0.0
 10
-31.7273
 20
10.3854
 30
0.0
 10
-31.7273
 20
10.3854
 30
0.0
 10
-31.7273
 20
10.3854
 30
0.0
 10
-49.5344
 20
10.3903
 30
0.0
 10
-49.5344
 20
10.3903
 30
0.0
 10
-49.5344
 20
10.3903
 30
0.0
 10
-49.5344
 20
10.3903
 30
0.0
 10
-49.5344
 20
-2.9394
 30
0.0
 10
-49.5344
 20
-2.9394
 30
0.0
 10
-49.5344
 20
-2.9394
 30
0.0
 10
-49.5344
 20
-2.9394
 30
0.0
 10
-31.7794
 20
-2.9824
 30
0.0
 10
-31.7794
 20
-2.9824
 30
0.0
  0
SPLINE
  5
7C
330
1F
100
AcDbEntity
  8
VRSTVA_1
 62
   250
100
AcDbSpline
210
0.0
220
0.0
230
1.0
 70
    24
 71
     3
 72
     8
 73
     4
 74
     0
 42
0.0000000001
 43
0.0000000001
 40
0.0
 40
0.0
 40
0.0
 40
0.0
 40
1.0
 40
1.0
 40
1.0
 40
1.0
 10
43.4214
 20
-10.5714
 30
0.0
 10
43.4214
 20
-10.5714
 30
0.0
 10
43.4214
 20
14.8236
 30
0.0
 10
43.4214
 20
14.8236
 30
0.0
  0
SPLINE
  5
7D
330
1F
100
AcDbEntity
  8
VRSTVA_1
 62
   250
100
AcDbSpline
210
0.0
220
0.0
230
1.0
 70
    11
 71
     3
 72
    20
 73
    16
 74
     0
 42
0.0000000001
 43
0.0000000001
 40
0.0
 40
0.0
 40
0.0
 40
0.0
 40
0.2
 40
0.2
 40
0.2
 40
0.2
 40
0.4
 40
0.4
 40
0.4
 40
0.4
 40
0.6
 40
0.6
 40
0.6
 40
0.6
 40
1.0
 40
1.0
 40
1.0
 40
1.0
 10
42.9547
 20
-6.0019
 30
0.0
 10
42.9547
 20
-6.0019
 30
0.0
 10
43.378
 20
-3.0019
 30
0.0
 10
43.378
 20
-3.0019
 30
0.0
 10
43.378
 20
-3.0019
 30
0.0
 10
43.378
 20
-3.0019
 30
0.0
 10
43.472
 20
-3.0019
 30
0.0
 10
43.472
 20
-3.0019
 30
0.0
 10
43.472
 20
-3.0019
 30
0.0
 10
43.472
 20
-3.0019
 30
0.0
 10
43.9234
 20
-6.0019
 30
0.0
 10
43.9234
 20
-6.0019
 30
0.0
 10
43.9234
 20
-6.0019
 30
0.0
 10
43.9234
 20
-6.0019
 30
0.0
 10
42.9547
 20
-6.0019
 30
0.0
 10
42.9547
 20
-6.0019
 30
0.0
  0
SPLINE
  5
7E
330
1F
100
AcDbEntity
  8
VRSTVA_1
 62
   250
100
AcDbSpline
210
0.0
220
0.0
230
1.0
 70
    11
 71
     3
 72
    84
 73
    80
 74
     0
 42
0.0000000001
 43
0.0000000001
 40
0.0
 40
0.0
 40
0.0
 40
0.0
 40
0.0476190476190476
 40
0.0476190476190476
 40
0.0476190476190476
 40
0.0476190476190476
 40
0.0952380952380952
 40
0.0952380952380952
 40
0.0952380952380952
 40
0.0952380952380952
 40
0.1428571428571428
 40
0.1428571428571428
 40
0.1428571428571428
 40
0.1428571428571428
 40
0.1904761904761905
 40
0.1904761904761905
 40
0.1904761904761905
 40
0.1904761904761905
 40
0.2380952380952381
 40
0.2380952380952381
 40
0.2380952380952381
 40
0.2380952380952381
 40
0.2857142857142857
 40
0.2857142857142857
 40
0.2857142857142857
 40
0.2857142857142857
 40
0.3333333333333333
 40
0.3333333333333333
 40
0.3333333333333333
 40
0.3333333333333333
 40
0.3809523809523809
 40
0.3809523809523809
 40
0.3809523809523809
 40
0.3809523809523809
 40
0.4285714285714285
 40
0.4285714285714285
 40
0.4285714285714285
 40
0.4285714285714285
 40
0.4761904761904762
 40
0.4761904761904762
 40
0.4761904761904762
 40
0.4761904761904762
 40
0.5238095238095238
 40
0.5238095238095238
 40
0.5238095238095238
 40
0.5238095238095238
 40
0.5714285714285714
 40
0.5714285714285714
 40
0.5714285714285714
 40
0.5714285714285714
 40
0.6190476190476191
 40
0.6190476190476191
 40
0.6190476190476191
 40
0.6190476190476191
 40
0.6666666666666666
 40
0.6666666666666666
 40
0.6666666666666666
 40
0.6666666666666666
 40
0.7142857142857143
 40
0.7142857142857143
 40
0.7142857142857143
 40
0.7142857142857143
 40
0.7619047619047619
 40
0.7619047619047619
 40
0.7619047619047619
 40
0.7619047619047619
 40
0.8095238095238095
 40
0.8095238095238095
 40
0.8095238095238095
 40
0.8095238095238095
 40
0.8571428571428571
 40
0.8571428571428571
 40
0.8571428571428571
 40
0.8571428571428571
 40
0.9047619047619048
 40
0.9047619047619048
 40
0.9047619047619048
 40
0.9047619047619048
 40
1.0
 40
1.0
 40
1.0
 40
1.0
 10
40.7678
 20
-8.7147
 30
0.0
 10
40.7678
 20
-8.7147
 30
0.0
 10
40.5094
 20
-8.4825
 30
0.0
 10
40.5094
 20
-8.4825
 30
0.0
 10
40.5094
 20
-8.4825
 30
0.0
 10
40.5094
 20
-8.4825
 30
0.0
 10
40.6255
 20
-8.3465
 30
0.0
 10
40.6255
 20
-8.3465
 30
0.0
 10
40.6255
 20
-8.3465
 30
0.0
 10
40.6255
 20
-8.3465
 30
0.0
 10
40.8976
 20
-8.5895
 30
0.0
 10
40.8976
 20
-8.5895
 30
0.0
 10
40.8976
 20
-8.5895
 30
0.0
 10
41.0154
 20
-8.5108
 30
0.0
 10
41.1186
 20
-8.458
 30
0.0
 10
41.2065
 20
-8.4305
 30
0.0
 10
41.2065
 20
-8.4305
 30
0.0
 10
41.3225
 20
-8.3942
 30
0.0
 10
41.4523
 20
-8.3762
 30
0.0
 10
41.5953
 20
-8.3767
 30
0.0
 10
41.5953
 20
-8.3767
 30
0.0
 10
41.8022
 20
-8.3773
 30
0.0
 10
41.9865
 20
-8.4197
 30
0.0
 10
42.1475
 20
-8.5039
 30
0.0
 10
42.1475
 20
-8.5039
 30
0.0
 10
42.3092
 20
-8.5881
 30
0.0
 10
42.431
 20
-8.7056
 30
0.0
 10
42.5134
 20
-8.8568
 30
0.0
 10
42.5134
 20
-8.8568
 30
0.0
 10
42.5952
 20
-9.0086
 30
0.0
 10
42.6361
 20
-9.169
 30
0.0
 10
42.6356
 20
-9.3388
 30
0.0
 10
42.6356
 20
-9.3388
 30
0.0
 10
42.6352
 20
-9.4658
 30
0.0
 10
42.6171
 20
-9.5806
 30
0.0
 10
42.581
 20
-9.6834
 30
0.0
 10
42.581
 20
-9.6834
 30
0.0
 10
42.553
 20
-9.7624
 30
0.0
 10
42.5001
 20
-9.8544
 30
0.0
 10
42.4217
 20
-9.9601
 30
0.0
 10
42.4217
 20
-9.9601
 30
0.0
 10
42.4217
 20
-9.9601
 30
0.0
 10
42.6802
 20
-10.1922
 30
0.0
 10
42.6802
 20
-10.1922
 30
0.0
 10
42.6802
 20
-10.1922
 30
0.0
 10
42.6802
 20
-10.1922
 30
0.0
 10
42.564
 20
-10.3283
 30
0.0
 10
42.564
 20
-10.3283
 30
0.0
 10
42.564
 20
-10.3283
 30
0.0
 10
42.564
 20
-10.3283
 30
0.0
 10
42.2934
 20
-10.0848
 30
0.0
 10
42.2934
 20
-10.0848
 30
0.0
 10
42.2934
 20
-10.0848
 30
0.0
 10
42.1562
 20
-10.1747
 30
0.0
 10
42.0389
 20
-10.2345
 30
0.0
 10
41.9419
 20
-10.2643
 30
0.0
 10
41.9419
 20
-10.2643
 30
0.0
 10
41.8449
 20
-10.2941
 30
0.0
 10
41.7282
 20
-10.3093
 30
0.0
 10
41.5923
 20
-10.3089
 30
0.0
 10
41.5923
 20
-10.3089
 30
0.0
 10
41.3849
 20
-10.3083
 30
0.0
 10
41.2001
 20
-10.2663
 30
0.0
 10
41.0381
 20
-10.1831
 30
0.0
 10
41.0381
 20
-10.1831
 30
0.0
 10
40.876
 20
-10.0998
 30
0.0
 10
40.7537
 20
-9.9838
 30
0.0
 10
40.6704
 20
-9.8339
 30
0.0
 10
40.6704
 20
-9.8339
 30
0.0
 10
40.5876
 20
-9.6846
 30
0.0
 10
40.5462
 20
-9.5183
 30
0.0
 10
40.5467
 20
-9.3354
 30
0.0
 10
40.5467
 20
-9.3354
 30
0.0
 10
40.5471
 20
-9.2121
 30
0.0
 10
40.5634
 20
-9.1045
 30
0.0
 10
40.5967
 20
-9.0124
 30
0.0
 10
40.5967
 20
-9.0124
 30
0.0
 10
40.6294
 20
-8.9203
 30
0.0
 10
40.6866
 20
-8.8207
 30
0.0
 10
40.7678
 20
-8.7147
 30
0.0
  0
SPLINE
  5
7F
330
1F
100
AcDbEntity
  8
VRSTVA_1
 62
   250
100
AcDbSpline
210
0.0
220
0.0
230
1.0
 70
    11
 71
     3
 72
    32
 73
    28
 74
     0
 42
0.0000000001
 43
0.0000000001
 40
0.0
 40
0.0
 40
0.0
 40
0.0
 40
0.125
 40
0.125
 40
0.125
 40
0.125
 40
0.25
 40
0.25
 40
0.25
 40
0.25
 40
0.375
 40
0.375
 40
0.375
 40
0.375
 40
0.5
 40
0.5
 40
0.5
 40
0.5
 40
0.625
 40
0.625
 40
0.625
 40
0.625
 40
0.75
 40
0.75
 40
0.75
 40
0.75
 40
1.0
 40
1.0
 40
1.0
 40
1.0
 10
40.9531
 20
-8.8803
 30
0.0
 10
40.8851
 20
-8.9667
 30
0.0
 10
40.8383
 20
-9.0423
 30
0.0
 10
40.8132
 20
-9.1066
 30
0.0
 10
40.8132
 20
-9.1066
 30
0.0
 10
40.7885
 20
-9.1715
 30
0.0
 10
40.7756
 20
-9.2476
 30
0.0
 10
40.7753
 20
-9.3347
 30
0.0
 10
40.7753
 20
-9.3347
 30
0.0
 10
40.7747
 20
-9.536
 30
0.0
 10
40.8424
 20
-9.7022
 30
0.0
 10
40.9784
 20
-9.8343
 30
0.0
 10
40.9784
 20
-9.8343
 30
0.0
 10
41.1145
 20
-9.966
 30
0.0
 10
41.3179
 20
-10.0324
 30
0.0
 10
41.5893
 20
-10.0333
 30
0.0
 10
41.5893
 20
-10.0333
 30
0.0
 10
41.6956
 20
-10.0336
 30
0.0
 10
41.7903
 20
-10.0236
 30
0.0
 10
41.8731
 20
-10.0035
 30
0.0
 10
41.8731
 20
-10.0035
 30
0.0
 10
41.9348
 20
-9.9891
 30
0.0
 10
42.0106
 20
-9.9588
 30
0.0
 10
42.1005
 20
-9.912
 30
0.0
 10
42.1005
 20
-9.912
 30
0.0
 10
42.1005
 20
-9.912
 30
0.0
 10
40.9531
 20
-8.8803
 30
0.0
 10
40.9531
 20
-8.8803
 30
0.0
  0
SPLINE
  5
80
330
1F
100
AcDbEntity
  8
VRSTVA_1
 62
   250
100
AcDbSpline
210
0.0
220
0.0
230
1.0
 70
    11
 71
     3
 72
    28
 73
    24
 74
     0
 42
0.0000000001
 43
0.0000000001
 40
0.0
 40
0.0
 40
0.0
 40
0.0
 40
0.1428571428571428
 40
0.1428571428571428
 40
0.1428571428571428
 40
0.1428571428571428
 40
0.2857142857142857
 40
0.2857142857142857
 40
0.2857142857142857
 40
0.2857142857142857
 40
0.4285714285714285
 40
0.4285714285714285
 40
0.4285714285714285
 40
0.4285714285714285
 40
0.5714285714285714
 40
0.5714285714285714
 40
0.5714285714285714
 40
0.5714285714285714
 40
0.7142857142857143
 40
0.7142857142857143
 40
0.7142857142857143
 40
0.7142857142857143
 40
1.0
 40
1.0
 40
1.0
 40
1.0
 10
41.0955
 20
-8.7679
 30
0.0
 10
41.0955
 20
-8.7679
 30
0.0
 10
42.2387
 20
-9.7953
 30
0.0
 10
42.2387
 20
-9.7953
 30
0.0
 10
42.2387
 20
-9.7953
 30
0.0
 10
42.2968
 20
-9.725
 30
0.0
 10
42.3375
 20
-9.6597
 30
0.0
 10
42.3606
 20
-9.6
 30
0.0
 10
42.3606
 20
-9.6
 30
0.0
 10
42.3915
 20
-9.5221
 30
0.0
 10
42.4067
 20
-9.4374
 30
0.0
 10
42.407
 20
-9.3466
 30
0.0
 10
42.407
 20
-9.3466
 30
0.0
 10
42.4076
 20
-9.1462
 30
0.0
 10
42.3376
 20
-8.9809
 30
0.0
 10
42.1964
 20
-8.8498
 30
0.0
 10
42.1964
 20
-8.8498
 30
0.0
 10
42.0552
 20
-8.7191
 30
0.0
 10
41.8569
 20
-8.6531
 30
0.0
 10
41.6015
 20
-8.6523
 30
0.0
 10
41.6015
 20
-8.6523
 30
0.0
 10
41.4106
 20
-8.6517
 30
0.0
 10
41.2416
 20
-8.6902
 30
0.0
 10
41.0955
 20
-8.7679
 30
0.0
  0
SPLINE
  5
81
330
1F
100
AcDbEntity
  8
VRSTVA_1
 62
   250
100
AcDbSpline
210
0.0
220
0.0
230
1.0
 70
    11
 71
     3
 72
    48
 73
    44
 74
     0
 42
0.0000000001
 43
0.0000000001
 40
0.0
 40
0.0
 40
0.0
 40
0.0
 40
0.0833333333333333
 40
0.0833333333333333
 40
0.0833333333333333
 40
0.0833333333333333
 40
0.1666666666666667
 40
0.1666666666666667
 40
0.1666666666666667
 40
0.1666666666666667
 40
0.25
 40
0.25
 40
0.25
 40
0.25
 40
0.3333333333333333
 40
0.3333333333333333
 40
0.3333333333333333
 40
0.3333333333333333
 40
0.4166666666666667
 40
0.4166666666666667
 40
0.4166666666666667
 40
0.4166666666666667
 40
0.5
 40
0.5
 40
0.5
 40
0.5
 40
0.5833333333333334
 40
0.5833333333333334
 40
0.5833333333333334
 40
0.5833333333333334
 40
0.6666666666666666
 40
0.6666666666666666
 40
0.6666666666666666
 40
0.6666666666666666
 40
0.75
 40
0.75
 40
0.75
 40
0.75
 40
0.8333333333333334
 40
0.8333333333333334
 40
0.8333333333333334
 40
0.8333333333333334
 40
1.0
 40
1.0
 40
1.0
 40
1.0
 10
42.6073
 20
-7.3355
 30
0.0
 10
42.6073
 20
-7.3355
 30
0.0
 10
42.1238
 20
-7.3341
 30
0.0
 10
42.1238
 20
-7.3341
 30
0.0
 10
42.1238
 20
-7.3341
 30
0.0
 10
42.1238
 20
-7.3341
 30
0.0
 10
42.1212
 20
-8.2104
 30
0.0
 10
42.1212
 20
-8.2104
 30
0.0
 10
42.1212
 20
-8.2104
 30
0.0
 10
42.1212
 20
-8.2104
 30
0.0
 10
41.8935
 20
-8.2097
 30
0.0
 10
41.8935
 20
-8.2097
 30
0.0
 10
41.8935
 20
-8.2097
 30
0.0
 10
41.8935
 20
-8.2097
 30
0.0
 10
40.5873
 20
-7.2837
 30
0.0
 10
40.5873
 20
-7.2837
 30
0.0
 10
40.5873
 20
-7.2837
 30
0.0
 10
40.5873
 20
-7.2837
 30
0.0
 10
40.5879
 20
-7.081
 30
0.0
 10
40.5879
 20
-7.081
 30
0.0
 10
40.5879
 20
-7.081
 30
0.0
 10
40.5879
 20
-7.081
 30
0.0
 10
41.8969
 20
-7.085
 30
0.0
 10
41.8969
 20
-7.085
 30
0.0
 10
41.8969
 20
-7.085
 30
0.0
 10
41.8969
 20
-7.085
 30
0.0
 10
41.8977
 20
-6.8122
 30
0.0
 10
41.8977
 20
-6.8122
 30
0.0
 10
41.8977
 20
-6.8122
 30
0.0
 10
41.8977
 20
-6.8122
 30
0.0
 10
42.1254
 20
-6.8129
 30
0.0
 10
42.1254
 20
-6.8129
 30
0.0
 10
42.1254
 20
-6.8129
 30
0.0
 10
42.1254
 20
-6.8129
 30
0.0
 10
42.1246
 20
-7.0857
 30
0.0
 10
42.1246
 20
-7.0857
 30
0.0
 10
42.1246
 20
-7.0857
 30
0.0
 10
42.1246
 20
-7.0857
 30
0.0
 10
42.6081
 20
-7.0871
 30
0.0
 10
42.6081
 20
-7.0871
 30
0.0
 10
42.6081
 20
-7.0871
 30
0.0
 10
42.6081
 20
-7.0871
 30
0.0
 10
42.6073
 20
-7.3355
 30
0.0
 10
42.6073
 20
-7.3355
 30
0.0
  0
SPLINE
  5
82
330
1F
100
AcDbEntity
  8
VRSTVA_1
 62
   250
100
AcDbSpline
210
0.0
220
0.0
230
1.0
 70
    11
 71
     3
 72
    16
 73
    12
 74
     0
 42
0.0000000001
 43
0.0000000001
 40
0.0
 40
0.0
 40
0.0
 40
0.0
 40
0.25
 40
0.25
 40
0.25
 40
0.25
 40
0.5
 40
0.5
 40
0.5
 40
0.5
 40
1.0
 40
1.0
 40
1.0
 40
1.0
 10
41.8961
 20
-7.3334
 30
0.0
 10
41.8961
 20
-7.3334
 30
0.0
 10
40.9855
 20
-7.3306
 30
0.0
 10
40.9855
 20
-7.3306
 30
0.0
 10
40.9855
 20
-7.3306
 30
0.0
 10
40.9855
 20
-7.3306
 30
0.0
 10
41.8942
 20
-7.9655
 30
0.0
 10
41.8942
 20
-7.9655
 30
0.0
 10
41.8942
 20
-7.9655
 30
0.0
 10
41.8942
 20
-7.9655
 30
0.0
 10
41.8961
 20
-7.3334
 30
0.0
 10
41.8961
 20
-7.3334
 30
0.0
  0
SPLINE
  5
83
330
1F
100
AcDbEntity
  8
VRSTVA_1
 62
   250
100
AcDbSpline
210
0.0
220
0.0
230
1.0
 70
    11
 71
     3
 72
    52
 73
    48
 74
     0
 42
0.0000000001
 43
0.0000000001
 40
0.0
 40
0.0
 40
0.0
 40
0.0
 40
0.0769230769230769
 40
0.0769230769230769
 40
0.0769230769230769
 40
0.0769230769230769
 40
0.1538461538461539
 40
0.1538461538461539
 40
0.1538461538461539
 40
0.1538461538461539
 40
0.2307692307692308
 40
0.2307692307692308
 40
0.2307692307692308
 40
0.2307692307692308
 40
0.3076923076923077
 40
0.3076923076923077
 40
0.3076923076923077
 40
0.3076923076923077
 40
0.3846153846153846
 40
0.3846153846153846
 40
0.3846153846153846
 40
0.3846153846153846
 40
0.4615384615384616
 40
0.4615384615384616
 40
0.4615384615384616
 40
0.4615384615384616
 40
0.5384615384615384
 40
0.5384615384615384
 40
0.5384615384615384
 40
0.5384615384615384
 40
0.6153846153846154
 40
0.6153846153846154
 40
0.6153846153846154
 40
0.6153846153846154
 40
0.6923076923076923
 40
0.6923076923076923
 40
0.6923076923076923
 40
0.6923076923076923
 40
0.7692307692307693
 40
0.7692307692307693
 40
0.7692307692307693
 40
0.7692307692307693
 40
0.8461538461538461
 40
0.8461538461538461
 40
0.8461538461538461
 40
0.8461538461538461
 40
1.0
 40
1.0
 40
1.0
 40
1.0
 10
41.6135
 20
-6.5578
 30
0.0
 10
41.3745
 20
-6.5571
 30
0.0
 10
41.1822
 20
-6.532
 30
0.0
 10
41.037
 20
-6.4822
 30
0.0
 10
41.037
 20
-6.4822
 30
0.0
 10
40.8913
 20
-6.4329
 30
0.0
 10
40.7792
 20
-6.3591
 30
0.0
 10
40.7004
 20
-6.262
 30
0.0
 10
40.7004
 20
-6.262
 30
0.0
 10
40.6217
 20
-6.1648
 30
0.0
 10
40.5825
 20
-6.0429
 30
0.0
 10
40.583
 20
-5.8962
 30
0.0
 10
40.583
 20
-5.8962
 30
0.0
 10
40.5833
 20
-5.7875
 30
0.0
 10
40.6057
 20
-5.6926
 30
0.0
 10
40.6497
 20
-5.6109
 30
0.0
 10
40.6497
 20
-5.6109
 30
0.0
 10
40.6932
 20
-5.5292
 30
0.0
 10
40.7565
 20
-5.462
 30
0.0
 10
40.8389
 20
-5.4087
 30
0.0
 10
40.8389
 20
-5.4087
 30
0.0
 10
40.9214
 20
-5.3558
 30
0.0
 10
41.0217
 20
-5.3142
 30
0.0
 10
41.1398
 20
-5.2845
 30
0.0
 10
41.1398
 20
-5.2845
 30
0.0
 10
41.258
 20
-5.2542
 30
0.0
 10
41.417
 20
-5.2397
 30
0.0
 10
41.6174
 20
-5.2403
 30
0.0
 10
41.6174
 20
-5.2403
 30
0.0
 10
41.8544
 20
-5.241
 30
0.0
 10
42.0454
 20
-5.266
 30
0.0
 10
42.191
 20
-5.315
 30
0.0
 10
42.191
 20
-5.315
 30
0.0
 10
42.3367
 20
-5.3643
 30
0.0
 10
42.4488
 20
-5.4375
 30
0.0
 10
42.5281
 20
-5.5347
 30
0.0
 10
42.5281
 20
-5.5347
 30
0.0
 10
42.6073
 20
-5.6318
 30
0.0
 10
42.6464
 20
-5.7542
 30
0.0
 10
42.646
 20
-5.9024
 30
0.0
 10
42.646
 20
-5.9024
 30
0.0
 10
42.6454
 20
-6.0971
 30
0.0
 10
42.5753
 20
-6.2498
 30
0.0
 10
42.4353
 20
-6.3604
 30
0.0
 10
42.4353
 20
-6.3604
 30
0.0
 10
42.267
 20
-6.493
 30
0.0
 10
41.9926
 20
-6.559
 30
0.0
 10
41.6135
 20
-6.5578
 30
0.0
  0
SPLINE
  5
84
330
1F
100
AcDbEntity
  8
VRSTVA_1
 62
   250
100
AcDbSpline
210
0.0
220
0.0
230
1.0
 70
    11
 71
     3
 72
    36
 73
    32
 74
     0
 42
0.0000000001
 43
0.0000000001
 40
0.0
 40
0.0
 40
0.0
 40
0.0
 40
0.1111111111111111
 40
0.1111111111111111
 40
0.1111111111111111
 40
0.1111111111111111
 40
0.2222222222222222
 40
0.2222222222222222
 40
0.2222222222222222
 40
0.2222222222222222
 40
0.3333333333333333
 40
0.3333333333333333
 40
0.3333333333333333
 40
0.3333333333333333
 40
0.4444444444444444
 40
0.4444444444444444
 40
0.4444444444444444
 40
0.4444444444444444
 40
0.5555555555555556
 40
0.5555555555555556
 40
0.5555555555555556
 40
0.5555555555555556
 40
0.6666666666666666
 40
0.6666666666666666
 40
0.6666666666666666
 40
0.6666666666666666
 40
0.7777777777777778
 40
0.7777777777777778
 40
0.7777777777777778
 40
0.7777777777777778
 40
1.0
 40
1.0
 40
1.0
 40
1.0
 10
41.6142
 20
-6.3028
 30
0.0
 10
41.9458
 20
-6.3038
 30
0.0
 10
42.1666
 20
-6.2655
 30
0.0
 10
42.2768
 20
-6.1882
 30
0.0
 10
42.2768
 20
-6.1882
 30
0.0
 10
42.3866
 20
-6.1109
 30
0.0
 10
42.442
 20
-6.0156
 30
0.0
 10
42.4424
 20
-5.9018
 30
0.0
 10
42.4424
 20
-5.9018
 30
0.0
 10
42.4427
 20
-5.7875
 30
0.0
 10
42.3875
 20
-5.6918
 30
0.0
 10
42.2776
 20
-5.6139
 30
0.0
 10
42.2776
 20
-5.6139
 30
0.0
 10
42.1678
 20
-5.536
 30
0.0
 10
41.9473
 20
-5.4962
 30
0.0
 10
41.6167
 20
-5.4952
 30
0.0
 10
41.6167
 20
-5.4952
 30
0.0
 10
41.2841
 20
-5.4942
 30
0.0
 10
41.0629
 20
-5.5327
 30
0.0
 10
40.9535
 20
-5.6099
 30
0.0
 10
40.9535
 20
-5.6099
 30
0.0
 10
40.8437
 20
-5.6872
 30
0.0
 10
40.7889
 20
-5.7834
 30
0.0
 10
40.7886
 20
-5.8991
 30
0.0
 10
40.7886
 20
-5.8991
 30
0.0
 10
40.7882
 20
-6.0134
 30
0.0
 10
40.8363
 20
-6.1044
 30
0.0
 10
40.9325
 20
-6.1729
 30
0.0
 10
40.9325
 20
-6.1729
 30
0.0
 10
41.0551
 20
-6.2583
 30
0.0
 10
41.2826
 20
-6.3018
 30
0.0
 10
41.6142
 20
-6.3028
 30
0.0
  0
SPLINE
  5
85
330
1F
100
AcDbEntity
  8
VRSTVA_1
 62
   250
100
AcDbSpline
210
0.0
220
0.0
230
1.0
 70
    11
 71
     3
 72
    20
 73
    16
 74
     0
 42
0.0000000001
 43
0.0000000001
 40
0.0
 40
0.0
 40
0.0
 40
0.0
 40
0.2
 40
0.2
 40
0.2
 40
0.2
 40
0.4
 40
0.4
 40
0.4
 40
0.4
 40
0.6
 40
0.6
 40
0.6
 40
0.6
 40
1.0
 40
1.0
 40
1.0
 40
1.0
 10
43.8978
 20
13.5465
 30
0.0
 10
43.8978
 20
13.5465
 30
0.0
 10
43.4745
 20
10.5465
 30
0.0
 10
43.4745
 20
10.5465
 30
0.0
 10
43.4745
 20
10.5465
 30
0.0
 10
43.4745
 20
10.5465
 30
0.0
 10
43.3804
 20
10.5465
 30
0.0
 10
43.3804
 20
10.5465
 30
0.0
 10
43.3804
 20
10.5465
 30
0.0
 10
43.3804
 20
10.5465
 30
0.0
 10
42.929
 20
13.5465
 30
0.0
 10
42.929
 20
13.5465
 30
0.0
 10
42.929
 20
13.5465
 30
0.0
 10
42.929
 20
13.5465
 30
0.0
 10
43.8978
 20
13.5465
 30
0.0
 10
43.8978
 20
13.5465
 30
0.0
  0
ENDSEC
  0
SECTION
  2
OBJECTS
  0
DICTIONARY
  5
C
330
0
100
AcDbDictionary
  3
ACAD_GROUP
350
D
  3
ACAD_LAYOUT
350
1A
  3
ACAD_MATERIAL
350
3B
  3
ACAD_MLEADERSTYLE
350
A8
  3
ACAD_MLINESTYLE
350
17
  3
ACAD_PLOTSETTINGS
350
19
  3
ACAD_VISUALSTYLE
350
2A
  3
ACDBHEADERROUNDTRIPXREC
350
86
  3
ACDBVARIABLEDICTIONARY
350
A6
  0
DICTIONARY
  5
D
102
{ACAD_REACTORS
330
C
102
}
330
C
100
AcDbDictionary
  0
DICTIONARY
  5
1A
102
{ACAD_REACTORS
330
C
102
}
330
C
100
AcDbDictionary
  0
DICTIONARY
  5
3B
102
{ACAD_REACTORS
330
C
102
}
330
C
100
AcDbDictionary
  3
BYBLOCK
350
3D
  3
BYLAYER
350
3C
  3
GLOBAL
350
3E
  0
DICTIONARY
  5
A8
102
{ACAD_REACTORS
330
C
102
}
330
C
100
AcDbDictionary
  0
DICTIONARY
  5
17
102
{ACAD_REACTORS
330
C
102
}
330
C
100
AcDbDictionary
  3
STANDARD
350
18
  0
DICTIONARY
  5
19
102
{ACAD_REACTORS
330
C
102
}
330
C
100
AcDbDictionary
  0
DICTIONARY
  5
2A
102
{ACAD_REACTORS
330
C
102
}
330
C
100
AcDbDictionary
  3
2DWIREFRAME
350
2F
  3
3D_HIDDEN
350
31
  3
3DWIREFRAME
350
30
  3
BASIC
350
32
  3
BRIGHTEN
350
36
  3
COLORCHANGE
350
3A
  3
CONCEPTUAL
350
34
  3
DIM
350
35
  3
FACEPATTERN
350
39
  3
FLAT
350
2B
  3
FLATWITHEDGES
350
2C
  3
GOURAUD
350
2D
  3
GOURAUDWITHEDGES
350
2E
  3
LINEPATTERN
350
38
  3
REALISTIC
350
33
  3
THICKEN
350
37
  0
DICTIONARY
  5
86
102
{ACAD_REACTORS
330
C
102
}
330
C
100
AcDbDictionary
  3
CEPSNTYPE
350
8F
  3
DIMSTYLEDATA
350
A5
  3
FINGERPRINTGUID
350
90
  3
HYPERLINKBASE
350
89
  3
INSUNITS
350
8E
  3
LAYOUTDICT
350
8B
  3
LWETCUNION
350
8D
  3
PLOTSETDICT
350
8C
  3
PSVPSCALE
350
92
  3
PUCSBASE
350
95
  3
PUCSORGBACK
350
9B
  3
PUCSORGBOTTOM
350
97
  3
PUCSORGFRONT
350
9A
  3
PUCSORGLEFT
350
98
  3
PUCSORGRIGHT
350
99
  3
PUCSORGTOP
350
96
  3
PUCSORTHOREF
350
93
  3
PUCSORTHOVIEW
350
94
  3
STYLESHEET
350
8A
  3
TSTACKALIGN
350
87
  3
TSTACKSIZE
350
88
  3
UCSBASE
350
9E
  3
UCSORGBACK
350
A4
  3
UCSORGBOTTOM
350
A0
  3
UCSORGFRONT
350
A3
  3
UCSORGLEFT
350
A1
  3
UCSORGRIGHT
350
A2
  3
UCSORGTOP
350
9F
  3
UCSORTHOREF
350
9C
  3
UCSORTHOVIEW
350
9D
  3
VERSIONGUID
350
91
  0
DICTIONARY
  5
A6
102
{ACAD_REACTORS
330
C
102
}
330
C
100
AcDbDictionary
  3
DIMASSOC
350
A9
  3
HIDETEXT
350
AA
  0
MATERIAL
  5
3D
102
{ACAD_REACTORS
330
3B
102
}
102
{ACAD_XDICTIONARY
360
AD
102
}
330
3B
100
AcDbMaterial
  1
ByBlock
  0
MATERIAL
  5
3C
102
{ACAD_REACTORS
330
3B
102
}
102
{ACAD_XDICTIONARY
360
AB
102
}
330
3B
100
AcDbMaterial
  1
ByLayer
  0
MATERIAL
  5
3E
102
{ACAD_REACTORS
330
3B
102
}
102
{ACAD_XDICTIONARY
360
AF
102
}
330
3B
100
AcDbMaterial
  1
Global
  0
MLINESTYLE
  5
18
102
{ACAD_REACTORS
330
17
102
}
330
17
100
AcDbMlineStyle
  2
Standard
 70
     0
  3

 62
   256
 51
90.0
 52
90.0
 71
     2
 49
0.5
 62
   256
  6
BYLAYER
 49
-0.5
 62
   256
  6
BYLAYER
  0
ACAD_PROXY_OBJECT
  5
2F
102
{ACAD_REACTORS
330
2A
102
}
330
2A
100
AcDbProxyObject
 90
      499
 91
      501
 93
      436
310
42CC9915DA5C99599C985B595049028333333333333E3BF0000000000000FB0107901411070040501600405405064090741402480A0340
1001
ACAD
1000
AcDbSavedByObjectVersion
1070
     0
  0
ACAD_PROXY_OBJECT
  5
31
102
{ACAD_REACTORS
330
2A
102
}
330
2A
100
AcDbProxyObject
 90
      499
 91
      501
 93
      500
310
424CD108121A5919195B90640502408333333333333E3BF0000000000000FB01079024090700405020000000000001110200405405064090740C02480A0340
1001
ACAD
1000
AcDbSavedByObjectVersion
1070
     0
  0
ACAD_PROXY_OBJECT
  5
30
102
{ACAD_REACTORS
330
2A
102
}
330
2A
100
AcDbProxyObject
 90
      499
 91
      501
 93
      436
310
42CCD915DA5C99599C985B595059028333333333333E3BF0000000000000FB0107901411070040501600405405064090741402480A0340
1001
ACAD
1000
AcDbSavedByObjectVersion
1070
     0
  0
ACAD_PROXY_OBJECT
  5
32
102
{ACAD_REACTORS
330
2A
102
}
330
2A
100
AcDbProxyObject
 90
      499
 91
      501
 93
      388
310
4150985CDA58D07406404333333333333E3BF0000000000000FB0107A41107004050150841D405064090741402480A0350
1001
ACAD
1000
AcDbSavedByObjectVersion
1070
     0
  0
ACAD_PROXY_OBJECT
  5
36
102
{ACAD_REACTORS
330
2A
102
}
330
2A
100
AcDbProxyObject
 90
      499
 91
      501
 93
      428
310
42109C9A59DA1D195B90C409028333333333333E3BF0000000000000FB010790141107004050150841D405064090741402480A029950
1001
ACAD
1000
AcDbSavedByObjectVersion
1070
     0
  0
ACAD_PROXY_OBJECT
  5
3A
102
{ACAD_REACTORS
330
2A
102
}
330
2A
100
AcDbProxyObject
 90
      499
 91
      501
 93
      452
310
42D0DBDB1BDC90DA185B99D95104090240C333333333333E3BF0000000000000FB0108901411070040501508421405064090741402480A0350
1001
ACAD
1000
AcDbSavedByObjectVersion
1070
     0
  0
ACAD_PROXY_OBJECT
  5
34
102
{ACAD_REACTORS
330
2A
102
}
330
2A
100
AcDbProxyObject
 90
      499
 91
      501
 93
      500
310
4290DBDB98D95C1D1D585B10940D028333333333333E3BF0000000000000FB0107902409070040501000000000000111010841D405064090740C02480A0340
1001
ACAD
1000
AcDbSavedByObjectVersion
1070
     0
  0
ACAD_PROXY_OBJECT
  5
35
102
{ACAD_REACTORS
330
2A
102
}
330
2A
100
AcDbProxyObject
 90
      499
 91
      501
 93
      412
310
40D11A5B50B409028333333333333E3BF0000000000000FB010790141107004050150841D405064090741402480A02677FFFFFD0
1001
ACAD
1000
AcDbSavedByObjectVersion
1070
     0
  0
ACAD_PROXY_OBJECT
  5
39
102
{ACAD_REACTORS
330
2A
102
}
330
2A
100
AcDbProxyObject
 90
      499
 91
      501
 93
      444
310
42D19858D95C185D1D195C9B90F409028333333333333E3BF0000000000000FB010790141107004050150841D405064090741402480A0350
1001
ACAD
1000
AcDbSavedByObjectVersion
1070
     0
  0
ACAD_PROXY_OBJECT
  5
2B
102
{ACAD_REACTORS
330
2A
102
}
330
2A
100
AcDbProxyObject
 90
      499
 91
      501
 93
      388
310
41119B185D240901404333333333333E3BF0000000000000F9010740A41107004050150841D405064090741402480A1B50
1001
ACAD
1000
AcDbSavedByObjectVersion
1070
     0
  0
ACAD_PROXY_OBJECT
  5
2C
102
{ACAD_REACTORS
330
2A
102
}
330
2A
100
AcDbProxyObject
 90
      499
 91
      501
 93
      476
310
43519B185D15DA5D1A115919D95CD0140901404333333333333E3BF0000000000000F9010740901411070040501600405405064090741402480A1B50
1001
ACAD
1000
AcDbSavedByObjectVersion
1070
     0
  0
ACAD_PROXY_OBJECT
  5
2D
102
{ACAD_REACTORS
330
2A
102
}
330
2A
100
AcDbProxyObject
 90
      499
 91
      501
 93
      412
310
41D1DBDD5C985D5910240902404333333333333E3BF0000000000000F9010740A411070040501641D405064090741402480A1B50
1001
ACAD
1000
AcDbSavedByObjectVersion
1070
     0
  0
ACAD_PROXY_OBJECT
  5
2E
102
{ACAD_REACTORS
330
2A
102
}
330
2A
100
AcDbProxyObject
 90
      499
 91
      501
 93
      500
310
4411DBDD5C985D5915DA5D1A115919D95CD0340902404333333333333E3BF0000000000000F9010740901411070040501600405405064090741402480A1B50
1001
ACAD
1000
AcDbSavedByObjectVersion
1070
     0
  0
ACAD_PROXY_OBJECT
  5
38
102
{ACAD_REACTORS
330
2A
102
}
330
2A
100
AcDbProxyObject
 90
      499
 91
      501
 93
      444
310
42D31A5B995C185D1D195C9B90E409028333333333333E3BF0000000000000FB010790141107004050750841D405064090741402483A0350
1001
ACAD
1000
AcDbSavedByObjectVersion
1070
     0
  0
ACAD_PROXY_OBJECT
  5
33
102
{ACAD_REACTORS
330
2A
102
}
330
2A
100
AcDbProxyObject
 90
      499
 91
      501
 93
      420
310
425499585B1A5CDD1A58D08409028333333333333E3BF0000000000000FB01079019070040501508421405064090741402480A1B40
1001
ACAD
1000
AcDbSavedByObjectVersion
1070
     0
  0
ACAD_PROXY_OBJECT
  5
37
102
{ACAD_REACTORS
330
2A
102
}
330
2A
100
AcDbProxyObject
 90
      499
 91
      501
 93
      412
310
41D51A1A58DAD95B90D409028333333333333E3BF0000000000000FB010790141107004050150C41D405064090741402480A0350
1001
ACAD
1000
AcDbSavedByObjectVersion
1070
     0
  0
XRECORD
  5
8F
102
{ACAD_REACTORS
330
86
102
}
330
86
100
AcDbXrecord
 90
        0
  0
XRECORD
  5
A5
102
{ACAD_REACTORS
330
86
102
}
330
86
100
AcDbXrecord
1000
DSTYLE
1002
{
1070
   340
340
11
1002
}
  0
XRECORD
  5
90
102
{ACAD_REACTORS
330
86
102
}
330
86
100
AcDbXrecord
  1
{A017B8F0-5FA5-4E12-A6F7-31A10621D70F}
  0
XRECORD
  5
89
102
{ACAD_REACTORS
330
86
102
}
330
86
100
AcDbXrecord
  1

  0
XRECORD
  5
8E
102
{ACAD_REACTORS
330
86
102
}
330
86
100
AcDbXrecord
 90
        4
  0
XRECORD
  5
8B
102
{ACAD_REACTORS
330
86
102
}
330
86
100
AcDbXrecord
340
1A
  0
XRECORD
  5
8D
102
{ACAD_REACTORS
330
86
102
}
330
86
100
AcDbXrecord
 90
    10781
  0
XRECORD
  5
8C
102
{ACAD_REACTORS
330
86
102
}
330
86
100
AcDbXrecord
340
19
  0
XRECORD
  5
92
102
{ACAD_REACTORS
330
86
102
}
330
86
100
AcDbXrecord
 40
0.0
  0
XRECORD
  5
95
102
{ACAD_REACTORS
330
86
102
}
330
86
100
AcDbXrecord
340
0
  0
XRECORD
  5
9B
102
{ACAD_REACTORS
330
86
102
}
330
86
100
AcDbXrecord
 10
0.0
 20
0.0
 30
0.0
  0
XRECORD
  5
97
102
{ACAD_REACTORS
330
86
102
}
330
86
100
AcDbXrecord
 10
0.0
 20
0.0
 30
0.0
  0
XRECORD
  5
9A
102
{ACAD_REACTORS
330
86
102
}
330
86
100
AcDbXrecord
 10
0.0
 20
0.0
 30
0.0
  0
XRECORD
  5
98
102
{ACAD_REACTORS
330
86
102
}
330
86
100
AcDbXrecord
 10
0.0
 20
0.0
 30
0.0
  0
XRECORD
  5
99
102
{ACAD_REACTORS
330
86
102
}
330
86
100
AcDbXrecord
 10
0.0
 20
0.0
 30
0.0
  0
XRECORD
  5
96
102
{ACAD_REACTORS
330
86
102
}
330
86
100
AcDbXrecord
 10
0.0
 20
0.0
 30
0.0
  0
XRECORD
  5
93
102
{ACAD_REACTORS
330
86
102
}
330
86
100
AcDbXrecord
340
0
  0
XRECORD
  5
94
102
{ACAD_REACTORS
330
86
102
}
330
86
100
AcDbXrecord
 70
     0
  0
XRECORD
  5
8A
102
{ACAD_REACTORS
330
86
102
}
330
86
100
AcDbXrecord
  1

  0
XRECORD
  5
87
102
{ACAD_REACTORS
330
86
102
}
330
86
100
AcDbXrecord
 90
        1
  0
XRECORD
  5
88
102
{ACAD_REACTORS
330
86
102
}
330
86
100
AcDbXrecord
 90
       70
  0
XRECORD
  5
9E
102
{ACAD_REACTORS
330
86
102
}
330
86
100
AcDbXrecord
340
0
  0
XRECORD
  5
A4
102
{ACAD_REACTORS
330
86
102
}
330
86
100
AcDbXrecord
 10
0.0
 20
0.0
 30
0.0
  0
XRECORD
  5
A0
102
{ACAD_REACTORS
330
86
102
}
330
86
100
AcDbXrecord
 10
0.0
 20
0.0
 30
0.0
  0
XRECORD
  5
A3
102
{ACAD_REACTORS
330
86
102
}
330
86
100
AcDbXrecord
 10
0.0
 20
0.0
 30
0.0
  0
XRECORD
  5
A1
102
{ACAD_REACTORS
330
86
102
}
330
86
100
AcDbXrecord
 10
0.0
 20
0.0
 30
0.0
  0
XRECORD
  5
A2
102
{ACAD_REACTORS
330
86
102
}
330
86
100
AcDbXrecord
 10
0.0
 20
0.0
 30
0.0
  0
XRECORD
  5
9F
102
{ACAD_REACTORS
330
86
102
}
330
86
100
AcDbXrecord
 10
0.0
 20
0.0
 30
0.0
  0
XRECORD
  5
9C
102
{ACAD_REACTORS
330
86
102
}
330
86
100
AcDbXrecord
340
0
  0
XRECORD
  5
9D
102
{ACAD_REACTORS
330
86
102
}
330
86
100
AcDbXrecord
 70
     0
  0
XRECORD
  5
91
102
{ACAD_REACTORS
330
86
102
}
330
86
100
AcDbXrecord
  1
{FAEB1C32-E019-11D5-929B-00C0DF256EC4}
  0
DICTIONARYVAR
  5
A9
102
{ACAD_REACTORS
330
A6
102
}
330
A6
100
DictionaryVariables
280
     0
  1
2
  0
DICTIONARYVAR
  5
AA
102
{ACAD_REACTORS
330
A6
102
}
330
A6
100
DictionaryVariables
280
     0
  1
1
  0
DICTIONARY
  5
AD
330
3D
100
AcDbDictionary
280
     1
  3
ACAD_XREC_ROUNDTRIP
360
AE
  0
DICTIONARY
  5
AB
330
3C
100
AcDbDictionary
280
     1
  3
ACAD_XREC_ROUNDTRIP
360
AC
  0
DICTIONARY
  5
AF
330
3E
100
AcDbDictionary
280
     1
  3
ACAD_XREC_ROUNDTRIP
360
B0
  0
XRECORD
  5
AE
102
{ACAD_REACTORS
330
AD
102
}
330
AD
100
AcDbXrecord
102
MATERIAL
148
0.0
149
0.0
149
0.0
 93
        0
 94
      127
282
     0
 72
     1
 77
     1
171
     1
175
     1
179
     1
273
     0
  0
XRECORD
  5
AC
102
{ACAD_REACTORS
330
AB
102
}
330
AB
100
AcDbXrecord
102
MATERIAL
148
0.0
149
0.0
149
0.0
 93
        0
 94
      127
282
     0
 72
     1
 77
     1
171
     1
175
     1
179
     1
273
     0
  0
XRECORD
  5
B0
102
{ACAD_REACTORS
330
AF
102
}
330
AF
100
AcDbXrecord
102
MATERIAL
148
0.0
149
0.0
149
0.0
 93
        0
 94
      127
282
     0
 72
     1
 77
     1
171
     1
175
     1
179
     1
273
     0
  0
ENDSEC
  0
EOF
