  0
SECTION
  2
HEADER
  9
$ACADVER
  1
AC1014
  9
$ACADMAINTVER
 70
     9
  9
$DWGCODEPAGE
  3
ANSI_1250
  9
$INSBASE
 10
0.0
 20
0.0
 30
0.0
  9
$EXTMIN
 10
-75.5061
 20
-22.0697
 30
0.0
  9
$EXTMAX
 10
75.5062
 20
22.0697
 30
0.0
  9
$LIMMIN
 10
0.0
 20
0.0
  9
$LIMMAX
 10
12.0
 20
9.0
  9
$ORTHOMODE
 70
     0
  9
$REGENMODE
 70
     1
  9
$FILLMODE
 70
     1
  9
$QTEXTMODE
 70
     0
  9
$MIRRTEXT
 70
     1
  9
$DRAGMODE
 70
     2
  9
$LTSCALE
 40
1.0
  9
$OSMODE
 70
    37
  9
$ATTMODE
 70
     1
  9
$TEXTSIZE
 40
0.2
  9
$TRACEWID
 40
0.05
  9
$TEXTSTYLE
  7
STANDARD
  9
$CLAYER
  8
0
  9
$CELTYPE
  6
BYLAYER
  9
$CECOLOR
 62
   256
  9
$CELTSCALE
 40
1.0
  9
$DELOBJ
 70
     1
  9
$DISPSILH
 70
     0
  9
$DIMSCALE
 40
1.0
  9
$DIMASZ
 40
0.18
  9
$DIMEXO
 40
0.0625
  9
$DIMDLI
 40
0.38
  9
$DIMRND
 40
0.0
  9
$DIMDLE
 40
0.0
  9
$DIMEXE
 40
0.18
  9
$DIMTP
 40
0.0
  9
$DIMTM
 40
0.0
  9
$DIMTXT
 40
0.18
  9
$DIMCEN
 40
0.09
  9
$DIMTSZ
 40
0.0
  9
$DIMTOL
 70
     0
  9
$DIMLIM
 70
     0
  9
$DIMTIH
 70
     1
  9
$DIMTOH
 70
     1
  9
$DIMSE1
 70
     0
  9
$DIMSE2
 70
     0
  9
$DIMTAD
 70
     0
  9
$DIMZIN
 70
     0
  9
$DIMBLK
  1

  9
$DIMASO
 70
     1
  9
$DIMSHO
 70
     1
  9
$DIMPOST
  1

  9
$DIMAPOST
  1

  9
$DIMALT
 70
     0
  9
$DIMALTD
 70
     2
  9
$DIMALTF
 40
25.4
  9
$DIMLFAC
 40
1.0
  9
$DIMTOFL
 70
     0
  9
$DIMTVP
 40
0.0
  9
$DIMTIX
 70
     0
  9
$DIMSOXD
 70
     0
  9
$DIMSAH
 70
     0
  9
$DIMBLK1
  1

  9
$DIMBLK2
  1

  9
$DIMSTYLE
  2
STANDARD
  9
$DIMCLRD
 70
     0
  9
$DIMCLRE
 70
     0
  9
$DIMCLRT
 70
     0
  9
$DIMTFAC
 40
1.0
  9
$DIMGAP
 40
0.09
  9
$DIMJUST
 70
     0
  9
$DIMSD1
 70
     0
  9
$DIMSD2
 70
     0
  9
$DIMTOLJ
 70
     1
  9
$DIMTZIN
 70
     0
  9
$DIMALTZ
 70
     0
  9
$DIMALTTZ
 70
     0
  9
$DIMFIT
 70
     3
  9
$DIMUPT
 70
     0
  9
$DIMUNIT
 70
     2
  9
$DIMDEC
 70
     4
  9
$DIMTDEC
 70
     4
  9
$DIMALTU
 70
     2
  9
$DIMALTTD
 70
     2
  9
$DIMTXSTY
  7
STANDARD
  9
$DIMAUNIT
 70
     0
  9
$LUNITS
 70
     2
  9
$LUPREC
 70
     4
  9
$SKETCHINC
 40
0.1
  9
$FILLETRAD
 40
0.5
  9
$AUNITS
 70
     0
  9
$AUPREC
 70
     0
  9
$MENU
  1
.
  9
$ELEVATION
 40
0.0
  9
$PELEVATION
 40
0.0
  9
$THICKNESS
 40
0.0
  9
$LIMCHECK
 70
     0
  9
$CHAMFERA
 40
0.5
  9
$CHAMFERB
 40
0.5
  9
$CHAMFERC
 40
1.0
  9
$CHAMFERD
 40
0.0
  9
$SKPOLY
 70
     0
  9
$TDCREATE
 40
2456272.364030787
  9
$TDUPDATE
 40
2456272.364030798
  9
$TDINDWG
 40
0.0000000116
  9
$TDUSRTIMER
 40
0.0000000116
  9
$USRTIMER
 70
     1
  9
$ANGBASE
 50
0.0
  9
$ANGDIR
 70
     0
  9
$PDMODE
 70
     0
  9
$PDSIZE
 40
0.0
  9
$PLINEWID
 40
0.0
  9
$COORDS
 70
     1
  9
$SPLFRAME
 70
     0
  9
$SPLINETYPE
 70
     6
  9
$SPLINESEGS
 70
     8
  9
$ATTDIA
 70
     0
  9
$ATTREQ
 70
     1
  9
$HANDLING
 70
     1
  9
$HANDSEED
  5
142
  9
$SURFTAB1
 70
     6
  9
$SURFTAB2
 70
     6
  9
$SURFTYPE
 70
     6
  9
$SURFU
 70
     6
  9
$SURFV
 70
     6
  9
$UCSNAME
  2

  9
$UCSORG
 10
0.0
 20
0.0
 30
0.0
  9
$UCSXDIR
 10
1.0
 20
0.0
 30
0.0
  9
$UCSYDIR
 10
0.0
 20
1.0
 30
0.0
  9
$PUCSNAME
  2

  9
$PUCSORG
 10
0.0
 20
0.0
 30
0.0
  9
$PUCSXDIR
 10
1.0
 20
0.0
 30
0.0
  9
$PUCSYDIR
 10
0.0
 20
1.0
 30
0.0
  9
$USERI1
 70
     0
  9
$USERI2
 70
     0
  9
$USERI3
 70
     0
  9
$USERI4
 70
     0
  9
$USERI5
 70
     0
  9
$USERR1
 40
0.0
  9
$USERR2
 40
0.0
  9
$USERR3
 40
0.0
  9
$USERR4
 40
0.0
  9
$USERR5
 40
0.0
  9
$WORLDVIEW
 70
     1
  9
$SHADEDGE
 70
     3
  9
$SHADEDIF
 70
    70
  9
$TILEMODE
 70
     1
  9
$MAXACTVP
 70
    64
  9
$PINSBASE
 10
0.0
 20
0.0
 30
0.0
  9
$PLIMCHECK
 70
     0
  9
$PEXTMIN
 10
1.000000000000000E+20
 20
1.000000000000000E+20
 30
1.000000000000000E+20
  9
$PEXTMAX
 10
-1.000000000000000E+20
 20
-1.000000000000000E+20
 30
-1.000000000000000E+20
  9
$PLIMMIN
 10
0.0
 20
0.0
  9
$PLIMMAX
 10
12.0
 20
9.0
  9
$UNITMODE
 70
     0
  9
$VISRETAIN
 70
     1
  9
$PLINEGEN
 70
     0
  9
$PSLTSCALE
 70
     1
  9
$TREEDEPTH
 70
  3020
  9
$PICKSTYLE
 70
     1
  9
$CMLSTYLE
  2
STANDARD
  9
$CMLJUST
 70
     0
  9
$CMLSCALE
 40
1.0
  9
$PROXYGRAPHICS
 70
     1
  9
$MEASUREMENT
 70
     0
  0
ENDSEC
  0
SECTION
  2
CLASSES
  0
CLASS
  1
ACDBDICTIONARYWDFLT
  2
AcDbDictionaryWithDefault
  3
ObjectDBX Classes
 90
        0
280
     0
281
     0
  0
CLASS
  1
VISUALSTYLE
  2
AcDbVisualStyle
  3
ObjectDBX Classes
 90
     4095
280
     0
281
     0
  0
CLASS
  1
MATERIAL
  2
AcDbMaterial
  3
ObjectDBX Classes
 90
     1153
280
     0
281
     0
  0
CLASS
  1
DICTIONARYVAR
  2
AcDbDictionaryVar
  3
ObjectDBX Classes
 90
        0
280
     0
281
     0
  0
CLASS
  1
XRECORD
  2
AcDbXrecord
  3
AutoCAD 2000
 90
        0
280
     0
281
     0
  0
CLASS
  1
LWPOLYLINE
  2
AcDbPolyline
  3
AutoCAD 2000
 90
        0
280
     0
281
     1
  0
CLASS
  1
HATCH
  2
AcDbHatch
  3
AutoCAD 2000
 90
        0
280
     0
281
     1
  0
CLASS
  1
ACDBPLACEHOLDER
  2
AcDbPlaceHolder
  3
ObjectDBX Classes
 90
        0
280
     0
281
     0
  0
CLASS
  1
LAYOUT
  2
AcDbLayout
  3
ObjectDBX Classes
 90
        0
280
     0
281
     0
  0
ENDSEC
  0
SECTION
  2
TABLES
  0
TABLE
  2
VPORT
  5
8
330
0
100
AcDbSymbolTable
 70
     1
  0
VPORT
  5
29
330
8
100
AcDbSymbolTableRecord
100
AcDbViewportTableRecord
  2
*ACTIVE
 70
     0
 10
0.0
 20
0.0
 11
1.0
 21
1.0
 12
10.42990654205607
 22
4.5
 13
0.0
 23
0.0
 14
0.5
 24
0.5
 15
0.5
 25
0.5
 16
0.0
 26
0.0
 36
1.0
 17
0.0
 27
0.0
 37
0.0
 40
9.0
 41
1.972972972850329
 42
50.0
 43
0.0
 44
0.0
 50
0.0
 51
0.0
 71
     0
 72
   100
 73
     1
 74
     3
 75
     0
 76
     0
 77
     0
 78
     0
  0
ENDTAB
  0
TABLE
  2
LTYPE
  5
5
330
0
100
AcDbSymbolTable
 70
     2
  0
LTYPE
  5
14
330
5
100
AcDbSymbolTableRecord
100
AcDbLinetypeTableRecord
  2
BYBLOCK
 70
     0
  3

 72
    65
 73
     0
 40
0.0
  0
LTYPE
  5
15
330
5
100
AcDbSymbolTableRecord
100
AcDbLinetypeTableRecord
  2
BYLAYER
 70
     0
  3

 72
    65
 73
     0
 40
0.0
  0
LTYPE
  5
16
330
5
100
AcDbSymbolTableRecord
100
AcDbLinetypeTableRecord
  2
CONTINUOUS
 70
     0
  3
Solid line
 72
    65
 73
     0
 40
0.0
  0
LTYPE
  5
62
330
5
100
AcDbSymbolTableRecord
100
AcDbLinetypeTableRecord
  2
NEW_LINE1
 70
     0
  3

 72
    65
 73
     4
 40
1.2
 49
0.5
 74
     4
 75
     0
340
0
 46
1.0
 50
0.0
 44
0.0
 45
0.0
 49
-0.3
 74
     4
 75
     0
340
0
 46
1.0
 50
0.0
 44
0.0
 45
0.0
 49
0.1
 74
     4
 75
     0
340
0
 46
1.0
 50
0.0
 44
0.0
 45
0.0
 49
-0.3
 74
     4
 75
     0
340
0
 46
1.0
 50
0.0
 44
0.0
 45
0.0
  0
ENDTAB
  0
TABLE
  2
LAYER
  5
2
330
0
100
AcDbSymbolTable
 70
     2
  0
LAYER
  5
10
330
2
100
AcDbSymbolTableRecord
100
AcDbLayerTableRecord
  2
0
 70
     0
 62
     7
  6
CONTINUOUS
  0
LAYER
  5
40
330
2
100
AcDbSymbolTableRecord
100
AcDbLayerTableRecord
  2
DEFAULT_1
 70
     0
 62
     7
  6
CONTINUOUS
  0
ENDTAB
  0
TABLE
  2
STYLE
  5
3
330
0
100
AcDbSymbolTable
 70
     1
  0
STYLE
  5
11
330
3
100
AcDbSymbolTableRecord
100
AcDbTextStyleTableRecord
  2
STANDARD
 70
     0
 40
0.0
 41
1.0
 50
0.0
 71
     0
 42
0.2
  3
txt
  4

  0
ENDTAB
  0
TABLE
  2
VIEW
  5
6
330
0
100
AcDbSymbolTable
 70
     0
  0
ENDTAB
  0
TABLE
  2
UCS
  5
7
330
0
100
AcDbSymbolTable
 70
     0
  0
ENDTAB
  0
TABLE
  2
APPID
  5
9
330
0
100
AcDbSymbolTable
 70
     2
  0
APPID
  5
12
330
9
100
AcDbSymbolTableRecord
100
AcDbRegAppTableRecord
  2
ACAD
 70
     0
  0
APPID
  5
3F
330
9
100
AcDbSymbolTableRecord
100
AcDbRegAppTableRecord
  2
ODA
 70
     0
  0
ENDTAB
  0
TABLE
  2
DIMSTYLE
  5
A
330
0
100
AcDbSymbolTable
 70
     1
  0
DIMSTYLE
105
27
330
A
100
AcDbSymbolTableRecord
100
AcDbDimStyleTableRecord
  2
STANDARD
 70
     0
  3

  4

  5

  6

  7

 40
1.0
 41
0.18
 42
0.0625
 43
0.38
 44
0.18
 45
0.0
 46
0.0
 47
0.0
 48
0.0
140
0.18
141
0.09
142
0.0
143
25.4
144
1.0
145
0.0
146
1.0
147
0.09
 71
     0
 72
     0
 73
     1
 74
     1
 75
     0
 76
     0
 77
     0
 78
     0
170
     0
171
     2
172
     0
173
     0
174
     0
175
     0
176
     0
177
     0
178
     0
270
     2
271
     4
272
     4
273
     2
274
     2
340
11
275
     0
280
     0
281
     0
282
     0
283
     1
284
     0
285
     0
286
     0
287
     3
288
     0
  0
ENDTAB
  0
TABLE
  2
BLOCK_RECORD
  5
1
330
0
100
AcDbSymbolTable
 70
     1
  0
BLOCK_RECORD
  5
1F
330
1
100
AcDbSymbolTableRecord
100
AcDbBlockTableRecord
  2
*MODEL_SPACE
  0
BLOCK_RECORD
  5
1B
330
1
100
AcDbSymbolTableRecord
100
AcDbBlockTableRecord
  2
*PAPER_SPACE
  0
ENDTAB
  0
ENDSEC
  0
SECTION
  2
BLOCKS
  0
BLOCK
  5
20
330
1F
100
AcDbEntity
  8
0
100
AcDbBlockBegin
  2
*MODEL_SPACE
 70
     0
 10
0.0
 20
0.0
 30
0.0
  3
*MODEL_SPACE
  1

  0
ENDBLK
  5
21
330
1F
100
AcDbEntity
  8
0
100
AcDbBlockEnd
  0
BLOCK
  5
1C
330
1B
100
AcDbEntity
 67
     1
  8
0
100
AcDbBlockBegin
  2
*PAPER_SPACE
 70
     0
 10
0.0
 20
0.0
 30
0.0
  3
*PAPER_SPACE
  1

  0
ENDBLK
  5
1D
330
1B
100
AcDbEntity
 67
     1
  8
0
100
AcDbBlockEnd
  0
ENDSEC
  0
SECTION
  2
ENTITIES
  0
SPLINE
  5
41
330
1F
100
AcDbEntity
  8
DEFAULT_1
 62
   250
100
AcDbSpline
210
0.0
220
0.0
230
1.0
 70
    11
 71
     3
 72
    48
 73
    44
 74
     0
 42
0.0000000001
 43
0.0000000001
 40
0.0
 40
0.0
 40
0.0
 40
0.0
 40
0.0833333333333333
 40
0.0833333333333333
 40
0.0833333333333333
 40
0.0833333333333333
 40
0.1666666666666667
 40
0.1666666666666667
 40
0.1666666666666667
 40
0.1666666666666667
 40
0.25
 40
0.25
 40
0.25
 40
0.25
 40
0.3333333333333333
 40
0.3333333333333333
 40
0.3333333333333333
 40
0.3333333333333333
 40
0.4166666666666667
 40
0.4166666666666667
 40
0.4166666666666667
 40
0.4166666666666667
 40
0.5
 40
0.5
 40
0.5
 40
0.5
 40
0.5833333333333334
 40
0.5833333333333334
 40
0.5833333333333334
 40
0.5833333333333334
 40
0.6666666666666666
 40
0.6666666666666666
 40
0.6666666666666666
 40
0.6666666666666666
 40
0.75
 40
0.75
 40
0.75
 40
0.75
 40
0.8333333333333334
 40
0.8333333333333334
 40
0.8333333333333334
 40
0.8333333333333334
 40
1.0
 40
1.0
 40
1.0
 40
1.0
 10
-15.7902
 20
-19.8071
 30
0.0
 10
-15.7902
 20
-19.8071
 30
0.0
 10
-15.7902
 20
-19.083
 30
0.0
 10
-15.7902
 20
-19.083
 30
0.0
 10
-15.7902
 20
-19.083
 30
0.0
 10
-15.7902
 20
-19.083
 30
0.0
 10
-17.1025
 20
-19.083
 30
0.0
 10
-17.1025
 20
-19.083
 30
0.0
 10
-17.1025
 20
-19.083
 30
0.0
 10
-17.1025
 20
-19.083
 30
0.0
 10
-17.1025
 20
-18.742
 30
0.0
 10
-17.1025
 20
-18.742
 30
0.0
 10
-17.1025
 20
-18.742
 30
0.0
 10
-17.1025
 20
-18.742
 30
0.0
 10
-15.7218
 20
-16.7817
 30
0.0
 10
-15.7218
 20
-16.7817
 30
0.0
 10
-15.7218
 20
-16.7817
 30
0.0
 10
-15.7218
 20
-16.7817
 30
0.0
 10
-15.4182
 20
-16.7817
 30
0.0
 10
-15.4182
 20
-16.7817
 30
0.0
 10
-15.4182
 20
-16.7817
 30
0.0
 10
-15.4182
 20
-16.7817
 30
0.0
 10
-15.4182
 20
-18.742
 30
0.0
 10
-15.4182
 20
-18.742
 30
0.0
 10
-15.4182
 20
-18.742
 30
0.0
 10
-15.4182
 20
-18.742
 30
0.0
 10
-15.0097
 20
-18.742
 30
0.0
 10
-15.0097
 20
-18.742
 30
0.0
 10
-15.0097
 20
-18.742
 30
0.0
 10
-15.0097
 20
-18.742
 30
0.0
 10
-15.0097
 20
-19.083
 30
0.0
 10
-15.0097
 20
-19.083
 30
0.0
 10
-15.0097
 20
-19.083
 30
0.0
 10
-15.0097
 20
-19.083
 30
0.0
 10
-15.4182
 20
-19.083
 30
0.0
 10
-15.4182
 20
-19.083
 30
0.0
 10
-15.4182
 20
-19.083
 30
0.0
 10
-15.4182
 20
-19.083
 30
0.0
 10
-15.4182
 20
-19.8071
 30
0.0
 10
-15.4182
 20
-19.8071
 30
0.0
 10
-15.4182
 20
-19.8071
 30
0.0
 10
-15.4182
 20
-19.8071
 30
0.0
 10
-15.7902
 20
-19.8071
 30
0.0
 10
-15.7902
 20
-19.8071
 30
0.0
  0
SPLINE
  5
42
330
1F
100
AcDbEntity
  8
DEFAULT_1
 62
   250
100
AcDbSpline
210
0.0
220
0.0
230
1.0
 70
    11
 71
     3
 72
    16
 73
    12
 74
     0
 42
0.0000000001
 43
0.0000000001
 40
0.0
 40
0.0
 40
0.0
 40
0.0
 40
0.25
 40
0.25
 40
0.25
 40
0.25
 40
0.5
 40
0.5
 40
0.5
 40
0.5
 40
1.0
 40
1.0
 40
1.0
 40
1.0
 10
-15.7902
 20
-18.742
 30
0.0
 10
-15.7902
 20
-18.742
 30
0.0
 10
-15.7902
 20
-17.3783
 30
0.0
 10
-15.7902
 20
-17.3783
 30
0.0
 10
-15.7902
 20
-17.3783
 30
0.0
 10
-15.7902
 20
-17.3783
 30
0.0
 10
-16.7369
 20
-18.742
 30
0.0
 10
-16.7369
 20
-18.742
 30
0.0
 10
-16.7369
 20
-18.742
 30
0.0
 10
-16.7369
 20
-18.742
 30
0.0
 10
-15.7902
 20
-18.742
 30
0.0
 10
-15.7902
 20
-18.742
 30
0.0
  0
SPLINE
  5
43
330
1F
100
AcDbEntity
  8
DEFAULT_1
 62
   250
100
AcDbSpline
210
0.0
220
0.0
230
1.0
 70
    11
 71
     3
 72
    52
 73
    48
 74
     0
 42
0.0000000001
 43
0.0000000001
 40
0.0
 40
0.0
 40
0.0
 40
0.0
 40
0.0769230769230769
 40
0.0769230769230769
 40
0.0769230769230769
 40
0.0769230769230769
 40
0.1538461538461539
 40
0.1538461538461539
 40
0.1538461538461539
 40
0.1538461538461539
 40
0.2307692307692308
 40
0.2307692307692308
 40
0.2307692307692308
 40
0.2307692307692308
 40
0.3076923076923077
 40
0.3076923076923077
 40
0.3076923076923077
 40
0.3076923076923077
 40
0.3846153846153846
 40
0.3846153846153846
 40
0.3846153846153846
 40
0.3846153846153846
 40
0.4615384615384616
 40
0.4615384615384616
 40
0.4615384615384616
 40
0.4615384615384616
 40
0.5384615384615384
 40
0.5384615384615384
 40
0.5384615384615384
 40
0.5384615384615384
 40
0.6153846153846154
 40
0.6153846153846154
 40
0.6153846153846154
 40
0.6153846153846154
 40
0.6923076923076923
 40
0.6923076923076923
 40
0.6923076923076923
 40
0.6923076923076923
 40
0.7692307692307693
 40
0.7692307692307693
 40
0.7692307692307693
 40
0.7692307692307693
 40
0.8461538461538461
 40
0.8461538461538461
 40
0.8461538461538461
 40
0.8461538461538461
 40
1.0
 40
1.0
 40
1.0
 40
1.0
 10
-14.63
 20
-18.3152
 30
0.0
 10
-14.63
 20
-17.9573
 30
0.0
 10
-14.5934
 20
-17.6692
 30
0.0
 10
-14.5194
 20
-17.4516
 30
0.0
 10
-14.5194
 20
-17.4516
 30
0.0
 10
-14.4462
 20
-17.2332
 30
0.0
 10
-14.3363
 20
-17.0649
 30
0.0
 10
-14.1912
 20
-16.9465
 30
0.0
 10
-14.1912
 20
-16.9465
 30
0.0
 10
-14.0461
 20
-16.8282
 30
0.0
 10
-13.8636
 20
-16.769
 30
0.0
 10
-13.6438
 20
-16.769
 30
0.0
 10
-13.6438
 20
-16.769
 30
0.0
 10
-13.4811
 20
-16.769
 30
0.0
 10
-13.3388
 20
-16.8021
 30
0.0
 10
-13.2163
 20
-16.8676
 30
0.0
 10
-13.2163
 20
-16.8676
 30
0.0
 10
-13.0937
 20
-16.9324
 30
0.0
 10
-12.993
 20
-17.0268
 30
0.0
 10
-12.9127
 20
-17.1501
 30
0.0
 10
-12.9127
 20
-17.1501
 30
0.0
 10
-12.8331
 20
-17.2734
 30
0.0
 10
-12.7704
 20
-17.4234
 30
0.0
 10
-12.7253
 20
-17.6002
 30
0.0
 10
-12.7253
 20
-17.6002
 30
0.0
 10
-12.6795
 20
-17.777
 30
0.0
 10
-12.657
 20
-18.0151
 30
0.0
 10
-12.657
 20
-18.3152
 30
0.0
 10
-12.657
 20
-18.3152
 30
0.0
 10
-12.657
 20
-18.6702
 30
0.0
 10
-12.6936
 20
-18.9562
 30
0.0
 10
-12.7662
 20
-19.1745
 30
0.0
 10
-12.7662
 20
-19.1745
 30
0.0
 10
-12.8394
 20
-19.3929
 30
0.0
 10
-12.9486
 20
-19.5613
 30
0.0
 10
-13.0937
 20
-19.6803
 30
0.0
 10
-13.0937
 20
-19.6803
 30
0.0
 10
-13.2388
 20
-19.7994
 30
0.0
 10
-13.422
 20
-19.8585
 30
0.0
 10
-13.6438
 20
-19.8585
 30
0.0
 10
-13.6438
 20
-19.8585
 30
0.0
 10
-13.9355
 20
-19.8585
 30
0.0
 10
-14.1644
 20
-19.7543
 30
0.0
 10
-14.3306
 20
-19.5451
 30
0.0
 10
-14.3306
 20
-19.5451
 30
0.0
 10
-14.53
 20
-19.2936
 30
0.0
 10
-14.63
 20
-18.8829
 30
0.0
 10
-14.63
 20
-18.3152
 30
0.0
  0
SPLINE
  5
44
330
1F
100
AcDbEntity
  8
DEFAULT_1
 62
   250
100
AcDbSpline
210
0.0
220
0.0
230
1.0
 70
    11
 71
     3
 72
    36
 73
    32
 74
     0
 42
0.0000000001
 43
0.0000000001
 40
0.0
 40
0.0
 40
0.0
 40
0.0
 40
0.1111111111111111
 40
0.1111111111111111
 40
0.1111111111111111
 40
0.1111111111111111
 40
0.2222222222222222
 40
0.2222222222222222
 40
0.2222222222222222
 40
0.2222222222222222
 40
0.3333333333333333
 40
0.3333333333333333
 40
0.3333333333333333
 40
0.3333333333333333
 40
0.4444444444444444
 40
0.4444444444444444
 40
0.4444444444444444
 40
0.4444444444444444
 40
0.5555555555555556
 40
0.5555555555555556
 40
0.5555555555555556
 40
0.5555555555555556
 40
0.6666666666666666
 40
0.6666666666666666
 40
0.6666666666666666
 40
0.6666666666666666
 40
0.7777777777777778
 40
0.7777777777777778
 40
0.7777777777777778
 40
0.7777777777777778
 40
1.0
 40
1.0
 40
1.0
 40
1.0
 10
-14.2482
 20
-18.3152
 30
0.0
 10
-14.2482
 20
-18.8118
 30
0.0
 10
-14.1898
 20
-19.1421
 30
0.0
 10
-14.0735
 20
-19.307
 30
0.0
 10
-14.0735
 20
-19.307
 30
0.0
 10
-13.9573
 20
-19.4711
 30
0.0
 10
-13.8143
 20
-19.5535
 30
0.0
 10
-13.6438
 20
-19.5535
 30
0.0
 10
-13.6438
 20
-19.5535
 30
0.0
 10
-13.4727
 20
-19.5535
 30
0.0
 10
-13.3297
 20
-19.4704
 30
0.0
 10
-13.2135
 20
-19.3056
 30
0.0
 10
-13.2135
 20
-19.3056
 30
0.0
 10
-13.0972
 20
-19.1407
 30
0.0
 10
-13.0388
 20
-18.8104
 30
0.0
 10
-13.0388
 20
-18.3152
 30
0.0
 10
-13.0388
 20
-18.3152
 30
0.0
 10
-13.0388
 20
-17.8172
 30
0.0
 10
-13.0972
 20
-17.4861
 30
0.0
 10
-13.2135
 20
-17.3227
 30
0.0
 10
-13.2135
 20
-17.3227
 30
0.0
 10
-13.3297
 20
-17.1586
 30
0.0
 10
-13.4741
 20
-17.0768
 30
0.0
 10
-13.6474
 20
-17.0768
 30
0.0
 10
-13.6474
 20
-17.0768
 30
0.0
 10
-13.8185
 20
-17.0768
 30
0.0
 10
-13.9545
 20
-17.1494
 30
0.0
 10
-14.0566
 20
-17.2938
 30
0.0
 10
-14.0566
 20
-17.2938
 30
0.0
 10
-14.1841
 20
-17.4776
 30
0.0
 10
-14.2482
 20
-17.8186
 30
0.0
 10
-14.2482
 20
-18.3152
 30
0.0
  0
SPLINE
  5
45
330
1F
100
AcDbEntity
  8
DEFAULT_1
 62
   250
100
AcDbSpline
210
0.0
220
0.0
230
1.0
 70
    11
 71
     3
 72
    52
 73
    48
 74
     0
 42
0.0000000001
 43
0.0000000001
 40
0.0
 40
0.0
 40
0.0
 40
0.0
 40
0.0769230769230769
 40
0.0769230769230769
 40
0.0769230769230769
 40
0.0769230769230769
 40
0.1538461538461539
 40
0.1538461538461539
 40
0.1538461538461539
 40
0.1538461538461539
 40
0.2307692307692308
 40
0.2307692307692308
 40
0.2307692307692308
 40
0.2307692307692308
 40
0.3076923076923077
 40
0.3076923076923077
 40
0.3076923076923077
 40
0.3076923076923077
 40
0.3846153846153846
 40
0.3846153846153846
 40
0.3846153846153846
 40
0.3846153846153846
 40
0.4615384615384616
 40
0.4615384615384616
 40
0.4615384615384616
 40
0.4615384615384616
 40
0.5384615384615384
 40
0.5384615384615384
 40
0.5384615384615384
 40
0.5384615384615384
 40
0.6153846153846154
 40
0.6153846153846154
 40
0.6153846153846154
 40
0.6153846153846154
 40
0.6923076923076923
 40
0.6923076923076923
 40
0.6923076923076923
 40
0.6923076923076923
 40
0.7692307692307693
 40
0.7692307692307693
 40
0.7692307692307693
 40
0.7692307692307693
 40
0.8461538461538461
 40
0.8461538461538461
 40
0.8461538461538461
 40
0.8461538461538461
 40
1.0
 40
1.0
 40
1.0
 40
1.0
 10
-12.2794
 20
-18.3152
 30
0.0
 10
-12.2794
 20
-17.9573
 30
0.0
 10
-12.2428
 20
-17.6692
 30
0.0
 10
-12.1688
 20
-17.4516
 30
0.0
 10
-12.1688
 20
-17.4516
 30
0.0
 10
-12.0956
 20
-17.2332
 30
0.0
 10
-11.9857
 20
-17.0649
 30
0.0
 10
-11.8406
 20
-16.9465
 30
0.0
 10
-11.8406
 20
-16.9465
 30
0.0
 10
-11.6955
 20
-16.8282
 30
0.0
 10
-11.513
 20
-16.769
 30
0.0
 10
-11.2932
 20
-16.769
 30
0.0
 10
-11.2932
 20
-16.769
 30
0.0
 10
-11.1305
 20
-16.769
 30
0.0
 10
-10.9882
 20
-16.8021
 30
0.0
 10
-10.8657
 20
-16.8676
 30
0.0
 10
-10.8657
 20
-16.8676
 30
0.0
 10
-10.7431
 20
-16.9324
 30
0.0
 10
-10.6424
 20
-17.0268
 30
0.0
 10
-10.5621
 20
-17.1501
 30
0.0
 10
-10.5621
 20
-17.1501
 30
0.0
 10
-10.4825
 20
-17.2734
 30
0.0
 10
-10.4198
 20
-17.4234
 30
0.0
 10
-10.3747
 20
-17.6002
 30
0.0
 10
-10.3747
 20
-17.6002
 30
0.0
 10
-10.3289
 20
-17.777
 30
0.0
 10
-10.3064
 20
-18.0151
 30
0.0
 10
-10.3064
 20
-18.3152
 30
0.0
 10
-10.3064
 20
-18.3152
 30
0.0
 10
-10.3064
 20
-18.6702
 30
0.0
 10
-10.343
 20
-18.9562
 30
0.0
 10
-10.4156
 20
-19.1745
 30
0.0
 10
-10.4156
 20
-19.1745
 30
0.0
 10
-10.4888
 20
-19.3929
 30
0.0
 10
-10.598
 20
-19.5613
 30
0.0
 10
-10.7431
 20
-19.6803
 30
0.0
 10
-10.7431
 20
-19.6803
 30
0.0
 10
-10.8882
 20
-19.7994
 30
0.0
 10
-11.0714
 20
-19.8585
 30
0.0
 10
-11.2932
 20
-19.8585
 30
0.0
 10
-11.2932
 20
-19.8585
 30
0.0
 10
-11.5849
 20
-19.8585
 30
0.0
 10
-11.8138
 20
-19.7543
 30
0.0
 10
-11.98
 20
-19.5451
 30
0.0
 10
-11.98
 20
-19.5451
 30
0.0
 10
-12.1794
 20
-19.2936
 30
0.0
 10
-12.2794
 20
-18.8829
 30
0.0
 10
-12.2794
 20
-18.3152
 30
0.0
  0
SPLINE
  5
46
330
1F
100
AcDbEntity
  8
DEFAULT_1
 62
   250
100
AcDbSpline
210
0.0
220
0.0
230
1.0
 70
    11
 71
     3
 72
    36
 73
    32
 74
     0
 42
0.0000000001
 43
0.0000000001
 40
0.0
 40
0.0
 40
0.0
 40
0.0
 40
0.1111111111111111
 40
0.1111111111111111
 40
0.1111111111111111
 40
0.1111111111111111
 40
0.2222222222222222
 40
0.2222222222222222
 40
0.2222222222222222
 40
0.2222222222222222
 40
0.3333333333333333
 40
0.3333333333333333
 40
0.3333333333333333
 40
0.3333333333333333
 40
0.4444444444444444
 40
0.4444444444444444
 40
0.4444444444444444
 40
0.4444444444444444
 40
0.5555555555555556
 40
0.5555555555555556
 40
0.5555555555555556
 40
0.5555555555555556
 40
0.6666666666666666
 40
0.6666666666666666
 40
0.6666666666666666
 40
0.6666666666666666
 40
0.7777777777777778
 40
0.7777777777777778
 40
0.7777777777777778
 40
0.7777777777777778
 40
1.0
 40
1.0
 40
1.0
 40
1.0
 10
-11.8976
 20
-18.3152
 30
0.0
 10
-11.8976
 20
-18.8118
 30
0.0
 10
-11.8392
 20
-19.1421
 30
0.0
 10
-11.7229
 20
-19.307
 30
0.0
 10
-11.7229
 20
-19.307
 30
0.0
 10
-11.6067
 20
-19.4711
 30
0.0
 10
-11.4637
 20
-19.5535
 30
0.0
 10
-11.2932
 20
-19.5535
 30
0.0
 10
-11.2932
 20
-19.5535
 30
0.0
 10
-11.1221
 20
-19.5535
 30
0.0
 10
-10.9791
 20
-19.4704
 30
0.0
 10
-10.8629
 20
-19.3056
 30
0.0
 10
-10.8629
 20
-19.3056
 30
0.0
 10
-10.7466
 20
-19.1407
 30
0.0
 10
-10.6882
 20
-18.8104
 30
0.0
 10
-10.6882
 20
-18.3152
 30
0.0
 10
-10.6882
 20
-18.3152
 30
0.0
 10
-10.6882
 20
-17.8172
 30
0.0
 10
-10.7466
 20
-17.4861
 30
0.0
 10
-10.8629
 20
-17.3227
 30
0.0
 10
-10.8629
 20
-17.3227
 30
0.0
 10
-10.9791
 20
-17.1586
 30
0.0
 10
-11.1235
 20
-17.0768
 30
0.0
 10
-11.2968
 20
-17.0768
 30
0.0
 10
-11.2968
 20
-17.0768
 30
0.0
 10
-11.4679
 20
-17.0768
 30
0.0
 10
-11.6039
 20
-17.1494
 30
0.0
 10
-11.706
 20
-17.2938
 30
0.0
 10
-11.706
 20
-17.2938
 30
0.0
 10
-11.8335
 20
-17.4776
 30
0.0
 10
-11.8976
 20
-17.8186
 30
0.0
 10
-11.8976
 20
-18.3152
 30
0.0
  0
SPLINE
  5
47
330
1F
100
AcDbEntity
  8
DEFAULT_1
 62
   250
100
AcDbSpline
210
0.0
220
0.0
230
1.0
 70
    11
 71
     3
 72
    20
 73
    16
 74
     0
 42
0.0000000001
 43
0.0000000001
 40
0.0
 40
0.0
 40
0.0
 40
0.0
 40
0.2
 40
0.2
 40
0.2
 40
0.2
 40
0.4
 40
0.4
 40
0.4
 40
0.4
 40
0.6
 40
0.6
 40
0.6
 40
0.6
 40
1.0
 40
1.0
 40
1.0
 40
1.0
 10
-8.7962
 20
-18.8991
 30
0.0
 10
-8.7962
 20
-18.8991
 30
0.0
 10
-8.7962
 20
-18.5258
 30
0.0
 10
-8.7962
 20
-18.5258
 30
0.0
 10
-8.7962
 20
-18.5258
 30
0.0
 10
-8.7962
 20
-18.5258
 30
0.0
 10
-7.6543
 20
-18.5258
 30
0.0
 10
-7.6543
 20
-18.5258
 30
0.0
 10
-7.6543
 20
-18.5258
 30
0.0
 10
-7.6543
 20
-18.5258
 30
0.0
 10
-7.6543
 20
-18.8991
 30
0.0
 10
-7.6543
 20
-18.8991
 30
0.0
 10
-7.6543
 20
-18.8991
 30
0.0
 10
-7.6543
 20
-18.8991
 30
0.0
 10
-8.7962
 20
-18.8991
 30
0.0
 10
-8.7962
 20
-18.8991
 30
0.0
  0
SPLINE
  5
48
330
1F
100
AcDbEntity
  8
DEFAULT_1
 62
   250
100
AcDbSpline
210
0.0
220
0.0
230
1.0
 70
    11
 71
     3
 72
    68
 73
    64
 74
     0
 42
0.0000000001
 43
0.0000000001
 40
0.0
 40
0.0
 40
0.0
 40
0.0
 40
0.0588235294117647
 40
0.0588235294117647
 40
0.0588235294117647
 40
0.0588235294117647
 40
0.1176470588235294
 40
0.1176470588235294
 40
0.1176470588235294
 40
0.1176470588235294
 40
0.1764705882352941
 40
0.1764705882352941
 40
0.1764705882352941
 40
0.1764705882352941
 40
0.2352941176470588
 40
0.2352941176470588
 40
0.2352941176470588
 40
0.2352941176470588
 40
0.2941176470588235
 40
0.2941176470588235
 40
0.2941176470588235
 40
0.2941176470588235
 40
0.3529411764705883
 40
0.3529411764705883
 40
0.3529411764705883
 40
0.3529411764705883
 40
0.4117647058823529
 40
0.4117647058823529
 40
0.4117647058823529
 40
0.4117647058823529
 40
0.4705882352941176
 40
0.4705882352941176
 40
0.4705882352941176
 40
0.4705882352941176
 40
0.5294117647058824
 40
0.5294117647058824
 40
0.5294117647058824
 40
0.5294117647058824
 40
0.5882352941176471
 40
0.5882352941176471
 40
0.5882352941176471
 40
0.5882352941176471
 40
0.6470588235294118
 40
0.6470588235294118
 40
0.6470588235294118
 40
0.6470588235294118
 40
0.7058823529411765
 40
0.7058823529411765
 40
0.7058823529411765
 40
0.7058823529411765
 40
0.7647058823529411
 40
0.7647058823529411
 40
0.7647058823529411
 40
0.7647058823529411
 40
0.8235294117647058
 40
0.8235294117647058
 40
0.8235294117647058
 40
0.8235294117647058
 40
0.8823529411764706
 40
0.8823529411764706
 40
0.8823529411764706
 40
0.8823529411764706
 40
1.0
 40
1.0
 40
1.0
 40
1.0
 10
-5.601
 20
-18.1666
 30
0.0
 10
-5.7553
 20
-18.1102
 30
0.0
 10
-5.8694
 20
-18.0299
 30
0.0
 10
-5.9441
 20
-17.9249
 30
0.0
 10
-5.9441
 20
-17.9249
 30
0.0
 10
-6.018
 20
-17.8207
 30
0.0
 10
-6.0554
 20
-17.6953
 30
0.0
 10
-6.0554
 20
-17.5495
 30
0.0
 10
-6.0554
 20
-17.5495
 30
0.0
 10
-6.0554
 20
-17.329
 30
0.0
 10
-5.9765
 20
-17.1445
 30
0.0
 10
-5.818
 20
-16.9944
 30
0.0
 10
-5.818
 20
-16.9944
 30
0.0
 10
-5.6595
 20
-16.8444
 30
0.0
 10
-5.4496
 20
-16.769
 30
0.0
 10
-5.1868
 20
-16.769
 30
0.0
 10
-5.1868
 20
-16.769
 30
0.0
 10
-4.9227
 20
-16.769
 30
0.0
 10
-4.71
 20
-16.8458
 30
0.0
 10
-4.5487
 20
-16.9994
 30
0.0
 10
-4.5487
 20
-16.9994
 30
0.0
 10
-4.3881
 20
-17.1529
 30
0.0
 10
-4.3078
 20
-17.3396
 30
0.0
 10
-4.3078
 20
-17.5601
 30
0.0
 10
-4.3078
 20
-17.5601
 30
0.0
 10
-4.3078
 20
-17.7002
 30
0.0
 10
-4.3444
 20
-17.8221
 30
0.0
 10
-4.4176
 20
-17.9264
 30
0.0
 10
-4.4176
 20
-17.9264
 30
0.0
 10
-4.4916
 20
-18.0299
 30
0.0
 10
-4.6029
 20
-18.1102
 30
0.0
 10
-4.7529
 20
-18.1666
 30
0.0
 10
-4.7529
 20
-18.1666
 30
0.0
 10
-4.5677
 20
-18.2271
 30
0.0
 10
-4.4261
 20
-18.3243
 30
0.0
 10
-4.3289
 20
-18.4596
 30
0.0
 10
-4.3289
 20
-18.4596
 30
0.0
 10
-4.2324
 20
-18.5941
 30
0.0
 10
-4.1838
 20
-18.7554
 30
0.0
 10
-4.1838
 20
-18.9421
 30
0.0
 10
-4.1838
 20
-18.9421
 30
0.0
 10
-4.1838
 20
-19.2013
 30
0.0
 10
-4.2754
 20
-19.4183
 30
0.0
 10
-4.4578
 20
-19.5944
 30
0.0
 10
-4.4578
 20
-19.5944
 30
0.0
 10
-4.6409
 20
-19.7705
 30
0.0
 10
-4.8818
 20
-19.8585
 30
0.0
 10
-5.1805
 20
-19.8585
 30
0.0
 10
-5.1805
 20
-19.8585
 30
0.0
 10
-5.4792
 20
-19.8585
 30
0.0
 10
-5.7194
 20
-19.7705
 30
0.0
 10
-5.9025
 20
-19.5937
 30
0.0
 10
-5.9025
 20
-19.5937
 30
0.0
 10
-6.0857
 20
-19.4169
 30
0.0
 10
-6.1772
 20
-19.1964
 30
0.0
 10
-6.1772
 20
-18.9322
 30
0.0
 10
-6.1772
 20
-18.9322
 30
0.0
 10
-6.1772
 20
-18.7357
 30
0.0
 10
-6.1272
 20
-18.5709
 30
0.0
 10
-6.0272
 20
-18.4377
 30
0.0
 10
-6.0272
 20
-18.4377
 30
0.0
 10
-5.9279
 20
-18.3053
 30
0.0
 10
-5.7856
 20
-18.2145
 30
0.0
 10
-5.601
 20
-18.1666
 30
0.0
  0
SPLINE
  5
49
330
1F
100
AcDbEntity
  8
DEFAULT_1
 62
   250
100
AcDbSpline
210
0.0
220
0.0
230
1.0
 70
    11
 71
     3
 72
    36
 73
    32
 74
     0
 42
0.0000000001
 43
0.0000000001
 40
0.0
 40
0.0
 40
0.0
 40
0.0
 40
0.1111111111111111
 40
0.1111111111111111
 40
0.1111111111111111
 40
0.1111111111111111
 40
0.2222222222222222
 40
0.2222222222222222
 40
0.2222222222222222
 40
0.2222222222222222
 40
0.3333333333333333
 40
0.3333333333333333
 40
0.3333333333333333
 40
0.3333333333333333
 40
0.4444444444444444
 40
0.4444444444444444
 40
0.4444444444444444
 40
0.4444444444444444
 40
0.5555555555555556
 40
0.5555555555555556
 40
0.5555555555555556
 40
0.5555555555555556
 40
0.6666666666666666
 40
0.6666666666666666
 40
0.6666666666666666
 40
0.6666666666666666
 40
0.7777777777777778
 40
0.7777777777777778
 40
0.7777777777777778
 40
0.7777777777777778
 40
1.0
 40
1.0
 40
1.0
 40
1.0
 10
-5.6757
 20
-17.5368
 30
0.0
 10
-5.6757
 20
-17.6798
 30
0.0
 10
-5.6292
 20
-17.7967
 30
0.0
 10
-5.5376
 20
-17.8876
 30
0.0
 10
-5.5376
 20
-17.8876
 30
0.0
 10
-5.4454
 20
-17.9785
 30
0.0
 10
-5.3256
 20
-18.0243
 30
0.0
 10
-5.1784
 20
-18.0243
 30
0.0
 10
-5.1784
 20
-18.0243
 30
0.0
 10
-5.0354
 20
-18.0243
 30
0.0
 10
-4.9178
 20
-17.9792
 30
0.0
 10
-4.8262
 20
-17.889
 30
0.0
 10
-4.8262
 20
-17.889
 30
0.0
 10
-4.7346
 20
-17.7989
 30
0.0
 10
-4.6895
 20
-17.6883
 30
0.0
 10
-4.6895
 20
-17.558
 30
0.0
 10
-4.6895
 20
-17.558
 30
0.0
 10
-4.6895
 20
-17.4213
 30
0.0
 10
-4.736
 20
-17.3072
 30
0.0
 10
-4.8304
 20
-17.2142
 30
0.0
 10
-4.8304
 20
-17.2142
 30
0.0
 10
-4.9248
 20
-17.1212
 30
0.0
 10
-5.0417
 20
-17.0747
 30
0.0
 10
-5.1826
 20
-17.0747
 30
0.0
 10
-5.1826
 20
-17.0747
 30
0.0
 10
-5.3242
 20
-17.0747
 30
0.0
 10
-5.4418
 20
-17.1205
 30
0.0
 10
-5.5355
 20
-17.2107
 30
0.0
 10
-5.5355
 20
-17.2107
 30
0.0
 10
-5.6292
 20
-17.3015
 30
0.0
 10
-5.6757
 20
-17.4107
 30
0.0
 10
-5.6757
 20
-17.5368
 30
0.0
  0
SPLINE
  5
4A
330
1F
100
AcDbEntity
  8
DEFAULT_1
 62
   250
100
AcDbSpline
210
0.0
220
0.0
230
1.0
 70
    11
 71
     3
 72
    40
 73
    36
 74
     0
 42
0.0000000001
 43
0.0000000001
 40
0.0
 40
0.0
 40
0.0
 40
0.0
 40
0.1
 40
0.1
 40
0.1
 40
0.1
 40
0.2
 40
0.2
 40
0.2
 40
0.2
 40
0.3
 40
0.3
 40
0.3
 40
0.3
 40
0.4
 40
0.4
 40
0.4
 40
0.4
 40
0.5
 40
0.5
 40
0.5
 40
0.5
 40
0.6
 40
0.6
 40
0.6
 40
0.6
 40
0.7
 40
0.7
 40
0.7
 40
0.7
 40
0.8
 40
0.8
 40
0.8
 40
0.8
 40
1.0
 40
1.0
 40
1.0
 40
1.0
 10
-5.7954
 20
-18.9343
 30
0.0
 10
-5.7954
 20
-19.04
 30
0.0
 10
-5.7701
 20
-19.1429
 30
0.0
 10
-5.7201
 20
-19.2415
 30
0.0
 10
-5.7201
 20
-19.2415
 30
0.0
 10
-5.6701
 20
-19.3408
 30
0.0
 10
-5.5954
 20
-19.4176
 30
0.0
 10
-5.4961
 20
-19.4718
 30
0.0
 10
-5.4961
 20
-19.4718
 30
0.0
 10
-5.3968
 20
-19.526
 30
0.0
 10
-5.2904
 20
-19.5535
 30
0.0
 10
-5.1763
 20
-19.5535
 30
0.0
 10
-5.1763
 20
-19.5535
 30
0.0
 10
-4.9988
 20
-19.5535
 30
0.0
 10
-4.8523
 20
-19.4965
 30
0.0
 10
-4.7367
 20
-19.3816
 30
0.0
 10
-4.7367
 20
-19.3816
 30
0.0
 10
-4.6212
 20
-19.2675
 30
0.0
 10
-4.5635
 20
-19.1224
 30
0.0
 10
-4.5635
 20
-18.9463
 30
0.0
 10
-4.5635
 20
-18.9463
 30
0.0
 10
-4.5635
 20
-18.7674
 30
0.0
 10
-4.6226
 20
-18.6195
 30
0.0
 10
-4.7417
 20
-18.5026
 30
0.0
 10
-4.7417
 20
-18.5026
 30
0.0
 10
-4.8607
 20
-18.3856
 30
0.0
 10
-5.01
 20
-18.3272
 30
0.0
 10
-5.189
 20
-18.3272
 30
0.0
 10
-5.189
 20
-18.3272
 30
0.0
 10
-5.3636
 20
-18.3272
 30
0.0
 10
-5.5081
 20
-18.3849
 30
0.0
 10
-5.6229
 20
-18.5004
 30
0.0
 10
-5.6229
 20
-18.5004
 30
0.0
 10
-5.7377
 20
-18.6167
 30
0.0
 10
-5.7954
 20
-18.7611
 30
0.0
 10
-5.7954
 20
-18.9343
 30
0.0
  0
SPLINE
  5
4B
330
1F
100
AcDbEntity
  8
DEFAULT_1
 62
   250
100
AcDbSpline
210
0.0
220
0.0
230
1.0
 70
    11
 71
     3
 72
    92
 73
    88
 74
     0
 42
0.0000000001
 43
0.0000000001
 40
0.0
 40
0.0
 40
0.0
 40
0.0
 40
0.0434782608695652
 40
0.0434782608695652
 40
0.0434782608695652
 40
0.0434782608695652
 40
0.0869565217391304
 40
0.0869565217391304
 40
0.0869565217391304
 40
0.0869565217391304
 40
0.1304347826086956
 40
0.1304347826086956
 40
0.1304347826086956
 40
0.1304347826086956
 40
0.1739130434782609
 40
0.1739130434782609
 40
0.1739130434782609
 40
0.1739130434782609
 40
0.2173913043478261
 40
0.2173913043478261
 40
0.2173913043478261
 40
0.2173913043478261
 40
0.2608695652173913
 40
0.2608695652173913
 40
0.2608695652173913
 40
0.2608695652173913
 40
0.3043478260869565
 40
0.3043478260869565
 40
0.3043478260869565
 40
0.3043478260869565
 40
0.3478260869565217
 40
0.3478260869565217
 40
0.3478260869565217
 40
0.3478260869565217
 40
0.391304347826087
 40
0.391304347826087
 40
0.391304347826087
 40
0.391304347826087
 40
0.4347826086956522
 40
0.4347826086956522
 40
0.4347826086956522
 40
0.4347826086956522
 40
0.4782608695652174
 40
0.4782608695652174
 40
0.4782608695652174
 40
0.4782608695652174
 40
0.5217391304347826
 40
0.5217391304347826
 40
0.5217391304347826
 40
0.5217391304347826
 40
0.5652173913043478
 40
0.5652173913043478
 40
0.5652173913043478
 40
0.5652173913043478
 40
0.6086956521739131
 40
0.6086956521739131
 40
0.6086956521739131
 40
0.6086956521739131
 40
0.6521739130434783
 40
0.6521739130434783
 40
0.6521739130434783
 40
0.6521739130434783
 40
0.6956521739130435
 40
0.6956521739130435
 40
0.6956521739130435
 40
0.6956521739130435
 40
0.7391304347826086
 40
0.7391304347826086
 40
0.7391304347826086
 40
0.7391304347826086
 40
0.782608695652174
 40
0.782608695652174
 40
0.782608695652174
 40
0.782608695652174
 40
0.8260869565217391
 40
0.8260869565217391
 40
0.8260869565217391
 40
0.8260869565217391
 40
0.8695652173913043
 40
0.8695652173913043
 40
0.8695652173913043
 40
0.8695652173913043
 40
0.9130434782608695
 40
0.9130434782608695
 40
0.9130434782608695
 40
0.9130434782608695
 40
1.0
 40
1.0
 40
1.0
 40
1.0
 10
-3.8224
 20
-19.0147
 30
0.0
 10
-3.8224
 20
-19.0147
 30
0.0
 10
-3.4322
 20
-18.9815
 30
0.0
 10
-3.4322
 20
-18.9815
 30
0.0
 10
-3.4322
 20
-18.9815
 30
0.0
 10
-3.4033
 20
-19.1717
 30
0.0
 10
-3.3364
 20
-19.314
 30
0.0
 10
-3.2314
 20
-19.4098
 30
0.0
 10
-3.2314
 20
-19.4098
 30
0.0
 10
-3.1258
 20
-19.5056
 30
0.0
 10
-2.999
 20
-19.5535
 30
0.0
 10
-2.8503
 20
-19.5535
 30
0.0
 10
-2.8503
 20
-19.5535
 30
0.0
 10
-2.6714
 20
-19.5535
 30
0.0
 10
-2.52
 20
-19.4859
 30
0.0
 10
-2.3967
 20
-19.3514
 30
0.0
 10
-2.3967
 20
-19.3514
 30
0.0
 10
-2.2727
 20
-19.2161
 30
0.0
 10
-2.2107
 20
-19.0372
 30
0.0
 10
-2.2107
 20
-18.8146
 30
0.0
 10
-2.2107
 20
-18.8146
 30
0.0
 10
-2.2107
 20
-18.6026
 30
0.0
 10
-2.2699
 20
-18.4356
 30
0.0
 10
-2.389
 20
-18.3131
 30
0.0
 10
-2.389
 20
-18.3131
 30
0.0
 10
-2.508
 20
-18.1905
 30
0.0
 10
-2.6637
 20
-18.1292
 30
0.0
 10
-2.8567
 20
-18.1292
 30
0.0
 10
-2.8567
 20
-18.1292
 30
0.0
 10
-2.9764
 20
-18.1292
 30
0.0
 10
-3.0842
 20
-18.1567
 30
0.0
 10
-3.1807
 20
-18.2109
 30
0.0
 10
-3.1807
 20
-18.2109
 30
0.0
 10
-3.2772
 20
-18.2652
 30
0.0
 10
-3.3526
 20
-18.3356
 30
0.0
 10
-3.4075
 20
-18.4222
 30
0.0
 10
-3.4075
 20
-18.4222
 30
0.0
 10
-3.4075
 20
-18.4222
 30
0.0
 10
-3.7562
 20
-18.3772
 30
0.0
 10
-3.7562
 20
-18.3772
 30
0.0
 10
-3.7562
 20
-18.3772
 30
0.0
 10
-3.7562
 20
-18.3772
 30
0.0
 10
-3.4632
 20
-16.8233
 30
0.0
 10
-3.4632
 20
-16.8233
 30
0.0
 10
-3.4632
 20
-16.8233
 30
0.0
 10
-3.4632
 20
-16.8233
 30
0.0
 10
-1.9586
 20
-16.8233
 30
0.0
 10
-1.9586
 20
-16.8233
 30
0.0
 10
-1.9586
 20
-16.8233
 30
0.0
 10
-1.9586
 20
-16.8233
 30
0.0
 10
-1.9586
 20
-17.1783
 30
0.0
 10
-1.9586
 20
-17.1783
 30
0.0
 10
-1.9586
 20
-17.1783
 30
0.0
 10
-1.9586
 20
-17.1783
 30
0.0
 10
-3.1659
 20
-17.1783
 30
0.0
 10
-3.1659
 20
-17.1783
 30
0.0
 10
-3.1659
 20
-17.1783
 30
0.0
 10
-3.1659
 20
-17.1783
 30
0.0
 10
-3.3293
 20
-17.9912
 30
0.0
 10
-3.3293
 20
-17.9912
 30
0.0
 10
-3.3293
 20
-17.9912
 30
0.0
 10
-3.1476
 20
-17.8644
 30
0.0
 10
-2.9567
 20
-17.801
 30
0.0
 10
-2.7574
 20
-17.801
 30
0.0
 10
-2.7574
 20
-17.801
 30
0.0
 10
-2.4932
 20
-17.801
 30
0.0
 10
-2.2706
 20
-17.8925
 30
0.0
 10
-2.0889
 20
-18.0757
 30
0.0
 10
-2.0889
 20
-18.0757
 30
0.0
 10
-1.9071
 20
-18.2588
 30
0.0
 10
-1.8163
 20
-18.4941
 30
0.0
 10
-1.8163
 20
-18.7815
 30
0.0
 10
-1.8163
 20
-18.7815
 30
0.0
 10
-1.8163
 20
-19.0555
 30
0.0
 10
-1.8966
 20
-19.2922
 30
0.0
 10
-2.0558
 20
-19.4915
 30
0.0
 10
-2.0558
 20
-19.4915
 30
0.0
 10
-2.2502
 20
-19.736
 30
0.0
 10
-2.515
 20
-19.8585
 30
0.0
 10
-2.8503
 20
-19.8585
 30
0.0
 10
-2.8503
 20
-19.8585
 30
0.0
 10
-3.1258
 20
-19.8585
 30
0.0
 10
-3.3505
 20
-19.7817
 30
0.0
 10
-3.5244
 20
-19.6275
 30
0.0
 10
-3.5244
 20
-19.6275
 30
0.0
 10
-3.6984
 20
-19.4732
 30
0.0
 10
-3.7978
 20
-19.2689
 30
0.0
 10
-3.8224
 20
-19.0147
 30
0.0
  0
SPLINE
  5
4C
330
1F
100
AcDbEntity
  8
DEFAULT_1
 62
   250
100
AcDbSpline
210
0.0
220
0.0
230
1.0
 70
    11
 71
     3
 72
    52
 73
    48
 74
     0
 42
0.0000000001
 43
0.0000000001
 40
0.0
 40
0.0
 40
0.0
 40
0.0
 40
0.0769230769230769
 40
0.0769230769230769
 40
0.0769230769230769
 40
0.0769230769230769
 40
0.1538461538461539
 40
0.1538461538461539
 40
0.1538461538461539
 40
0.1538461538461539
 40
0.2307692307692308
 40
0.2307692307692308
 40
0.2307692307692308
 40
0.2307692307692308
 40
0.3076923076923077
 40
0.3076923076923077
 40
0.3076923076923077
 40
0.3076923076923077
 40
0.3846153846153846
 40
0.3846153846153846
 40
0.3846153846153846
 40
0.3846153846153846
 40
0.4615384615384616
 40
0.4615384615384616
 40
0.4615384615384616
 40
0.4615384615384616
 40
0.5384615384615384
 40
0.5384615384615384
 40
0.5384615384615384
 40
0.5384615384615384
 40
0.6153846153846154
 40
0.6153846153846154
 40
0.6153846153846154
 40
0.6153846153846154
 40
0.6923076923076923
 40
0.6923076923076923
 40
0.6923076923076923
 40
0.6923076923076923
 40
0.7692307692307693
 40
0.7692307692307693
 40
0.7692307692307693
 40
0.7692307692307693
 40
0.8461538461538461
 40
0.8461538461538461
 40
0.8461538461538461
 40
0.8461538461538461
 40
1.0
 40
1.0
 40
1.0
 40
1.0
 10
-1.4718
 20
-18.3152
 30
0.0
 10
-1.4718
 20
-17.9573
 30
0.0
 10
-1.4352
 20
-17.6692
 30
0.0
 10
-1.3612
 20
-17.4516
 30
0.0
 10
-1.3612
 20
-17.4516
 30
0.0
 10
-1.288
 20
-17.2332
 30
0.0
 10
-1.1781
 20
-17.0649
 30
0.0
 10
-1.033
 20
-16.9465
 30
0.0
 10
-1.033
 20
-16.9465
 30
0.0
 10
-0.8879
 20
-16.8282
 30
0.0
 10
-0.7054
 20
-16.769
 30
0.0
 10
-0.4856
 20
-16.769
 30
0.0
 10
-0.4856
 20
-16.769
 30
0.0
 10
-0.3229
 20
-16.769
 30
0.0
 10
-0.1806
 20
-16.8021
 30
0.0
 10
-0.0581
 20
-16.8676
 30
0.0
 10
-0.0581
 20
-16.8676
 30
0.0
 10
0.0645
 20
-16.9324
 30
0.0
 10
0.1652
 20
-17.0268
 30
0.0
 10
0.2455
 20
-17.1501
 30
0.0
 10
0.2455
 20
-17.1501
 30
0.0
 10
0.3251
 20
-17.2734
 30
0.0
 10
0.3878
 20
-17.4234
 30
0.0
 10
0.4329
 20
-17.6002
 30
0.0
 10
0.4329
 20
-17.6002
 30
0.0
 10
0.4787
 20
-17.777
 30
0.0
 10
0.5012
 20
-18.0151
 30
0.0
 10
0.5012
 20
-18.3152
 30
0.0
 10
0.5012
 20
-18.3152
 30
0.0
 10
0.5012
 20
-18.6702
 30
0.0
 10
0.4646
 20
-18.9562
 30
0.0
 10
0.392
 20
-19.1745
 30
0.0
 10
0.392
 20
-19.1745
 30
0.0
 10
0.3188
 20
-19.3929
 30
0.0
 10
0.2096
 20
-19.5613
 30
0.0
 10
0.0645
 20
-19.6803
 30
0.0
 10
0.0645
 20
-19.6803
 30
0.0
 10
-0.0806
 20
-19.7994
 30
0.0
 10
-0.2638
 20
-19.8585
 30
0.0
 10
-0.4856
 20
-19.8585
 30
0.0
 10
-0.4856
 20
-19.8585
 30
0.0
 10
-0.7773
 20
-19.8585
 30
0.0
 10
-1.0062
 20
-19.7543
 30
0.0
 10
-1.1724
 20
-19.5451
 30
0.0
 10
-1.1724
 20
-19.5451
 30
0.0
 10
-1.3718
 20
-19.2936
 30
0.0
 10
-1.4718
 20
-18.8829
 30
0.0
 10
-1.4718
 20
-18.3152
 30
0.0
  0
SPLINE
  5
4D
330
1F
100
AcDbEntity
  8
DEFAULT_1
 62
   250
100
AcDbSpline
210
0.0
220
0.0
230
1.0
 70
    11
 71
     3
 72
    36
 73
    32
 74
     0
 42
0.0000000001
 43
0.0000000001
 40
0.0
 40
0.0
 40
0.0
 40
0.0
 40
0.1111111111111111
 40
0.1111111111111111
 40
0.1111111111111111
 40
0.1111111111111111
 40
0.2222222222222222
 40
0.2222222222222222
 40
0.2222222222222222
 40
0.2222222222222222
 40
0.3333333333333333
 40
0.3333333333333333
 40
0.3333333333333333
 40
0.3333333333333333
 40
0.4444444444444444
 40
0.4444444444444444
 40
0.4444444444444444
 40
0.4444444444444444
 40
0.5555555555555556
 40
0.5555555555555556
 40
0.5555555555555556
 40
0.5555555555555556
 40
0.6666666666666666
 40
0.6666666666666666
 40
0.6666666666666666
 40
0.6666666666666666
 40
0.7777777777777778
 40
0.7777777777777778
 40
0.7777777777777778
 40
0.7777777777777778
 40
1.0
 40
1.0
 40
1.0
 40
1.0
 10
-1.09
 20
-18.3152
 30
0.0
 10
-1.09
 20
-18.8118
 30
0.0
 10
-1.0316
 20
-19.1421
 30
0.0
 10
-0.9153
 20
-19.307
 30
0.0
 10
-0.9153
 20
-19.307
 30
0.0
 10
-0.7991
 20
-19.4711
 30
0.0
 10
-0.6561
 20
-19.5535
 30
0.0
 10
-0.4856
 20
-19.5535
 30
0.0
 10
-0.4856
 20
-19.5535
 30
0.0
 10
-0.3145
 20
-19.5535
 30
0.0
 10
-0.1715
 20
-19.4704
 30
0.0
 10
-0.0553
 20
-19.3056
 30
0.0
 10
-0.0553
 20
-19.3056
 30
0.0
 10
0.061
 20
-19.1407
 30
0.0
 10
0.1194
 20
-18.8104
 30
0.0
 10
0.1194
 20
-18.3152
 30
0.0
 10
0.1194
 20
-18.3152
 30
0.0
 10
0.1194
 20
-17.8172
 30
0.0
 10
0.061
 20
-17.4861
 30
0.0
 10
-0.0553
 20
-17.3227
 30
0.0
 10
-0.0553
 20
-17.3227
 30
0.0
 10
-0.1715
 20
-17.1586
 30
0.0
 10
-0.3159
 20
-17.0768
 30
0.0
 10
-0.4892
 20
-17.0768
 30
0.0
 10
-0.4892
 20
-17.0768
 30
0.0
 10
-0.6603
 20
-17.0768
 30
0.0
 10
-0.7963
 20
-17.1494
 30
0.0
 10
-0.8984
 20
-17.2938
 30
0.0
 10
-0.8984
 20
-17.2938
 30
0.0
 10
-1.0259
 20
-17.4776
 30
0.0
 10
-1.09
 20
-17.8186
 30
0.0
 10
-1.09
 20
-18.3152
 30
0.0
  0
SPLINE
  5
4E
330
1F
100
AcDbEntity
  8
DEFAULT_1
 62
   250
100
AcDbSpline
210
0.0
220
0.0
230
1.0
 70
    11
 71
     3
 72
    20
 73
    16
 74
     0
 42
0.0000000001
 43
0.0000000001
 40
0.0
 40
0.0
 40
0.0
 40
0.0
 40
0.2
 40
0.2
 40
0.2
 40
0.2
 40
0.4
 40
0.4
 40
0.4
 40
0.4
 40
0.6
 40
0.6
 40
0.6
 40
0.6
 40
1.0
 40
1.0
 40
1.0
 40
1.0
 10
-65.2109
 20
-20.8215
 30
0.0
 10
-65.2109
 20
-20.8215
 30
0.0
 10
-60.7186
 20
-21.4775
 30
0.0
 10
-60.7186
 20
-21.4775
 30
0.0
 10
-60.7186
 20
-21.4775
 30
0.0
 10
-60.7186
 20
-21.4775
 30
0.0
 10
-60.7186
 20
-20.0295
 30
0.0
 10
-60.7186
 20
-20.0295
 30
0.0
 10
-60.7186
 20
-20.0295
 30
0.0
 10
-60.7186
 20
-20.0295
 30
0.0
 10
-65.2109
 20
-20.8196
 30
0.0
 10
-65.2109
 20
-20.8196
 30
0.0
 10
-65.2109
 20
-20.8196
 30
0.0
 10
-65.2109
 20
-20.8196
 30
0.0
 10
-65.2109
 20
-20.8215
 30
0.0
 10
-65.2109
 20
-20.8215
 30
0.0
  0
SPLINE
  5
4F
330
1F
100
AcDbEntity
  8
DEFAULT_1
 62
   250
100
AcDbSpline
210
0.0
220
0.0
230
1.0
 70
    11
 71
     3
 72
    20
 73
    16
 74
     0
 42
0.0000000001
 43
0.0000000001
 40
0.0
 40
0.0
 40
0.0
 40
0.0
 40
0.2
 40
0.2
 40
0.2
 40
0.2
 40
0.4
 40
0.4
 40
0.4
 40
0.4
 40
0.6
 40
0.6
 40
0.6
 40
0.6
 40
1.0
 40
1.0
 40
1.0
 40
1.0
 10
60.8754
 20
-20.6857
 30
0.0
 10
60.8754
 20
-20.6857
 30
0.0
 10
56.3828
 20
-20.0297
 30
0.0
 10
56.3828
 20
-20.0297
 30
0.0
 10
56.3828
 20
-20.0297
 30
0.0
 10
56.3828
 20
-20.0297
 30
0.0
 10
56.3828
 20
-21.4777
 30
0.0
 10
56.3828
 20
-21.4777
 30
0.0
 10
56.3828
 20
-21.4777
 30
0.0
 10
56.3828
 20
-21.4777
 30
0.0
 10
60.8754
 20
-20.6876
 30
0.0
 10
60.8754
 20
-20.6876
 30
0.0
 10
60.8754
 20
-20.6876
 30
0.0
 10
60.8754
 20
-20.6876
 30
0.0
 10
60.8754
 20
-20.6857
 30
0.0
 10
60.8754
 20
-20.6857
 30
0.0
  0
SPLINE
  5
50
330
1F
100
AcDbEntity
  8
DEFAULT_1
 62
   250
100
AcDbSpline
210
0.0
220
0.0
230
1.0
 70
    24
 71
     3
 72
     8
 73
     4
 74
     0
 42
0.0000000001
 43
0.0000000001
 40
0.0
 40
0.0
 40
0.0
 40
0.0
 40
1.0
 40
1.0
 40
1.0
 40
1.0
 10
58.7946
 20
-20.7537
 30
0.0
 10
58.7946
 20
-20.7537
 30
0.0
 10
-63.9995
 20
-20.7537
 30
0.0
 10
-63.9995
 20
-20.7537
 30
0.0
  0
SPLINE
  5
51
330
1F
100
AcDbEntity
  8
DEFAULT_1
 62
   250
100
AcDbSpline
210
0.0
220
0.0
230
1.0
 70
    24
 71
     3
 72
     8
 73
     4
 74
     0
 42
0.0000000001
 43
0.0000000001
 40
0.0
 40
0.0
 40
0.0
 40
0.0
 40
1.0
 40
1.0
 40
1.0
 40
1.0
 10
-65.3356
 20
-21.9564
 30
0.0
 10
-65.3356
 20
-21.9564
 30
0.0
 10
-65.3356
 20
-4.9737
 30
0.0
 10
-65.3356
 20
-4.9737
 30
0.0
  0
SPLINE
  5
52
330
1F
100
AcDbEntity
  8
DEFAULT_1
 62
   250
100
AcDbSpline
210
0.0
220
0.0
230
1.0
 70
    24
 71
     3
 72
     8
 73
     4
 74
     0
 42
0.0000000001
 43
0.0000000001
 40
0.0
 40
0.0
 40
0.0
 40
0.0
 40
1.0
 40
1.0
 40
1.0
 40
1.0
 10
60.946
 20
-22.0697
 30
0.0
 10
60.946
 20
-22.0697
 30
0.0
 10
60.946
 20
-4.8259
 30
0.0
 10
60.946
 20
-4.8259
 30
0.0
  0
SPLINE
  5
53
330
1F
100
AcDbEntity
  8
DEFAULT_1
 62
   250
100
AcDbSpline
210
0.0
220
0.0
230
1.0
 70
    24
 71
     3
 72
     8
 73
     4
 74
     0
 42
0.0000000001
 43
0.0000000001
 40
0.0
 40
0.0
 40
0.0
 40
0.0
 40
1.0
 40
1.0
 40
1.0
 40
1.0
 10
-66.2256
 20
-2.3908
 30
0.0
 10
-66.2256
 20
-2.3908
 30
0.0
 10
-72.2292
 20
-2.3908
 30
0.0
 10
-72.2292
 20
-2.3908
 30
0.0
  0
SPLINE
  5
54
330
1F
100
AcDbEntity
  8
DEFAULT_1
 62
   250
100
AcDbSpline
210
0.0
220
0.0
230
1.0
 70
    24
 71
     3
 72
     8
 73
     4
 74
     0
 42
0.0000000001
 43
0.0000000001
 40
0.0
 40
0.0
 40
0.0
 40
0.0
 40
1.0
 40
1.0
 40
1.0
 40
1.0
 10
-72.2707
 20
15.6124
 30
0.0
 10
-72.2707
 20
15.6124
 30
0.0
 10
-66.2696
 20
15.6124
 30
0.0
 10
-66.2696
 20
15.6124
 30
0.0
  0
SPLINE
  5
55
330
1F
100
AcDbEntity
  8
DEFAULT_1
 62
   250
100
AcDbSpline
210
0.0
220
0.0
230
1.0
 70
    24
 71
     3
 72
     8
 73
     4
 74
     0
 42
0.0000000001
 43
0.0000000001
 40
0.0
 40
0.0
 40
0.0
 40
0.0
 40
1.0
 40
1.0
 40
1.0
 40
1.0
 10
75.5062
 20
-3.4473
 30
0.0
 10
75.5062
 20
-3.4473
 30
0.0
 10
62.254
 20
-3.4473
 30
0.0
 10
62.254
 20
-3.4473
 30
0.0
  0
SPLINE
  5
56
330
1F
100
AcDbEntity
  8
DEFAULT_1
 62
   250
100
AcDbSpline
210
0.0
220
0.0
230
1.0
 70
    24
 71
     3
 72
     8
 73
     4
 74
     0
 42
0.0000000001
 43
0.0000000001
 40
0.0
 40
0.0
 40
0.0
 40
0.0
 40
1.0
 40
1.0
 40
1.0
 40
1.0
 10
61.9819
 20
16.364
 30
0.0
 10
61.9819
 20
16.364
 30
0.0
 10
75.4201
 20
16.364
 30
0.0
 10
75.4201
 20
16.364
 30
0.0
  0
SPLINE
  5
57
330
1F
100
AcDbEntity
  8
DEFAULT_1
 62
   250
100
AcDbSpline
210
0.0
220
0.0
230
1.0
 70
    11
 71
     3
 72
    84
 73
    80
 74
     0
 42
0.0000000001
 43
0.0000000001
 40
0.0
 40
0.0
 40
0.0
 40
0.0
 40
0.0476190476190476
 40
0.0476190476190476
 40
0.0476190476190476
 40
0.0476190476190476
 40
0.0952380952380952
 40
0.0952380952380952
 40
0.0952380952380952
 40
0.0952380952380952
 40
0.1428571428571428
 40
0.1428571428571428
 40
0.1428571428571428
 40
0.1428571428571428
 40
0.1904761904761905
 40
0.1904761904761905
 40
0.1904761904761905
 40
0.1904761904761905
 40
0.2380952380952381
 40
0.2380952380952381
 40
0.2380952380952381
 40
0.2380952380952381
 40
0.2857142857142857
 40
0.2857142857142857
 40
0.2857142857142857
 40
0.2857142857142857
 40
0.3333333333333333
 40
0.3333333333333333
 40
0.3333333333333333
 40
0.3333333333333333
 40
0.3809523809523809
 40
0.3809523809523809
 40
0.3809523809523809
 40
0.3809523809523809
 40
0.4285714285714285
 40
0.4285714285714285
 40
0.4285714285714285
 40
0.4285714285714285
 40
0.4761904761904762
 40
0.4761904761904762
 40
0.4761904761904762
 40
0.4761904761904762
 40
0.5238095238095238
 40
0.5238095238095238
 40
0.5238095238095238
 40
0.5238095238095238
 40
0.5714285714285714
 40
0.5714285714285714
 40
0.5714285714285714
 40
0.5714285714285714
 40
0.6190476190476191
 40
0.6190476190476191
 40
0.6190476190476191
 40
0.6190476190476191
 40
0.6666666666666666
 40
0.6666666666666666
 40
0.6666666666666666
 40
0.6666666666666666
 40
0.7142857142857143
 40
0.7142857142857143
 40
0.7142857142857143
 40
0.7142857142857143
 40
0.7619047619047619
 40
0.7619047619047619
 40
0.7619047619047619
 40
0.7619047619047619
 40
0.8095238095238095
 40
0.8095238095238095
 40
0.8095238095238095
 40
0.8095238095238095
 40
0.8571428571428571
 40
0.8571428571428571
 40
0.8571428571428571
 40
0.8571428571428571
 40
0.9047619047619048
 40
0.9047619047619048
 40
0.9047619047619048
 40
0.9047619047619048
 40
1.0
 40
1.0
 40
1.0
 40
1.0
 10
29.5101
 20
-14.2871
 30
0.0
 10
29.5101
 20
-14.2871
 30
0.0
 10
29.122
 20
-13.9405
 30
0.0
 10
29.122
 20
-13.9405
 30
0.0
 10
29.122
 20
-13.9405
 30
0.0
 10
29.122
 20
-13.9405
 30
0.0
 10
29.2953
 20
-13.7362
 30
0.0
 10
29.2953
 20
-13.7362
 30
0.0
 10
29.2953
 20
-13.7362
 30
0.0
 10
29.2953
 20
-13.7362
 30
0.0
 10
29.7038
 20
-14.099
 30
0.0
 10
29.7038
 20
-14.099
 30
0.0
 10
29.7038
 20
-14.099
 30
0.0
 10
29.8799
 20
-13.9807
 30
0.0
 10
30.0342
 20
-13.9011
 30
0.0
 10
30.1659
 20
-13.8595
 30
0.0
 10
30.1659
 20
-13.8595
 30
0.0
 10
30.3392
 20
-13.8046
 30
0.0
 10
30.5336
 20
-13.7771
 30
0.0
 10
30.7478
 20
-13.7771
 30
0.0
 10
30.7478
 20
-13.7771
 30
0.0
 10
31.0577
 20
-13.7771
 30
0.0
 10
31.3338
 20
-13.8398
 30
0.0
 10
31.5754
 20
-13.9652
 30
0.0
 10
31.5754
 20
-13.9652
 30
0.0
 10
31.8177
 20
-14.0906
 30
0.0
 10
32.0009
 20
-14.266
 30
0.0
 10
32.1249
 20
-14.4921
 30
0.0
 10
32.1249
 20
-14.4921
 30
0.0
 10
32.2481
 20
-14.7189
 30
0.0
 10
32.3101
 20
-14.9591
 30
0.0
 10
32.3101
 20
-15.2134
 30
0.0
 10
32.3101
 20
-15.2134
 30
0.0
 10
32.3101
 20
-15.4036
 30
0.0
 10
32.2834
 20
-15.5754
 30
0.0
 10
32.2298
 20
-15.7297
 30
0.0
 10
32.2298
 20
-15.7297
 30
0.0
 10
32.1883
 20
-15.848
 30
0.0
 10
32.1094
 20
-15.9861
 30
0.0
 10
31.9924
 20
-16.1446
 30
0.0
 10
31.9924
 20
-16.1446
 30
0.0
 10
31.9924
 20
-16.1446
 30
0.0
 10
32.3806
 20
-16.4912
 30
0.0
 10
32.3806
 20
-16.4912
 30
0.0
 10
32.3806
 20
-16.4912
 30
0.0
 10
32.3806
 20
-16.4912
 30
0.0
 10
32.2073
 20
-16.6954
 30
0.0
 10
32.2073
 20
-16.6954
 30
0.0
 10
32.2073
 20
-16.6954
 30
0.0
 10
32.2073
 20
-16.6954
 30
0.0
 10
31.8008
 20
-16.332
 30
0.0
 10
31.8008
 20
-16.332
 30
0.0
 10
31.8008
 20
-16.332
 30
0.0
 10
31.5959
 20
-16.4672
 30
0.0
 10
31.4205
 20
-16.5574
 30
0.0
 10
31.2754
 20
-16.6025
 30
0.0
 10
31.2754
 20
-16.6025
 30
0.0
 10
31.1303
 20
-16.6475
 30
0.0
 10
30.9556
 20
-16.6708
 30
0.0
 10
30.752
 20
-16.6708
 30
0.0
 10
30.752
 20
-16.6708
 30
0.0
 10
30.4413
 20
-16.6708
 30
0.0
 10
30.1645
 20
-16.6088
 30
0.0
 10
29.9215
 20
-16.4848
 30
0.0
 10
29.9215
 20
-16.4848
 30
0.0
 10
29.6785
 20
-16.3608
 30
0.0
 10
29.4946
 20
-16.1876
 30
0.0
 10
29.3693
 20
-15.9636
 30
0.0
 10
29.3693
 20
-15.9636
 30
0.0
 10
29.2446
 20
-15.7403
 30
0.0
 10
29.1819
 20
-15.4916
 30
0.0
 10
29.1819
 20
-15.2176
 30
0.0
 10
29.1819
 20
-15.2176
 30
0.0
 10
29.1819
 20
-15.033
 30
0.0
 10
29.2058
 20
-14.8717
 30
0.0
 10
29.2551
 20
-14.7337
 30
0.0
 10
29.2551
 20
-14.7337
 30
0.0
 10
29.3037
 20
-14.5956
 30
0.0
 10
29.389
 20
-14.4463
 30
0.0
 10
29.5101
 20
-14.2871
 30
0.0
  0
SPLINE
  5
58
330
1F
100
AcDbEntity
  8
DEFAULT_1
 62
   250
100
AcDbSpline
210
0.0
220
0.0
230
1.0
 70
    11
 71
     3
 72
    32
 73
    28
 74
     0
 42
0.0000000001
 43
0.0000000001
 40
0.0
 40
0.0
 40
0.0
 40
0.0
 40
0.125
 40
0.125
 40
0.125
 40
0.125
 40
0.25
 40
0.25
 40
0.25
 40
0.25
 40
0.375
 40
0.375
 40
0.375
 40
0.375
 40
0.5
 40
0.5
 40
0.5
 40
0.5
 40
0.625
 40
0.625
 40
0.625
 40
0.625
 40
0.75
 40
0.75
 40
0.75
 40
0.75
 40
1.0
 40
1.0
 40
1.0
 40
1.0
 10
29.7884
 20
-14.5343
 30
0.0
 10
29.6869
 20
-14.6639
 30
0.0
 10
29.6172
 20
-14.7773
 30
0.0
 10
29.5799
 20
-14.8739
 30
0.0
 10
29.5799
 20
-14.8739
 30
0.0
 10
29.5432
 20
-14.9711
 30
0.0
 10
29.5242
 20
-15.0852
 30
0.0
 10
29.5242
 20
-15.2155
 30
0.0
 10
29.5242
 20
-15.2155
 30
0.0
 10
29.5242
 20
-15.517
 30
0.0
 10
29.6264
 20
-15.7656
 30
0.0
 10
29.8306
 20
-15.9629
 30
0.0
 10
29.8306
 20
-15.9629
 30
0.0
 10
30.0349
 20
-16.1594
 30
0.0
 10
30.3399
 20
-16.258
 30
0.0
 10
30.7464
 20
-16.258
 30
0.0
 10
30.7464
 20
-16.258
 30
0.0
 10
30.9055
 20
-16.258
 30
0.0
 10
31.0471
 20
-16.2425
 30
0.0
 10
31.1711
 20
-16.2122
 30
0.0
 10
31.1711
 20
-16.2122
 30
0.0
 10
31.2634
 20
-16.1904
 30
0.0
 10
31.3768
 20
-16.1446
 30
0.0
 10
31.5113
 20
-16.0742
 30
0.0
 10
31.5113
 20
-16.0742
 30
0.0
 10
31.5113
 20
-16.0742
 30
0.0
 10
29.7884
 20
-14.5343
 30
0.0
 10
29.7884
 20
-14.5343
 30
0.0
  0
SPLINE
  5
59
330
1F
100
AcDbEntity
  8
DEFAULT_1
 62
   250
100
AcDbSpline
210
0.0
220
0.0
230
1.0
 70
    11
 71
     3
 72
    28
 73
    24
 74
     0
 42
0.0000000001
 43
0.0000000001
 40
0.0
 40
0.0
 40
0.0
 40
0.0
 40
0.1428571428571428
 40
0.1428571428571428
 40
0.1428571428571428
 40
0.1428571428571428
 40
0.2857142857142857
 40
0.2857142857142857
 40
0.2857142857142857
 40
0.2857142857142857
 40
0.4285714285714285
 40
0.4285714285714285
 40
0.4285714285714285
 40
0.4285714285714285
 40
0.5714285714285714
 40
0.5714285714285714
 40
0.5714285714285714
 40
0.5714285714285714
 40
0.7142857142857143
 40
0.7142857142857143
 40
0.7142857142857143
 40
0.7142857142857143
 40
1.0
 40
1.0
 40
1.0
 40
1.0
 10
30.0011
 20
-14.3653
 30
0.0
 10
30.0011
 20
-14.3653
 30
0.0
 10
31.7177
 20
-15.8988
 30
0.0
 10
31.7177
 20
-15.8988
 30
0.0
 10
31.7177
 20
-15.8988
 30
0.0
 10
31.8044
 20
-15.7931
 30
0.0
 10
31.8649
 20
-15.6952
 30
0.0
 10
31.8995
 20
-15.6057
 30
0.0
 10
31.8995
 20
-15.6057
 30
0.0
 10
31.9452
 20
-15.4888
 30
0.0
 10
31.9678
 20
-15.362
 30
0.0
 10
31.9678
 20
-15.2261
 30
0.0
 10
31.9678
 20
-15.2261
 30
0.0
 10
31.9678
 20
-14.926
 30
0.0
 10
31.8621
 20
-14.6787
 30
0.0
 10
31.6501
 20
-14.4829
 30
0.0
 10
31.6501
 20
-14.4829
 30
0.0
 10
31.4381
 20
-14.2878
 30
0.0
 10
31.1408
 20
-14.1899
 30
0.0
 10
30.7583
 20
-14.1899
 30
0.0
 10
30.7583
 20
-14.1899
 30
0.0
 10
30.4723
 20
-14.1899
 30
0.0
 10
30.2195
 20
-14.2483
 30
0.0
 10
30.0011
 20
-14.3653
 30
0.0
  0
SPLINE
  5
5A
330
1F
100
AcDbEntity
  8
DEFAULT_1
 62
   250
100
AcDbSpline
210
0.0
220
0.0
230
1.0
 70
    11
 71
     3
 72
    48
 73
    44
 74
     0
 42
0.0000000001
 43
0.0000000001
 40
0.0
 40
0.0
 40
0.0
 40
0.0
 40
0.0833333333333333
 40
0.0833333333333333
 40
0.0833333333333333
 40
0.0833333333333333
 40
0.1666666666666667
 40
0.1666666666666667
 40
0.1666666666666667
 40
0.1666666666666667
 40
0.25
 40
0.25
 40
0.25
 40
0.25
 40
0.3333333333333333
 40
0.3333333333333333
 40
0.3333333333333333
 40
0.3333333333333333
 40
0.4166666666666667
 40
0.4166666666666667
 40
0.4166666666666667
 40
0.4166666666666667
 40
0.5
 40
0.5
 40
0.5
 40
0.5
 40
0.5833333333333334
 40
0.5833333333333334
 40
0.5833333333333334
 40
0.5833333333333334
 40
0.6666666666666666
 40
0.6666666666666666
 40
0.6666666666666666
 40
0.6666666666666666
 40
0.75
 40
0.75
 40
0.75
 40
0.75
 40
0.8333333333333334
 40
0.8333333333333334
 40
0.8333333333333334
 40
0.8333333333333334
 40
1.0
 40
1.0
 40
1.0
 40
1.0
 10
32.2587
 20
-12.2134
 30
0.0
 10
32.2587
 20
-12.2134
 30
0.0
 10
31.5346
 20
-12.2134
 30
0.0
 10
31.5346
 20
-12.2134
 30
0.0
 10
31.5346
 20
-12.2134
 30
0.0
 10
31.5346
 20
-12.2134
 30
0.0
 10
31.5346
 20
-13.5257
 30
0.0
 10
31.5346
 20
-13.5257
 30
0.0
 10
31.5346
 20
-13.5257
 30
0.0
 10
31.5346
 20
-13.5257
 30
0.0
 10
31.1936
 20
-13.5257
 30
0.0
 10
31.1936
 20
-13.5257
 30
0.0
 10
31.1936
 20
-13.5257
 30
0.0
 10
31.1936
 20
-13.5257
 30
0.0
 10
29.2333
 20
-12.145
 30
0.0
 10
29.2333
 20
-12.145
 30
0.0
 10
29.2333
 20
-12.145
 30
0.0
 10
29.2333
 20
-12.145
 30
0.0
 10
29.2333
 20
-11.8414
 30
0.0
 10
29.2333
 20
-11.8414
 30
0.0
 10
29.2333
 20
-11.8414
 30
0.0
 10
29.2333
 20
-11.8414
 30
0.0
 10
31.1936
 20
-11.8414
 30
0.0
 10
31.1936
 20
-11.8414
 30
0.0
 10
31.1936
 20
-11.8414
 30
0.0
 10
31.1936
 20
-11.8414
 30
0.0
 10
31.1936
 20
-11.4329
 30
0.0
 10
31.1936
 20
-11.4329
 30
0.0
 10
31.1936
 20
-11.4329
 30
0.0
 10
31.1936
 20
-11.4329
 30
0.0
 10
31.5346
 20
-11.4329
 30
0.0
 10
31.5346
 20
-11.4329
 30
0.0
 10
31.5346
 20
-11.4329
 30
0.0
 10
31.5346
 20
-11.4329
 30
0.0
 10
31.5346
 20
-11.8414
 30
0.0
 10
31.5346
 20
-11.8414
 30
0.0
 10
31.5346
 20
-11.8414
 30
0.0
 10
31.5346
 20
-11.8414
 30
0.0
 10
32.2587
 20
-11.8414
 30
0.0
 10
32.2587
 20
-11.8414
 30
0.0
 10
32.2587
 20
-11.8414
 30
0.0
 10
32.2587
 20
-11.8414
 30
0.0
 10
32.2587
 20
-12.2134
 30
0.0
 10
32.2587
 20
-12.2134
 30
0.0
  0
SPLINE
  5
5B
330
1F
100
AcDbEntity
  8
DEFAULT_1
 62
   250
100
AcDbSpline
210
0.0
220
0.0
230
1.0
 70
    11
 71
     3
 72
    16
 73
    12
 74
     0
 42
0.0000000001
 43
0.0000000001
 40
0.0
 40
0.0
 40
0.0
 40
0.0
 40
0.25
 40
0.25
 40
0.25
 40
0.25
 40
0.5
 40
0.5
 40
0.5
 40
0.5
 40
1.0
 40
1.0
 40
1.0
 40
1.0
 10
31.1936
 20
-12.2134
 30
0.0
 10
31.1936
 20
-12.2134
 30
0.0
 10
29.8299
 20
-12.2134
 30
0.0
 10
29.8299
 20
-12.2134
 30
0.0
 10
29.8299
 20
-12.2134
 30
0.0
 10
29.8299
 20
-12.2134
 30
0.0
 10
31.1936
 20
-13.1601
 30
0.0
 10
31.1936
 20
-13.1601
 30
0.0
 10
31.1936
 20
-13.1601
 30
0.0
 10
31.1936
 20
-13.1601
 30
0.0
 10
31.1936
 20
-12.2134
 30
0.0
 10
31.1936
 20
-12.2134
 30
0.0
  0
SPLINE
  5
5C
330
1F
100
AcDbEntity
  8
DEFAULT_1
 62
   250
100
AcDbSpline
210
0.0
220
0.0
230
1.0
 70
    11
 71
     3
 72
    52
 73
    48
 74
     0
 42
0.0000000001
 43
0.0000000001
 40
0.0
 40
0.0
 40
0.0
 40
0.0
 40
0.0769230769230769
 40
0.0769230769230769
 40
0.0769230769230769
 40
0.0769230769230769
 40
0.1538461538461539
 40
0.1538461538461539
 40
0.1538461538461539
 40
0.1538461538461539
 40
0.2307692307692308
 40
0.2307692307692308
 40
0.2307692307692308
 40
0.2307692307692308
 40
0.3076923076923077
 40
0.3076923076923077
 40
0.3076923076923077
 40
0.3076923076923077
 40
0.3846153846153846
 40
0.3846153846153846
 40
0.3846153846153846
 40
0.3846153846153846
 40
0.4615384615384616
 40
0.4615384615384616
 40
0.4615384615384616
 40
0.4615384615384616
 40
0.5384615384615384
 40
0.5384615384615384
 40
0.5384615384615384
 40
0.5384615384615384
 40
0.6153846153846154
 40
0.6153846153846154
 40
0.6153846153846154
 40
0.6153846153846154
 40
0.6923076923076923
 40
0.6923076923076923
 40
0.6923076923076923
 40
0.6923076923076923
 40
0.7692307692307693
 40
0.7692307692307693
 40
0.7692307692307693
 40
0.7692307692307693
 40
0.8461538461538461
 40
0.8461538461538461
 40
0.8461538461538461
 40
0.8461538461538461
 40
1.0
 40
1.0
 40
1.0
 40
1.0
 10
30.7668
 20
-11.0532
 30
0.0
 10
30.4089
 20
-11.0532
 30
0.0
 10
30.1208
 20
-11.0166
 30
0.0
 10
29.9032
 20
-10.9426
 30
0.0
 10
29.9032
 20
-10.9426
 30
0.0
 10
29.6848
 20
-10.8694
 30
0.0
 10
29.5165
 20
-10.7595
 30
0.0
 10
29.3981
 20
-10.6144
 30
0.0
 10
29.3981
 20
-10.6144
 30
0.0
 10
29.2798
 20
-10.4693
 30
0.0
 10
29.2206
 20
-10.2868
 30
0.0
 10
29.2206
 20
-10.067
 30
0.0
 10
29.2206
 20
-10.067
 30
0.0
 10
29.2206
 20
-9.9043
 30
0.0
 10
29.2537
 20
-9.762
 30
0.0
 10
29.3192
 20
-9.6395
 30
0.0
 10
29.3192
 20
-9.6395
 30
0.0
 10
29.384
 20
-9.5169
 30
0.0
 10
29.4784
 20
-9.4162
 30
0.0
 10
29.6017
 20
-9.3359
 30
0.0
 10
29.6017
 20
-9.3359
 30
0.0
 10
29.725
 20
-9.2563
 30
0.0
 10
29.875
 20
-9.1936
 30
0.0
 10
30.0518
 20
-9.1485
 30
0.0
 10
30.0518
 20
-9.1485
 30
0.0
 10
30.2286
 20
-9.1027
 30
0.0
 10
30.4667
 20
-9.0802
 30
0.0
 10
30.7668
 20
-9.0802
 30
0.0
 10
30.7668
 20
-9.0802
 30
0.0
 10
31.1218
 20
-9.0802
 30
0.0
 10
31.4078
 20
-9.1168
 30
0.0
 10
31.6261
 20
-9.1894
 30
0.0
 10
31.6261
 20
-9.1894
 30
0.0
 10
31.8445
 20
-9.2626
 30
0.0
 10
32.0129
 20
-9.3718
 30
0.0
 10
32.1319
 20
-9.5169
 30
0.0
 10
32.1319
 20
-9.5169
 30
0.0
 10
32.251
 20
-9.662
 30
0.0
 10
32.3101
 20
-9.8452
 30
0.0
 10
32.3101
 20
-10.067
 30
0.0
 10
32.3101
 20
-10.067
 30
0.0
 10
32.3101
 20
-10.3587
 30
0.0
 10
32.2059
 20
-10.5876
 30
0.0
 10
31.9967
 20
-10.7538
 30
0.0
 10
31.9967
 20
-10.7538
 30
0.0
 10
31.7452
 20
-10.9532
 30
0.0
 10
31.3345
 20
-11.0532
 30
0.0
 10
30.7668
 20
-11.0532
 30
0.0
  0
SPLINE
  5
5D
330
1F
100
AcDbEntity
  8
DEFAULT_1
 62
   250
100
AcDbSpline
210
0.0
220
0.0
230
1.0
 70
    11
 71
     3
 72
    36
 73
    32
 74
     0
 42
0.0000000001
 43
0.0000000001
 40
0.0
 40
0.0
 40
0.0
 40
0.0
 40
0.1111111111111111
 40
0.1111111111111111
 40
0.1111111111111111
 40
0.1111111111111111
 40
0.2222222222222222
 40
0.2222222222222222
 40
0.2222222222222222
 40
0.2222222222222222
 40
0.3333333333333333
 40
0.3333333333333333
 40
0.3333333333333333
 40
0.3333333333333333
 40
0.4444444444444444
 40
0.4444444444444444
 40
0.4444444444444444
 40
0.4444444444444444
 40
0.5555555555555556
 40
0.5555555555555556
 40
0.5555555555555556
 40
0.5555555555555556
 40
0.6666666666666666
 40
0.6666666666666666
 40
0.6666666666666666
 40
0.6666666666666666
 40
0.7777777777777778
 40
0.7777777777777778
 40
0.7777777777777778
 40
0.7777777777777778
 40
1.0
 40
1.0
 40
1.0
 40
1.0
 10
30.7668
 20
-10.6714
 30
0.0
 10
31.2634
 20
-10.6714
 30
0.0
 10
31.5937
 20
-10.613
 30
0.0
 10
31.7586
 20
-10.4967
 30
0.0
 10
31.7586
 20
-10.4967
 30
0.0
 10
31.9227
 20
-10.3805
 30
0.0
 10
32.0051
 20
-10.2375
 30
0.0
 10
32.0051
 20
-10.067
 30
0.0
 10
32.0051
 20
-10.067
 30
0.0
 10
32.0051
 20
-9.8959
 30
0.0
 10
31.922
 20
-9.7529
 30
0.0
 10
31.7572
 20
-9.6367
 30
0.0
 10
31.7572
 20
-9.6367
 30
0.0
 10
31.5923
 20
-9.5204
 30
0.0
 10
31.262
 20
-9.462
 30
0.0
 10
30.7668
 20
-9.462
 30
0.0
 10
30.7668
 20
-9.462
 30
0.0
 10
30.2688
 20
-9.462
 30
0.0
 10
29.9377
 20
-9.5204
 30
0.0
 10
29.7743
 20
-9.6367
 30
0.0
 10
29.7743
 20
-9.6367
 30
0.0
 10
29.6102
 20
-9.7529
 30
0.0
 10
29.5284
 20
-9.8973
 30
0.0
 10
29.5284
 20
-10.0706
 30
0.0
 10
29.5284
 20
-10.0706
 30
0.0
 10
29.5284
 20
-10.2417
 30
0.0
 10
29.601
 20
-10.3777
 30
0.0
 10
29.7454
 20
-10.4798
 30
0.0
 10
29.7454
 20
-10.4798
 30
0.0
 10
29.9292
 20
-10.6073
 30
0.0
 10
30.2702
 20
-10.6714
 30
0.0
 10
30.7668
 20
-10.6714
 30
0.0
  0
SPLINE
  5
5E
330
1F
100
AcDbEntity
  8
DEFAULT_1
 62
   250
100
AcDbSpline
210
0.0
220
0.0
230
1.0
 70
    11
 71
     3
 72
    20
 73
    16
 74
     0
 42
0.0000000001
 43
0.0000000001
 40
0.0
 40
0.0
 40
0.0
 40
0.0
 40
0.2
 40
0.2
 40
0.2
 40
0.2
 40
0.4
 40
0.4
 40
0.4
 40
0.4
 40
0.6
 40
0.6
 40
0.6
 40
0.6
 40
1.0
 40
1.0
 40
1.0
 40
1.0
 10
33.1227
 20
14.3745
 30
0.0
 10
33.1227
 20
14.3745
 30
0.0
 10
33.7989
 20
19.0059
 30
0.0
 10
33.7989
 20
19.0059
 30
0.0
 10
33.7989
 20
19.0059
 30
0.0
 10
33.7989
 20
19.0059
 30
0.0
 10
32.3062
 20
19.0059
 30
0.0
 10
32.3062
 20
19.0059
 30
0.0
 10
32.3062
 20
19.0059
 30
0.0
 10
32.3062
 20
19.0059
 30
0.0
 10
33.1206
 20
14.3745
 30
0.0
 10
33.1206
 20
14.3745
 30
0.0
 10
33.1206
 20
14.3745
 30
0.0
 10
33.1206
 20
14.3745
 30
0.0
 10
33.1227
 20
14.3745
 30
0.0
 10
33.1227
 20
14.3745
 30
0.0
  0
SPLINE
  5
5F
330
1F
100
AcDbEntity
  8
DEFAULT_1
 62
   250
100
AcDbSpline
210
0.0
220
0.0
230
1.0
 70
    11
 71
     3
 72
    20
 73
    16
 74
     0
 42
0.0000000001
 43
0.0000000001
 40
0.0
 40
0.0
 40
0.0
 40
0.0
 40
0.2
 40
0.2
 40
0.2
 40
0.2
 40
0.4
 40
0.4
 40
0.4
 40
0.4
 40
0.6
 40
0.6
 40
0.6
 40
0.6
 40
1.0
 40
1.0
 40
1.0
 40
1.0
 10
33.0885
 20
-1.6956
 30
0.0
 10
33.0885
 20
-1.6956
 30
0.0
 10
32.4123
 20
-6.3269
 30
0.0
 10
32.4123
 20
-6.3269
 30
0.0
 10
32.4123
 20
-6.3269
 30
0.0
 10
32.4123
 20
-6.3269
 30
0.0
 10
33.905
 20
-6.3269
 30
0.0
 10
33.905
 20
-6.3269
 30
0.0
 10
33.905
 20
-6.3269
 30
0.0
 10
33.905
 20
-6.3269
 30
0.0
 10
33.0905
 20
-1.6956
 30
0.0
 10
33.0905
 20
-1.6956
 30
0.0
 10
33.0905
 20
-1.6956
 30
0.0
 10
33.0905
 20
-1.6956
 30
0.0
 10
33.0885
 20
-1.6956
 30
0.0
 10
33.0885
 20
-1.6956
 30
0.0
  0
SPLINE
  5
60
330
1F
100
AcDbEntity
  8
DEFAULT_1
 62
   250
100
AcDbSpline
210
0.0
220
0.0
230
1.0
 70
    24
 71
     3
 72
     8
 73
     4
 74
     0
 42
0.0000000001
 43
0.0000000001
 40
0.0
 40
0.0
 40
0.0
 40
0.0
 40
1.0
 40
1.0
 40
1.0
 40
1.0
 10
33.0524
 20
19.9549
 30
0.0
 10
33.0524
 20
19.9549
 30
0.0
 10
33.0524
 20
-18.3204
 30
0.0
 10
33.0524
 20
-18.3204
 30
0.0
  0
SPLINE
  5
61
330
1F
100
AcDbEntity
  8
DEFAULT_1
  6
NEW_LINE1
 62
   250
100
AcDbSpline
210
0.0
220
0.0
230
1.0
 70
    24
 71
     3
 72
     8
 73
     4
 74
     0
 42
0.0000000001
 43
0.0000000001
 40
0.0
 40
0.0
 40
0.0
 40
0.0
 40
1.0
 40
1.0
 40
1.0
 40
1.0
 10
-66.3087
 20
6.6099
 30
0.0
 10
-66.3087
 20
6.6099
 30
0.0
 10
62.6942
 20
6.6099
 30
0.0
 10
62.6942
 20
6.6099
 30
0.0
  0
SPLINE
  5
63
330
1F
100
AcDbEntity
  8
DEFAULT_1
 62
   250
100
AcDbSpline
210
0.0
220
0.0
230
1.0
 70
    11
 71
     3
 72
   120
 73
   116
 74
     0
 42
0.0000000001
 43
0.0000000001
 40
0.0
 40
0.0
 40
0.0
 40
0.0
 40
0.0333333333333333
 40
0.0333333333333333
 40
0.0333333333333333
 40
0.0333333333333333
 40
0.0666666666666667
 40
0.0666666666666667
 40
0.0666666666666667
 40
0.0666666666666667
 40
0.1
 40
0.1
 40
0.1
 40
0.1
 40
0.1333333333333333
 40
0.1333333333333333
 40
0.1333333333333333
 40
0.1333333333333333
 40
0.1666666666666667
 40
0.1666666666666667
 40
0.1666666666666667
 40
0.1666666666666667
 40
0.2
 40
0.2
 40
0.2
 40
0.2
 40
0.2333333333333333
 40
0.2333333333333333
 40
0.2333333333333333
 40
0.2333333333333333
 40
0.2666666666666667
 40
0.2666666666666667
 40
0.2666666666666667
 40
0.2666666666666667
 40
0.3
 40
0.3
 40
0.3
 40
0.3
 40
0.3333333333333333
 40
0.3333333333333333
 40
0.3333333333333333
 40
0.3333333333333333
 40
0.3666666666666666
 40
0.3666666666666666
 40
0.3666666666666666
 40
0.3666666666666666
 40
0.4
 40
0.4
 40
0.4
 40
0.4
 40
0.4333333333333333
 40
0.4333333333333333
 40
0.4333333333333333
 40
0.4333333333333333
 40
0.4666666666666667
 40
0.4666666666666667
 40
0.4666666666666667
 40
0.4666666666666667
 40
0.5
 40
0.5
 40
0.5
 40
0.5
 40
0.5333333333333333
 40
0.5333333333333333
 40
0.5333333333333333
 40
0.5333333333333333
 40
0.5666666666666667
 40
0.5666666666666667
 40
0.5666666666666667
 40
0.5666666666666667
 40
0.6
 40
0.6
 40
0.6
 40
0.6
 40
0.6333333333333333
 40
0.6333333333333333
 40
0.6333333333333333
 40
0.6333333333333333
 40
0.6666666666666666
 40
0.6666666666666666
 40
0.6666666666666666
 40
0.6666666666666666
 40
0.7
 40
0.7
 40
0.7
 40
0.7
 40
0.7333333333333333
 40
0.7333333333333333
 40
0.7333333333333333
 40
0.7333333333333333
 40
0.7666666666666667
 40
0.7666666666666667
 40
0.7666666666666667
 40
0.7666666666666667
 40
0.8
 40
0.8
 40
0.8
 40
0.8
 40
0.8333333333333334
 40
0.8333333333333334
 40
0.8333333333333334
 40
0.8333333333333334
 40
0.8666666666666667
 40
0.8666666666666667
 40
0.8666666666666667
 40
0.8666666666666667
 40
0.9
 40
0.9
 40
0.9
 40
0.9
 40
0.9333333333333333
 40
0.9333333333333333
 40
0.9333333333333333
 40
0.9333333333333333
 40
1.0
 40
1.0
 40
1.0
 40
1.0
 10
-73.6162
 20
2.6281
 30
0.0
 10
-73.6162
 20
2.6281
 30
0.0
 10
-73.9705
 20
2.6281
 30
0.0
 10
-73.9705
 20
2.6281
 30
0.0
 10
-73.9705
 20
2.6281
 30
0.0
 10
-73.9705
 20
2.6281
 30
0.0
 10
-73.9726
 20
3.9094
 30
0.0
 10
-73.9726
 20
3.9094
 30
0.0
 10
-73.9726
 20
3.9094
 30
0.0
 10
-73.9726
 20
3.9094
 30
0.0
 10
-72.8505
 20
3.9094
 30
0.0
 10
-72.8505
 20
3.9094
 30
0.0
 10
-72.8505
 20
3.9094
 30
0.0
 10
-72.6934
 20
3.7129
 30
0.0
 10
-72.5758
 20
3.51
 30
0.0
 10
-72.4962
 20
3.3008
 30
0.0
 10
-72.4962
 20
3.3008
 30
0.0
 10
-72.4173
 20
3.0916
 30
0.0
 10
-72.3779
 20
2.8767
 30
0.0
 10
-72.3779
 20
2.657
 30
0.0
 10
-72.3779
 20
2.657
 30
0.0
 10
-72.3779
 20
2.3597
 30
0.0
 10
-72.4413
 20
2.0892
 30
0.0
 10
-72.5688
 20
1.8469
 30
0.0
 10
-72.5688
 20
1.8469
 30
0.0
 10
-72.6956
 20
1.6039
 30
0.0
 10
-72.8801
 20
1.4207
 30
0.0
 10
-73.1203
 20
1.2968
 30
0.0
 10
-73.1203
 20
1.2968
 30
0.0
 10
-73.3612
 20
1.1728
 30
0.0
 10
-73.6303
 20
1.1108
 30
0.0
 10
-73.9276
 20
1.1108
 30
0.0
 10
-73.9276
 20
1.1108
 30
0.0
 10
-74.222
 20
1.1108
 30
0.0
 10
-74.4967
 20
1.1728
 30
0.0
 10
-74.7517
 20
1.2961
 30
0.0
 10
-74.7517
 20
1.2961
 30
0.0
 10
-75.0074
 20
1.4186
 30
0.0
 10
-75.1969
 20
1.5961
 30
0.0
 10
-75.3209
 20
1.8272
 30
0.0
 10
-75.3209
 20
1.8272
 30
0.0
 10
-75.4441
 20
2.0582
 30
0.0
 10
-75.5061
 20
2.3245
 30
0.0
 10
-75.5061
 20
2.626
 30
0.0
 10
-75.5061
 20
2.626
 30
0.0
 10
-75.5061
 20
2.8443
 30
0.0
 10
-75.4709
 20
3.0423
 30
0.0
 10
-75.3998
 20
3.2191
 30
0.0
 10
-75.3998
 20
3.2191
 30
0.0
 10
-75.3293
 20
3.3959
 30
0.0
 10
-75.2307
 20
3.5346
 30
0.0
 10
-75.1039
 20
3.6347
 30
0.0
 10
-75.1039
 20
3.6347
 30
0.0
 10
-74.9771
 20
3.7354
 30
0.0
 10
-74.8123
 20
3.8115
 30
0.0
 10
-74.6087
 20
3.8643
 30
0.0
 10
-74.6087
 20
3.8643
 30
0.0
 10
-74.6087
 20
3.8643
 30
0.0
 10
-74.5094
 20
3.5029
 30
0.0
 10
-74.5094
 20
3.5029
 30
0.0
 10
-74.5094
 20
3.5029
 30
0.0
 10
-74.6637
 20
3.4572
 30
0.0
 10
-74.7848
 20
3.4008
 30
0.0
 10
-74.8729
 20
3.3339
 30
0.0
 10
-74.8729
 20
3.3339
 30
0.0
 10
-74.9609
 20
3.2663
 30
0.0
 10
-75.0314
 20
3.1698
 30
0.0
 10
-75.0842
 20
3.0444
 30
0.0
 10
-75.0842
 20
3.0444
 30
0.0
 10
-75.137
 20
2.9197
 30
0.0
 10
-75.1638
 20
2.7802
 30
0.0
 10
-75.1638
 20
2.6281
 30
0.0
 10
-75.1638
 20
2.6281
 30
0.0
 10
-75.1638
 20
2.4449
 30
0.0
 10
-75.1356
 20
2.2864
 30
0.0
 10
-75.08
 20
2.1533
 30
0.0
 10
-75.08
 20
2.1533
 30
0.0
 10
-75.0243
 20
2.0195
 30
0.0
 10
-74.9511
 20
1.9124
 30
0.0
 10
-74.8602
 20
1.83
 30
0.0
 10
-74.8602
 20
1.83
 30
0.0
 10
-74.7693
 20
1.7483
 30
0.0
 10
-74.67
 20
1.6849
 30
0.0
 10
-74.5608
 20
1.6391
 30
0.0
 10
-74.5608
 20
1.6391
 30
0.0
 10
-74.3741
 20
1.5623
 30
0.0
 10
-74.1713
 20
1.5236
 30
0.0
 10
-73.9522
 20
1.5236
 30
0.0
 10
-73.9522
 20
1.5236
 30
0.0
 10
-73.6824
 20
1.5236
 30
0.0
 10
-73.457
 20
1.5701
 30
0.0
 10
-73.2753
 20
1.6631
 30
0.0
 10
-73.2753
 20
1.6631
 30
0.0
 10
-73.0935
 20
1.756
 30
0.0
 10
-72.959
 20
1.8913
 30
0.0
 10
-72.871
 20
2.0688
 30
0.0
 10
-72.871
 20
2.0688
 30
0.0
 10
-72.7829
 20
2.2463
 30
0.0
 10
-72.7385
 20
2.4344
 30
0.0
 10
-72.7385
 20
2.6337
 30
0.0
 10
-72.7385
 20
2.6337
 30
0.0
 10
-72.7385
 20
2.8077
 30
0.0
 10
-72.7723
 20
2.9768
 30
0.0
 10
-72.8393
 20
3.1416
 30
0.0
 10
-72.8393
 20
3.1416
 30
0.0
 10
-72.9055
 20
3.3071
 30
0.0
 10
-72.9766
 20
3.4318
 30
0.0
 10
-73.0527
 20
3.517
 30
0.0
 10
-73.0527
 20
3.517
 30
0.0
 10
-73.0527
 20
3.517
 30
0.0
 10
-73.6162
 20
3.517
 30
0.0
 10
-73.6162
 20
3.517
 30
0.0
 10
-73.6162
 20
3.517
 30
0.0
 10
-73.6162
 20
3.517
 30
0.0
 10
-73.6162
 20
2.6281
 30
0.0
 10
-73.6162
 20
2.6281
 30
0.0
  0
SPLINE
  5
64
330
1F
100
AcDbEntity
  8
DEFAULT_1
 62
   250
100
AcDbSpline
210
0.0
220
0.0
230
1.0
 70
    11
 71
     3
 72
    80
 73
    76
 74
     0
 42
0.0000000001
 43
0.0000000001
 40
0.0
 40
0.0
 40
0.0
 40
0.0
 40
0.05
 40
0.05
 40
0.05
 40
0.05
 40
0.1
 40
0.1
 40
0.1
 40
0.1
 40
0.15
 40
0.15
 40
0.15
 40
0.15
 40
0.2
 40
0.2
 40
0.2
 40
0.2
 40
0.25
 40
0.25
 40
0.25
 40
0.25
 40
0.3
 40
0.3
 40
0.3
 40
0.3
 40
0.35
 40
0.35
 40
0.35
 40
0.35
 40
0.4
 40
0.4
 40
0.4
 40
0.4
 40
0.45
 40
0.45
 40
0.45
 40
0.45
 40
0.5
 40
0.5
 40
0.5
 40
0.5
 40
0.55
 40
0.55
 40
0.55
 40
0.55
 40
0.6
 40
0.6
 40
0.6
 40
0.6
 40
0.65
 40
0.65
 40
0.65
 40
0.65
 40
0.7
 40
0.7
 40
0.7
 40
0.7
 40
0.75
 40
0.75
 40
0.75
 40
0.75
 40
0.8
 40
0.8
 40
0.8
 40
0.8
 40
0.85
 40
0.85
 40
0.85
 40
0.85
 40
0.9
 40
0.9
 40
0.9
 40
0.9
 40
1.0
 40
1.0
 40
1.0
 40
1.0
 10
-74.7137
 20
7.4503
 30
0.0
 10
-74.7137
 20
7.4503
 30
0.0
 10
-74.6848
 20
7.0812
 30
0.0
 10
-74.6848
 20
7.0812
 30
0.0
 10
-74.6848
 20
7.0812
 30
0.0
 10
-74.8306
 20
7.0481
 30
0.0
 10
-74.937
 20
7.0016
 30
0.0
 10
-75.0025
 20
6.9411
 30
0.0
 10
-75.0025
 20
6.9411
 30
0.0
 10
-75.1088
 20
6.8403
 30
0.0
 10
-75.1617
 20
6.7163
 30
0.0
 10
-75.1617
 20
6.5691
 30
0.0
 10
-75.1617
 20
6.5691
 30
0.0
 10
-75.1617
 20
6.4508
 30
0.0
 10
-75.1286
 20
6.3472
 30
0.0
 10
-75.0623
 20
6.2578
 30
0.0
 10
-75.0623
 20
6.2578
 30
0.0
 10
-74.9771
 20
6.1409
 30
0.0
 10
-74.8524
 20
6.0486
 30
0.0
 10
-74.689
 20
5.981
 30
0.0
 10
-74.689
 20
5.981
 30
0.0
 10
-74.5256
 20
5.914
 30
0.0
 10
-74.2924
 20
5.8788
 30
0.0
 10
-73.9895
 20
5.876
 30
0.0
 10
-73.9895
 20
5.876
 30
0.0
 10
-74.1255
 20
5.9655
 30
0.0
 10
-74.2269
 20
6.0746
 30
0.0
 10
-74.2931
 20
6.2043
 30
0.0
 10
-74.2931
 20
6.2043
 30
0.0
 10
-74.3587
 20
6.3332
 30
0.0
 10
-74.3918
 20
6.4691
 30
0.0
 10
-74.3918
 20
6.6107
 30
0.0
 10
-74.3918
 20
6.6107
 30
0.0
 10
-74.3918
 20
6.8586
 30
0.0
 10
-74.3009
 20
7.0693
 30
0.0
 10
-74.1185
 20
7.2432
 30
0.0
 10
-74.1185
 20
7.2432
 30
0.0
 10
-73.936
 20
7.4172
 30
0.0
 10
-73.7007
 20
7.5046
 30
0.0
 10
-73.4119
 20
7.5046
 30
0.0
 10
-73.4119
 20
7.5046
 30
0.0
 10
-73.2217
 20
7.5046
 30
0.0
 10
-73.0456
 20
7.463
 30
0.0
 10
-72.8822
 20
7.3813
 30
0.0
 10
-72.8822
 20
7.3813
 30
0.0
 10
-72.7195
 20
7.2996
 30
0.0
 10
-72.5941
 20
7.1869
 30
0.0
 10
-72.5075
 20
7.0439
 30
0.0
 10
-72.5075
 20
7.0439
 30
0.0
 10
-72.4208
 20
6.9009
 30
0.0
 10
-72.3779
 20
6.7389
 30
0.0
 10
-72.3779
 20
6.5572
 30
0.0
 10
-72.3779
 20
6.5572
 30
0.0
 10
-72.3779
 20
6.2472
 30
0.0
 10
-72.4913
 20
5.995
 30
0.0
 10
-72.7195
 20
5.7999
 30
0.0
 10
-72.7195
 20
5.7999
 30
0.0
 10
-72.947
 20
5.6041
 30
0.0
 10
-73.3225
 20
5.5069
 30
0.0
 10
-73.8451
 20
5.5069
 30
0.0
 10
-73.8451
 20
5.5069
 30
0.0
 10
-74.4298
 20
5.5069
 30
0.0
 10
-74.8545
 20
5.6147
 30
0.0
 10
-75.1201
 20
5.8309
 30
0.0
 10
-75.1201
 20
5.8309
 30
0.0
 10
-75.3512
 20
6.019
 30
0.0
 10
-75.4674
 20
6.2726
 30
0.0
 10
-75.4674
 20
6.5924
 30
0.0
 10
-75.4674
 20
6.5924
 30
0.0
 10
-75.4674
 20
6.8298
 30
0.0
 10
-75.4005
 20
7.0249
 30
0.0
 10
-75.2666
 20
7.177
 30
0.0
 10
-75.2666
 20
7.177
 30
0.0
 10
-75.1335
 20
7.3292
 30
0.0
 10
-74.9489
 20
7.42
 30
0.0
 10
-74.7137
 20
7.4503
 30
0.0
  0
SPLINE
  5
65
330
1F
100
AcDbEntity
  8
DEFAULT_1
 62
   250
100
AcDbSpline
210
0.0
220
0.0
230
1.0
 70
    11
 71
     3
 72
    40
 73
    36
 74
     0
 42
0.0000000001
 43
0.0000000001
 40
0.0
 40
0.0
 40
0.0
 40
0.0
 40
0.1
 40
0.1
 40
0.1
 40
0.1
 40
0.2
 40
0.2
 40
0.2
 40
0.2
 40
0.3
 40
0.3
 40
0.3
 40
0.3
 40
0.4
 40
0.4
 40
0.4
 40
0.4
 40
0.5
 40
0.5
 40
0.5
 40
0.5
 40
0.6
 40
0.6
 40
0.6
 40
0.6
 40
0.7
 40
0.7
 40
0.7
 40
0.7
 40
0.8
 40
0.8
 40
0.8
 40
0.8
 40
1.0
 40
1.0
 40
1.0
 40
1.0
 10
-73.4098
 20
5.9338
 30
0.0
 10
-73.2816
 20
5.9338
 30
0.0
 10
-73.1591
 20
5.9612
 30
0.0
 10
-73.0421
 20
6.0155
 30
0.0
 10
-73.0421
 20
6.0155
 30
0.0
 10
-72.9252
 20
6.0697
 30
0.0
 10
-72.8364
 20
6.1458
 30
0.0
 10
-72.7752
 20
6.243
 30
0.0
 10
-72.7752
 20
6.243
 30
0.0
 10
-72.7139
 20
6.3409
 30
0.0
 10
-72.6829
 20
6.4437
 30
0.0
 10
-72.6829
 20
6.5508
 30
0.0
 10
-72.6829
 20
6.5508
 30
0.0
 10
-72.6829
 20
6.7079
 30
0.0
 10
-72.7463
 20
6.8424
 30
0.0
 10
-72.8731
 20
6.9551
 30
0.0
 10
-72.8731
 20
6.9551
 30
0.0
 10
-72.9999
 20
7.0678
 30
0.0
 10
-73.1717
 20
7.1242
 30
0.0
 10
-73.3887
 20
7.1242
 30
0.0
 10
-73.3887
 20
7.1242
 30
0.0
 10
-73.5979
 20
7.1242
 30
0.0
 10
-73.7627
 20
7.0685
 30
0.0
 10
-73.8832
 20
6.9573
 30
0.0
 10
-73.8832
 20
6.9573
 30
0.0
 10
-74.0036
 20
6.846
 30
0.0
 10
-74.0635
 20
6.7058
 30
0.0
 10
-74.0635
 20
6.5367
 30
0.0
 10
-74.0635
 20
6.5367
 30
0.0
 10
-74.0635
 20
6.3684
 30
0.0
 10
-74.0036
 20
6.2261
 30
0.0
 10
-73.8832
 20
6.1092
 30
0.0
 10
-73.8832
 20
6.1092
 30
0.0
 10
-73.7627
 20
5.9922
 30
0.0
 10
-73.6049
 20
5.9338
 30
0.0
 10
-73.4098
 20
5.9338
 30
0.0
  0
SPLINE
  5
66
330
1F
100
AcDbEntity
  8
DEFAULT_1
 62
   250
100
AcDbSpline
210
0.0
220
0.0
230
1.0
 70
    11
 71
     3
 72
    20
 73
    16
 74
     0
 42
0.0000000001
 43
0.0000000001
 40
0.0
 40
0.0
 40
0.0
 40
0.0
 40
0.2
 40
0.2
 40
0.2
 40
0.2
 40
0.4
 40
0.4
 40
0.4
 40
0.4
 40
0.6
 40
0.6
 40
0.6
 40
0.6
 40
1.0
 40
1.0
 40
1.0
 40
1.0
 10
-72.3779
 20
7.6983
 30
0.0
 10
-72.3779
 20
7.6983
 30
0.0
 10
-75.5061
 20
8.5753
 30
0.0
 10
-75.5061
 20
8.5753
 30
0.0
 10
-75.5061
 20
8.5753
 30
0.0
 10
-75.5061
 20
8.5753
 30
0.0
 10
-75.5061
 20
8.8724
 30
0.0
 10
-75.5061
 20
8.8724
 30
0.0
 10
-75.5061
 20
8.8724
 30
0.0
 10
-75.5061
 20
8.8724
 30
0.0
 10
-72.3779
 20
7.9977
 30
0.0
 10
-72.3779
 20
7.9977
 30
0.0
 10
-72.3779
 20
7.9977
 30
0.0
 10
-72.3779
 20
7.9977
 30
0.0
 10
-72.3779
 20
7.6983
 30
0.0
 10
-72.3779
 20
7.6983
 30
0.0
  0
SPLINE
  5
67
330
1F
100
AcDbEntity
  8
DEFAULT_1
 62
   250
100
AcDbSpline
210
0.0
220
0.0
230
1.0
 70
    11
 71
     3
 72
    48
 73
    44
 74
     0
 42
0.0000000001
 43
0.0000000001
 40
0.0
 40
0.0
 40
0.0
 40
0.0
 40
0.0833333333333333
 40
0.0833333333333333
 40
0.0833333333333333
 40
0.0833333333333333
 40
0.1666666666666667
 40
0.1666666666666667
 40
0.1666666666666667
 40
0.1666666666666667
 40
0.25
 40
0.25
 40
0.25
 40
0.25
 40
0.3333333333333333
 40
0.3333333333333333
 40
0.3333333333333333
 40
0.3333333333333333
 40
0.4166666666666667
 40
0.4166666666666667
 40
0.4166666666666667
 40
0.4166666666666667
 40
0.5
 40
0.5
 40
0.5
 40
0.5
 40
0.5833333333333334
 40
0.5833333333333334
 40
0.5833333333333334
 40
0.5833333333333334
 40
0.6666666666666666
 40
0.6666666666666666
 40
0.6666666666666666
 40
0.6666666666666666
 40
0.75
 40
0.75
 40
0.75
 40
0.75
 40
0.8333333333333334
 40
0.8333333333333334
 40
0.8333333333333334
 40
0.8333333333333334
 40
1.0
 40
1.0
 40
1.0
 40
1.0
 10
-72.4293
 20
10.2382
 30
0.0
 10
-72.4293
 20
10.2382
 30
0.0
 10
-73.1534
 20
10.2382
 30
0.0
 10
-73.1534
 20
10.2382
 30
0.0
 10
-73.1534
 20
10.2382
 30
0.0
 10
-73.1534
 20
10.2382
 30
0.0
 10
-73.1534
 20
8.9259
 30
0.0
 10
-73.1534
 20
8.9259
 30
0.0
 10
-73.1534
 20
8.9259
 30
0.0
 10
-73.1534
 20
8.9259
 30
0.0
 10
-73.4944
 20
8.9259
 30
0.0
 10
-73.4944
 20
8.9259
 30
0.0
 10
-73.4944
 20
8.9259
 30
0.0
 10
-73.4944
 20
8.9259
 30
0.0
 10
-75.4547
 20
10.3066
 30
0.0
 10
-75.4547
 20
10.3066
 30
0.0
 10
-75.4547
 20
10.3066
 30
0.0
 10
-75.4547
 20
10.3066
 30
0.0
 10
-75.4547
 20
10.6102
 30
0.0
 10
-75.4547
 20
10.6102
 30
0.0
 10
-75.4547
 20
10.6102
 30
0.0
 10
-75.4547
 20
10.6102
 30
0.0
 10
-73.4944
 20
10.6102
 30
0.0
 10
-73.4944
 20
10.6102
 30
0.0
 10
-73.4944
 20
10.6102
 30
0.0
 10
-73.4944
 20
10.6102
 30
0.0
 10
-73.4944
 20
11.0187
 30
0.0
 10
-73.4944
 20
11.0187
 30
0.0
 10
-73.4944
 20
11.0187
 30
0.0
 10
-73.4944
 20
11.0187
 30
0.0
 10
-73.1534
 20
11.0187
 30
0.0
 10
-73.1534
 20
11.0187
 30
0.0
 10
-73.1534
 20
11.0187
 30
0.0
 10
-73.1534
 20
11.0187
 30
0.0
 10
-73.1534
 20
10.6102
 30
0.0
 10
-73.1534
 20
10.6102
 30
0.0
 10
-73.1534
 20
10.6102
 30
0.0
 10
-73.1534
 20
10.6102
 30
0.0
 10
-72.4293
 20
10.6102
 30
0.0
 10
-72.4293
 20
10.6102
 30
0.0
 10
-72.4293
 20
10.6102
 30
0.0
 10
-72.4293
 20
10.6102
 30
0.0
 10
-72.4293
 20
10.2382
 30
0.0
 10
-72.4293
 20
10.2382
 30
0.0
  0
SPLINE
  5
68
330
1F
100
AcDbEntity
  8
DEFAULT_1
 62
   250
100
AcDbSpline
210
0.0
220
0.0
230
1.0
 70
    11
 71
     3
 72
    16
 73
    12
 74
     0
 42
0.0000000001
 43
0.0000000001
 40
0.0
 40
0.0
 40
0.0
 40
0.0
 40
0.25
 40
0.25
 40
0.25
 40
0.25
 40
0.5
 40
0.5
 40
0.5
 40
0.5
 40
1.0
 40
1.0
 40
1.0
 40
1.0
 10
-73.4944
 20
10.2382
 30
0.0
 10
-73.4944
 20
10.2382
 30
0.0
 10
-74.8581
 20
10.2382
 30
0.0
 10
-74.8581
 20
10.2382
 30
0.0
 10
-74.8581
 20
10.2382
 30
0.0
 10
-74.8581
 20
10.2382
 30
0.0
 10
-73.4944
 20
9.2915
 30
0.0
 10
-73.4944
 20
9.2915
 30
0.0
 10
-73.4944
 20
9.2915
 30
0.0
 10
-73.4944
 20
9.2915
 30
0.0
 10
-73.4944
 20
10.2382
 30
0.0
 10
-73.4944
 20
10.2382
 30
0.0
  0
SPLINE
  5
69
330
1F
100
AcDbEntity
  8
DEFAULT_1
 62
   250
100
AcDbSpline
210
0.0
220
0.0
230
1.0
 70
    11
 71
     3
 72
    28
 73
    24
 74
     0
 42
0.0000000001
 43
0.0000000001
 40
0.0
 40
0.0
 40
0.0
 40
0.0
 40
0.1428571428571428
 40
0.1428571428571428
 40
0.1428571428571428
 40
0.1428571428571428
 40
0.2857142857142857
 40
0.2857142857142857
 40
0.2857142857142857
 40
0.2857142857142857
 40
0.4285714285714285
 40
0.4285714285714285
 40
0.4285714285714285
 40
0.4285714285714285
 40
0.5714285714285714
 40
0.5714285714285714
 40
0.5714285714285714
 40
0.5714285714285714
 40
0.7142857142857143
 40
0.7142857142857143
 40
0.7142857142857143
 40
0.7142857142857143
 40
1.0
 40
1.0
 40
1.0
 40
1.0
 10
-74.3833
 20
11.5203
 30
0.0
 10
-74.3833
 20
11.5203
 30
0.0
 10
-74.9595
 20
11.4167
 30
0.0
 10
-74.9595
 20
11.4167
 30
0.0
 10
-74.9595
 20
11.4167
 30
0.0
 10
-74.9595
 20
11.4167
 30
0.0
 10
-75.4547
 20
11.4167
 30
0.0
 10
-75.4547
 20
11.4167
 30
0.0
 10
-75.4547
 20
11.4167
 30
0.0
 10
-75.4547
 20
11.4167
 30
0.0
 10
-75.4547
 20
11.8401
 30
0.0
 10
-75.4547
 20
11.8401
 30
0.0
 10
-75.4547
 20
11.8401
 30
0.0
 10
-75.4547
 20
11.8401
 30
0.0
 10
-74.9595
 20
11.8401
 30
0.0
 10
-74.9595
 20
11.8401
 30
0.0
 10
-74.9595
 20
11.8401
 30
0.0
 10
-74.9595
 20
11.8401
 30
0.0
 10
-74.3833
 20
11.7471
 30
0.0
 10
-74.3833
 20
11.7471
 30
0.0
 10
-74.3833
 20
11.7471
 30
0.0
 10
-74.3833
 20
11.7471
 30
0.0
 10
-74.3833
 20
11.5203
 30
0.0
 10
-74.3833
 20
11.5203
 30
0.0
  0
SPLINE
  5
6A
330
1F
100
AcDbEntity
  8
DEFAULT_1
 62
   250
100
AcDbSpline
210
0.0
220
0.0
230
1.0
 70
    11
 71
     3
 72
    28
 73
    24
 74
     0
 42
0.0000000001
 43
0.0000000001
 40
0.0
 40
0.0
 40
0.0
 40
0.0
 40
0.1428571428571428
 40
0.1428571428571428
 40
0.1428571428571428
 40
0.1428571428571428
 40
0.2857142857142857
 40
0.2857142857142857
 40
0.2857142857142857
 40
0.2857142857142857
 40
0.4285714285714285
 40
0.4285714285714285
 40
0.4285714285714285
 40
0.4285714285714285
 40
0.5714285714285714
 40
0.5714285714285714
 40
0.5714285714285714
 40
0.5714285714285714
 40
0.7142857142857143
 40
0.7142857142857143
 40
0.7142857142857143
 40
0.7142857142857143
 40
1.0
 40
1.0
 40
1.0
 40
1.0
 10
-74.3833
 20
12.2035
 30
0.0
 10
-74.3833
 20
12.2035
 30
0.0
 10
-74.9595
 20
12.1021
 30
0.0
 10
-74.9595
 20
12.1021
 30
0.0
 10
-74.9595
 20
12.1021
 30
0.0
 10
-74.9595
 20
12.1021
 30
0.0
 10
-75.4547
 20
12.1021
 30
0.0
 10
-75.4547
 20
12.1021
 30
0.0
 10
-75.4547
 20
12.1021
 30
0.0
 10
-75.4547
 20
12.1021
 30
0.0
 10
-75.4547
 20
12.5254
 30
0.0
 10
-75.4547
 20
12.5254
 30
0.0
 10
-75.4547
 20
12.5254
 30
0.0
 10
-75.4547
 20
12.5254
 30
0.0
 10
-74.9595
 20
12.5254
 30
0.0
 10
-74.9595
 20
12.5254
 30
0.0
 10
-74.9595
 20
12.5254
 30
0.0
 10
-74.9595
 20
12.5254
 30
0.0
 10
-74.3833
 20
12.4261
 30
0.0
 10
-74.3833
 20
12.4261
 30
0.0
 10
-74.3833
 20
12.4261
 30
0.0
 10
-74.3833
 20
12.4261
 30
0.0
 10
-74.3833
 20
12.2035
 30
0.0
 10
-74.3833
 20
12.2035
 30
0.0
  0
SPLINE
  5
6B
330
1F
100
AcDbEntity
  8
DEFAULT_1
 62
   250
100
AcDbSpline
210
0.0
220
0.0
230
1.0
 70
    11
 71
     3
 72
    20
 73
    16
 74
     0
 42
0.0000000001
 43
0.0000000001
 40
0.0
 40
0.0
 40
0.0
 40
0.0
 40
0.2
 40
0.2
 40
0.2
 40
0.2
 40
0.4
 40
0.4
 40
0.4
 40
0.4
 40
0.6
 40
0.6
 40
0.6
 40
0.6
 40
1.0
 40
1.0
 40
1.0
 40
1.0
 10
-71.5754
 20
15.699
 30
0.0
 10
-71.5754
 20
15.699
 30
0.0
 10
-70.8992
 20
20.3303
 30
0.0
 10
-70.8992
 20
20.3303
 30
0.0
 10
-70.8992
 20
20.3303
 30
0.0
 10
-70.8992
 20
20.3303
 30
0.0
 10
-72.3919
 20
20.3303
 30
0.0
 10
-72.3919
 20
20.3303
 30
0.0
 10
-72.3919
 20
20.3303
 30
0.0
 10
-72.3919
 20
20.3303
 30
0.0
 10
-71.5774
 20
15.699
 30
0.0
 10
-71.5774
 20
15.699
 30
0.0
 10
-71.5774
 20
15.699
 30
0.0
 10
-71.5774
 20
15.699
 30
0.0
 10
-71.5754
 20
15.699
 30
0.0
 10
-71.5754
 20
15.699
 30
0.0
  0
SPLINE
  5
6C
330
1F
100
AcDbEntity
  8
DEFAULT_1
 62
   250
100
AcDbSpline
210
0.0
220
0.0
230
1.0
 70
    11
 71
     3
 72
    20
 73
    16
 74
     0
 42
0.0000000001
 43
0.0000000001
 40
0.0
 40
0.0
 40
0.0
 40
0.0
 40
0.2
 40
0.2
 40
0.2
 40
0.2
 40
0.4
 40
0.4
 40
0.4
 40
0.4
 40
0.6
 40
0.6
 40
0.6
 40
0.6
 40
1.0
 40
1.0
 40
1.0
 40
1.0
 10
-71.6448
 20
-2.4171
 30
0.0
 10
-71.6448
 20
-2.4171
 30
0.0
 10
-72.321
 20
-7.0484
 30
0.0
 10
-72.321
 20
-7.0484
 30
0.0
 10
-72.321
 20
-7.0484
 30
0.0
 10
-72.321
 20
-7.0484
 30
0.0
 10
-70.8283
 20
-7.0484
 30
0.0
 10
-70.8283
 20
-7.0484
 30
0.0
 10
-70.8283
 20
-7.0484
 30
0.0
 10
-70.8283
 20
-7.0484
 30
0.0
 10
-71.6427
 20
-2.4171
 30
0.0
 10
-71.6427
 20
-2.4171
 30
0.0
 10
-71.6427
 20
-2.4171
 30
0.0
 10
-71.6427
 20
-2.4171
 30
0.0
 10
-71.6448
 20
-2.4171
 30
0.0
 10
-71.6448
 20
-2.4171
 30
0.0
  0
SPLINE
  5
6D
330
1F
100
AcDbEntity
  8
DEFAULT_1
 62
   250
100
AcDbSpline
210
0.0
220
0.0
230
1.0
 70
    24
 71
     3
 72
     8
 73
     4
 74
     0
 42
0.0000000001
 43
0.0000000001
 40
0.0
 40
0.0
 40
0.0
 40
0.0
 40
1.0
 40
1.0
 40
1.0
 40
1.0
 10
-71.571
 20
21.4181
 30
0.0
 10
-71.571
 20
21.4181
 30
0.0
 10
-71.571
 20
-8.858
 30
0.0
 10
-71.571
 20
-8.858
 30
0.0
  0
SPLINE
  5
6E
330
1F
100
AcDbEntity
  8
DEFAULT_1
 62
   250
100
AcDbSpline
210
0.0
220
0.0
230
1.0
 70
    11
 71
     3
 72
    84
 73
    80
 74
     0
 42
0.0000000001
 43
0.0000000001
 40
0.0
 40
0.0
 40
0.0
 40
0.0
 40
0.0476190476190476
 40
0.0476190476190476
 40
0.0476190476190476
 40
0.0476190476190476
 40
0.0952380952380952
 40
0.0952380952380952
 40
0.0952380952380952
 40
0.0952380952380952
 40
0.1428571428571428
 40
0.1428571428571428
 40
0.1428571428571428
 40
0.1428571428571428
 40
0.1904761904761905
 40
0.1904761904761905
 40
0.1904761904761905
 40
0.1904761904761905
 40
0.2380952380952381
 40
0.2380952380952381
 40
0.2380952380952381
 40
0.2380952380952381
 40
0.2857142857142857
 40
0.2857142857142857
 40
0.2857142857142857
 40
0.2857142857142857
 40
0.3333333333333333
 40
0.3333333333333333
 40
0.3333333333333333
 40
0.3333333333333333
 40
0.3809523809523809
 40
0.3809523809523809
 40
0.3809523809523809
 40
0.3809523809523809
 40
0.4285714285714285
 40
0.4285714285714285
 40
0.4285714285714285
 40
0.4285714285714285
 40
0.4761904761904762
 40
0.4761904761904762
 40
0.4761904761904762
 40
0.4761904761904762
 40
0.5238095238095238
 40
0.5238095238095238
 40
0.5238095238095238
 40
0.5238095238095238
 40
0.5714285714285714
 40
0.5714285714285714
 40
0.5714285714285714
 40
0.5714285714285714
 40
0.6190476190476191
 40
0.6190476190476191
 40
0.6190476190476191
 40
0.6190476190476191
 40
0.6666666666666666
 40
0.6666666666666666
 40
0.6666666666666666
 40
0.6666666666666666
 40
0.7142857142857143
 40
0.7142857142857143
 40
0.7142857142857143
 40
0.7142857142857143
 40
0.7619047619047619
 40
0.7619047619047619
 40
0.7619047619047619
 40
0.7619047619047619
 40
0.8095238095238095
 40
0.8095238095238095
 40
0.8095238095238095
 40
0.8095238095238095
 40
0.8571428571428571
 40
0.8571428571428571
 40
0.8571428571428571
 40
0.8571428571428571
 40
0.9047619047619048
 40
0.9047619047619048
 40
0.9047619047619048
 40
0.9047619047619048
 40
1.0
 40
1.0
 40
1.0
 40
1.0
 10
70.8669
 20
4.815
 30
0.0
 10
70.8669
 20
4.815
 30
0.0
 10
70.4788
 20
5.1616
 30
0.0
 10
70.4788
 20
5.1616
 30
0.0
 10
70.4788
 20
5.1616
 30
0.0
 10
70.4788
 20
5.1616
 30
0.0
 10
70.6521
 20
5.3659
 30
0.0
 10
70.6521
 20
5.3659
 30
0.0
 10
70.6521
 20
5.3659
 30
0.0
 10
70.6521
 20
5.3659
 30
0.0
 10
71.0606
 20
5.0031
 30
0.0
 10
71.0606
 20
5.0031
 30
0.0
 10
71.0606
 20
5.0031
 30
0.0
 10
71.2367
 20
5.1214
 30
0.0
 10
71.391
 20
5.201
 30
0.0
 10
71.5227
 20
5.2426
 30
0.0
 10
71.5227
 20
5.2426
 30
0.0
 10
71.696
 20
5.2975
 30
0.0
 10
71.8904
 20
5.325
 30
0.0
 10
72.1046
 20
5.325
 30
0.0
 10
72.1046
 20
5.325
 30
0.0
 10
72.4145
 20
5.325
 30
0.0
 10
72.6906
 20
5.2623
 30
0.0
 10
72.9322
 20
5.1369
 30
0.0
 10
72.9322
 20
5.1369
 30
0.0
 10
73.1745
 20
5.0115
 30
0.0
 10
73.3577
 20
4.8361
 30
0.0
 10
73.4817
 20
4.61
 30
0.0
 10
73.4817
 20
4.61
 30
0.0
 10
73.6049
 20
4.3832
 30
0.0
 10
73.6669
 20
4.143
 30
0.0
 10
73.6669
 20
3.8887
 30
0.0
 10
73.6669
 20
3.8887
 30
0.0
 10
73.6669
 20
3.6985
 30
0.0
 10
73.6402
 20
3.5267
 30
0.0
 10
73.5866
 20
3.3724
 30
0.0
 10
73.5866
 20
3.3724
 30
0.0
 10
73.5451
 20
3.2541
 30
0.0
 10
73.4662
 20
3.116
 30
0.0
 10
73.3492
 20
2.9575
 30
0.0
 10
73.3492
 20
2.9575
 30
0.0
 10
73.3492
 20
2.9575
 30
0.0
 10
73.7374
 20
2.6109
 30
0.0
 10
73.7374
 20
2.6109
 30
0.0
 10
73.7374
 20
2.6109
 30
0.0
 10
73.7374
 20
2.6109
 30
0.0
 10
73.5641
 20
2.4067
 30
0.0
 10
73.5641
 20
2.4067
 30
0.0
 10
73.5641
 20
2.4067
 30
0.0
 10
73.5641
 20
2.4067
 30
0.0
 10
73.1576
 20
2.7701
 30
0.0
 10
73.1576
 20
2.7701
 30
0.0
 10
73.1576
 20
2.7701
 30
0.0
 10
72.9527
 20
2.6349
 30
0.0
 10
72.7773
 20
2.5447
 30
0.0
 10
72.6322
 20
2.4996
 30
0.0
 10
72.6322
 20
2.4996
 30
0.0
 10
72.4871
 20
2.4546
 30
0.0
 10
72.3124
 20
2.4313
 30
0.0
 10
72.1088
 20
2.4313
 30
0.0
 10
72.1088
 20
2.4313
 30
0.0
 10
71.7981
 20
2.4313
 30
0.0
 10
71.5213
 20
2.4933
 30
0.0
 10
71.2783
 20
2.6173
 30
0.0
 10
71.2783
 20
2.6173
 30
0.0
 10
71.0353
 20
2.7413
 30
0.0
 10
70.8514
 20
2.9145
 30
0.0
 10
70.7261
 20
3.1385
 30
0.0
 10
70.7261
 20
3.1385
 30
0.0
 10
70.6014
 20
3.3618
 30
0.0
 10
70.5387
 20
3.6105
 30
0.0
 10
70.5387
 20
3.8845
 30
0.0
 10
70.5387
 20
3.8845
 30
0.0
 10
70.5387
 20
4.0691
 30
0.0
 10
70.5626
 20
4.2304
 30
0.0
 10
70.6119
 20
4.3684
 30
0.0
 10
70.6119
 20
4.3684
 30
0.0
 10
70.6605
 20
4.5065
 30
0.0
 10
70.7458
 20
4.6558
 30
0.0
 10
70.8669
 20
4.815
 30
0.0
  0
SPLINE
  5
6F
330
1F
100
AcDbEntity
  8
DEFAULT_1
 62
   250
100
AcDbSpline
210
0.0
220
0.0
230
1.0
 70
    11
 71
     3
 72
    32
 73
    28
 74
     0
 42
0.0000000001
 43
0.0000000001
 40
0.0
 40
0.0
 40
0.0
 40
0.0
 40
0.125
 40
0.125
 40
0.125
 40
0.125
 40
0.25
 40
0.25
 40
0.25
 40
0.25
 40
0.375
 40
0.375
 40
0.375
 40
0.375
 40
0.5
 40
0.5
 40
0.5
 40
0.5
 40
0.625
 40
0.625
 40
0.625
 40
0.625
 40
0.75
 40
0.75
 40
0.75
 40
0.75
 40
1.0
 40
1.0
 40
1.0
 40
1.0
 10
71.1452
 20
4.5678
 30
0.0
 10
71.0437
 20
4.4382
 30
0.0
 10
70.974
 20
4.3248
 30
0.0
 10
70.9367
 20
4.2282
 30
0.0
 10
70.9367
 20
4.2282
 30
0.0
 10
70.9
 20
4.131
 30
0.0
 10
70.881
 20
4.0169
 30
0.0
 10
70.881
 20
3.8866
 30
0.0
 10
70.881
 20
3.8866
 30
0.0
 10
70.881
 20
3.5851
 30
0.0
 10
70.9832
 20
3.3365
 30
0.0
 10
71.1874
 20
3.1392
 30
0.0
 10
71.1874
 20
3.1392
 30
0.0
 10
71.3917
 20
2.9427
 30
0.0
 10
71.6967
 20
2.8441
 30
0.0
 10
72.1032
 20
2.8441
 30
0.0
 10
72.1032
 20
2.8441
 30
0.0
 10
72.2623
 20
2.8441
 30
0.0
 10
72.4039
 20
2.8596
 30
0.0
 10
72.5279
 20
2.8899
 30
0.0
 10
72.5279
 20
2.8899
 30
0.0
 10
72.6202
 20
2.9117
 30
0.0
 10
72.7336
 20
2.9575
 30
0.0
 10
72.8681
 20
3.0279
 30
0.0
 10
72.8681
 20
3.0279
 30
0.0
 10
72.8681
 20
3.0279
 30
0.0
 10
71.1452
 20
4.5678
 30
0.0
 10
71.1452
 20
4.5678
 30
0.0
  0
SPLINE
  5
70
330
1F
100
AcDbEntity
  8
DEFAULT_1
 62
   250
100
AcDbSpline
210
0.0
220
0.0
230
1.0
 70
    11
 71
     3
 72
    28
 73
    24
 74
     0
 42
0.0000000001
 43
0.0000000001
 40
0.0
 40
0.0
 40
0.0
 40
0.0
 40
0.1428571428571428
 40
0.1428571428571428
 40
0.1428571428571428
 40
0.1428571428571428
 40
0.2857142857142857
 40
0.2857142857142857
 40
0.2857142857142857
 40
0.2857142857142857
 40
0.4285714285714285
 40
0.4285714285714285
 40
0.4285714285714285
 40
0.4285714285714285
 40
0.5714285714285714
 40
0.5714285714285714
 40
0.5714285714285714
 40
0.5714285714285714
 40
0.7142857142857143
 40
0.7142857142857143
 40
0.7142857142857143
 40
0.7142857142857143
 40
1.0
 40
1.0
 40
1.0
 40
1.0
 10
71.3579
 20
4.7368
 30
0.0
 10
71.3579
 20
4.7368
 30
0.0
 10
73.0745
 20
3.2033
 30
0.0
 10
73.0745
 20
3.2033
 30
0.0
 10
73.0745
 20
3.2033
 30
0.0
 10
73.1612
 20
3.309
 30
0.0
 10
73.2217
 20
3.4069
 30
0.0
 10
73.2563
 20
3.4964
 30
0.0
 10
73.2563
 20
3.4964
 30
0.0
 10
73.302
 20
3.6133
 30
0.0
 10
73.3246
 20
3.7401
 30
0.0
 10
73.3246
 20
3.876
 30
0.0
 10
73.3246
 20
3.876
 30
0.0
 10
73.3246
 20
4.1761
 30
0.0
 10
73.2189
 20
4.4234
 30
0.0
 10
73.0069
 20
4.6192
 30
0.0
 10
73.0069
 20
4.6192
 30
0.0
 10
72.7949
 20
4.8143
 30
0.0
 10
72.4976
 20
4.9122
 30
0.0
 10
72.1151
 20
4.9122
 30
0.0
 10
72.1151
 20
4.9122
 30
0.0
 10
71.8291
 20
4.9122
 30
0.0
 10
71.5763
 20
4.8538
 30
0.0
 10
71.3579
 20
4.7368
 30
0.0
  0
SPLINE
  5
71
330
1F
100
AcDbEntity
  8
DEFAULT_1
 62
   250
100
AcDbSpline
210
0.0
220
0.0
230
1.0
 70
    11
 71
     3
 72
    92
 73
    88
 74
     0
 42
0.0000000001
 43
0.0000000001
 40
0.0
 40
0.0
 40
0.0
 40
0.0
 40
0.0434782608695652
 40
0.0434782608695652
 40
0.0434782608695652
 40
0.0434782608695652
 40
0.0869565217391304
 40
0.0869565217391304
 40
0.0869565217391304
 40
0.0869565217391304
 40
0.1304347826086956
 40
0.1304347826086956
 40
0.1304347826086956
 40
0.1304347826086956
 40
0.1739130434782609
 40
0.1739130434782609
 40
0.1739130434782609
 40
0.1739130434782609
 40
0.2173913043478261
 40
0.2173913043478261
 40
0.2173913043478261
 40
0.2173913043478261
 40
0.2608695652173913
 40
0.2608695652173913
 40
0.2608695652173913
 40
0.2608695652173913
 40
0.3043478260869565
 40
0.3043478260869565
 40
0.3043478260869565
 40
0.3043478260869565
 40
0.3478260869565217
 40
0.3478260869565217
 40
0.3478260869565217
 40
0.3478260869565217
 40
0.391304347826087
 40
0.391304347826087
 40
0.391304347826087
 40
0.391304347826087
 40
0.4347826086956522
 40
0.4347826086956522
 40
0.4347826086956522
 40
0.4347826086956522
 40
0.4782608695652174
 40
0.4782608695652174
 40
0.4782608695652174
 40
0.4782608695652174
 40
0.5217391304347826
 40
0.5217391304347826
 40
0.5217391304347826
 40
0.5217391304347826
 40
0.5652173913043478
 40
0.5652173913043478
 40
0.5652173913043478
 40
0.5652173913043478
 40
0.6086956521739131
 40
0.6086956521739131
 40
0.6086956521739131
 40
0.6086956521739131
 40
0.6521739130434783
 40
0.6521739130434783
 40
0.6521739130434783
 40
0.6521739130434783
 40
0.6956521739130435
 40
0.6956521739130435
 40
0.6956521739130435
 40
0.6956521739130435
 40
0.7391304347826086
 40
0.7391304347826086
 40
0.7391304347826086
 40
0.7391304347826086
 40
0.782608695652174
 40
0.782608695652174
 40
0.782608695652174
 40
0.782608695652174
 40
0.8260869565217391
 40
0.8260869565217391
 40
0.8260869565217391
 40
0.8260869565217391
 40
0.8695652173913043
 40
0.8695652173913043
 40
0.8695652173913043
 40
0.8695652173913043
 40
0.9130434782608695
 40
0.9130434782608695
 40
0.9130434782608695
 40
0.9130434782608695
 40
1.0
 40
1.0
 40
1.0
 40
1.0
 10
72.8231
 20
5.6983
 30
0.0
 10
72.8231
 20
5.6983
 30
0.0
 10
72.7899
 20
6.0885
 30
0.0
 10
72.7899
 20
6.0885
 30
0.0
 10
72.7899
 20
6.0885
 30
0.0
 10
72.9801
 20
6.1174
 30
0.0
 10
73.1224
 20
6.1843
 30
0.0
 10
73.2182
 20
6.2893
 30
0.0
 10
73.2182
 20
6.2893
 30
0.0
 10
73.314
 20
6.3949
 30
0.0
 10
73.3619
 20
6.5217
 30
0.0
 10
73.3619
 20
6.6704
 30
0.0
 10
73.3619
 20
6.6704
 30
0.0
 10
73.3619
 20
6.8493
 30
0.0
 10
73.2943
 20
7.0007
 30
0.0
 10
73.1598
 20
7.124
 30
0.0
 10
73.1598
 20
7.124
 30
0.0
 10
73.0245
 20
7.248
 30
0.0
 10
72.8456
 20
7.31
 30
0.0
 10
72.623
 20
7.31
 30
0.0
 10
72.623
 20
7.31
 30
0.0
 10
72.411
 20
7.31
 30
0.0
 10
72.244
 20
7.2508
 30
0.0
 10
72.1215
 20
7.1317
 30
0.0
 10
72.1215
 20
7.1317
 30
0.0
 10
71.9989
 20
7.0127
 30
0.0
 10
71.9376
 20
6.857
 30
0.0
 10
71.9376
 20
6.664
 30
0.0
 10
71.9376
 20
6.664
 30
0.0
 10
71.9376
 20
6.5443
 30
0.0
 10
71.9651
 20
6.4365
 30
0.0
 10
72.0193
 20
6.34
 30
0.0
 10
72.0193
 20
6.34
 30
0.0
 10
72.0736
 20
6.2435
 30
0.0
 10
72.144
 20
6.1681
 30
0.0
 10
72.2306
 20
6.1132
 30
0.0
 10
72.2306
 20
6.1132
 30
0.0
 10
72.2306
 20
6.1132
 30
0.0
 10
72.1856
 20
5.7645
 30
0.0
 10
72.1856
 20
5.7645
 30
0.0
 10
72.1856
 20
5.7645
 30
0.0
 10
72.1856
 20
5.7645
 30
0.0
 10
70.6317
 20
6.0575
 30
0.0
 10
70.6317
 20
6.0575
 30
0.0
 10
70.6317
 20
6.0575
 30
0.0
 10
70.6317
 20
6.0575
 30
0.0
 10
70.6317
 20
7.5621
 30
0.0
 10
70.6317
 20
7.5621
 30
0.0
 10
70.6317
 20
7.5621
 30
0.0
 10
70.6317
 20
7.5621
 30
0.0
 10
70.9867
 20
7.5621
 30
0.0
 10
70.9867
 20
7.5621
 30
0.0
 10
70.9867
 20
7.5621
 30
0.0
 10
70.9867
 20
7.5621
 30
0.0
 10
70.9867
 20
6.3548
 30
0.0
 10
70.9867
 20
6.3548
 30
0.0
 10
70.9867
 20
6.3548
 30
0.0
 10
70.9867
 20
6.3548
 30
0.0
 10
71.7996
 20
6.1914
 30
0.0
 10
71.7996
 20
6.1914
 30
0.0
 10
71.7996
 20
6.1914
 30
0.0
 10
71.6728
 20
6.3731
 30
0.0
 10
71.6094
 20
6.564
 30
0.0
 10
71.6094
 20
6.7633
 30
0.0
 10
71.6094
 20
6.7633
 30
0.0
 10
71.6094
 20
7.0275
 30
0.0
 10
71.7009
 20
7.2501
 30
0.0
 10
71.8841
 20
7.4318
 30
0.0
 10
71.8841
 20
7.4318
 30
0.0
 10
72.0672
 20
7.6136
 30
0.0
 10
72.3025
 20
7.7044
 30
0.0
 10
72.5899
 20
7.7044
 30
0.0
 10
72.5899
 20
7.7044
 30
0.0
 10
72.8639
 20
7.7044
 30
0.0
 10
73.1006
 20
7.6241
 30
0.0
 10
73.2999
 20
7.4649
 30
0.0
 10
73.2999
 20
7.4649
 30
0.0
 10
73.5444
 20
7.2705
 30
0.0
 10
73.6669
 20
7.0057
 30
0.0
 10
73.6669
 20
6.6704
 30
0.0
 10
73.6669
 20
6.6704
 30
0.0
 10
73.6669
 20
6.3949
 30
0.0
 10
73.5901
 20
6.1702
 30
0.0
 10
73.4359
 20
5.9963
 30
0.0
 10
73.4359
 20
5.9963
 30
0.0
 10
73.2816
 20
5.8223
 30
0.0
 10
73.0773
 20
5.7229
 30
0.0
 10
72.8231
 20
5.6983
 30
0.0
  0
SPLINE
  5
72
330
1F
100
AcDbEntity
  8
DEFAULT_1
 62
   250
100
AcDbSpline
210
0.0
220
0.0
230
1.0
 70
    11
 71
     3
 72
    52
 73
    48
 74
     0
 42
0.0000000001
 43
0.0000000001
 40
0.0
 40
0.0
 40
0.0
 40
0.0
 40
0.0769230769230769
 40
0.0769230769230769
 40
0.0769230769230769
 40
0.0769230769230769
 40
0.1538461538461539
 40
0.1538461538461539
 40
0.1538461538461539
 40
0.1538461538461539
 40
0.2307692307692308
 40
0.2307692307692308
 40
0.2307692307692308
 40
0.2307692307692308
 40
0.3076923076923077
 40
0.3076923076923077
 40
0.3076923076923077
 40
0.3076923076923077
 40
0.3846153846153846
 40
0.3846153846153846
 40
0.3846153846153846
 40
0.3846153846153846
 40
0.4615384615384616
 40
0.4615384615384616
 40
0.4615384615384616
 40
0.4615384615384616
 40
0.5384615384615384
 40
0.5384615384615384
 40
0.5384615384615384
 40
0.5384615384615384
 40
0.6153846153846154
 40
0.6153846153846154
 40
0.6153846153846154
 40
0.6153846153846154
 40
0.6923076923076923
 40
0.6923076923076923
 40
0.6923076923076923
 40
0.6923076923076923
 40
0.7692307692307693
 40
0.7692307692307693
 40
0.7692307692307693
 40
0.7692307692307693
 40
0.8461538461538461
 40
0.8461538461538461
 40
0.8461538461538461
 40
0.8461538461538461
 40
1.0
 40
1.0
 40
1.0
 40
1.0
 10
72.1236
 20
8.0489
 30
0.0
 10
71.7657
 20
8.0489
 30
0.0
 10
71.4776
 20
8.0855
 30
0.0
 10
71.26
 20
8.1595
 30
0.0
 10
71.26
 20
8.1595
 30
0.0
 10
71.0416
 20
8.2327
 30
0.0
 10
70.8733
 20
8.3426
 30
0.0
 10
70.7549
 20
8.4877
 30
0.0
 10
70.7549
 20
8.4877
 30
0.0
 10
70.6366
 20
8.6328
 30
0.0
 10
70.5774
 20
8.8153
 30
0.0
 10
70.5774
 20
9.0351
 30
0.0
 10
70.5774
 20
9.0351
 30
0.0
 10
70.5774
 20
9.1978
 30
0.0
 10
70.6105
 20
9.3401
 30
0.0
 10
70.676
 20
9.4626
 30
0.0
 10
70.676
 20
9.4626
 30
0.0
 10
70.7408
 20
9.5852
 30
0.0
 10
70.8352
 20
9.6859
 30
0.0
 10
70.9585
 20
9.7662
 30
0.0
 10
70.9585
 20
9.7662
 30
0.0
 10
71.0818
 20
9.8458
 30
0.0
 10
71.2318
 20
9.9085
 30
0.0
 10
71.4086
 20
9.9536
 30
0.0
 10
71.4086
 20
9.9536
 30
0.0
 10
71.5854
 20
9.9994
 30
0.0
 10
71.8235
 20
10.0219
 30
0.0
 10
72.1236
 20
10.0219
 30
0.0
 10
72.1236
 20
10.0219
 30
0.0
 10
72.4786
 20
10.0219
 30
0.0
 10
72.7646
 20
9.9853
 30
0.0
 10
72.9829
 20
9.9127
 30
0.0
 10
72.9829
 20
9.9127
 30
0.0
 10
73.2013
 20
9.8395
 30
0.0
 10
73.3697
 20
9.7303
 30
0.0
 10
73.4887
 20
9.5852
 30
0.0
 10
73.4887
 20
9.5852
 30
0.0
 10
73.6078
 20
9.4401
 30
0.0
 10
73.6669
 20
9.2569
 30
0.0
 10
73.6669
 20
9.0351
 30
0.0
 10
73.6669
 20
9.0351
 30
0.0
 10
73.6669
 20
8.7434
 30
0.0
 10
73.5627
 20
8.5145
 30
0.0
 10
73.3535
 20
8.3483
 30
0.0
 10
73.3535
 20
8.3483
 30
0.0
 10
73.102
 20
8.1489
 30
0.0
 10
72.6913
 20
8.0489
 30
0.0
 10
72.1236
 20
8.0489
 30
0.0
  0
SPLINE
  5
73
330
1F
100
AcDbEntity
  8
DEFAULT_1
 62
   250
100
AcDbSpline
210
0.0
220
0.0
230
1.0
 70
    11
 71
     3
 72
    36
 73
    32
 74
     0
 42
0.0000000001
 43
0.0000000001
 40
0.0
 40
0.0
 40
0.0
 40
0.0
 40
0.1111111111111111
 40
0.1111111111111111
 40
0.1111111111111111
 40
0.1111111111111111
 40
0.2222222222222222
 40
0.2222222222222222
 40
0.2222222222222222
 40
0.2222222222222222
 40
0.3333333333333333
 40
0.3333333333333333
 40
0.3333333333333333
 40
0.3333333333333333
 40
0.4444444444444444
 40
0.4444444444444444
 40
0.4444444444444444
 40
0.4444444444444444
 40
0.5555555555555556
 40
0.5555555555555556
 40
0.5555555555555556
 40
0.5555555555555556
 40
0.6666666666666666
 40
0.6666666666666666
 40
0.6666666666666666
 40
0.6666666666666666
 40
0.7777777777777778
 40
0.7777777777777778
 40
0.7777777777777778
 40
0.7777777777777778
 40
1.0
 40
1.0
 40
1.0
 40
1.0
 10
72.1236
 20
8.4307
 30
0.0
 10
72.6202
 20
8.4307
 30
0.0
 10
72.9505
 20
8.4891
 30
0.0
 10
73.1154
 20
8.6054
 30
0.0
 10
73.1154
 20
8.6054
 30
0.0
 10
73.2795
 20
8.7216
 30
0.0
 10
73.3619
 20
8.8646
 30
0.0
 10
73.3619
 20
9.0351
 30
0.0
 10
73.3619
 20
9.0351
 30
0.0
 10
73.3619
 20
9.2062
 30
0.0
 10
73.2788
 20
9.3492
 30
0.0
 10
73.114
 20
9.4654
 30
0.0
 10
73.114
 20
9.4654
 30
0.0
 10
72.9491
 20
9.5817
 30
0.0
 10
72.6188
 20
9.6401
 30
0.0
 10
72.1236
 20
9.6401
 30
0.0
 10
72.1236
 20
9.6401
 30
0.0
 10
71.6256
 20
9.6401
 30
0.0
 10
71.2945
 20
9.5817
 30
0.0
 10
71.1311
 20
9.4654
 30
0.0
 10
71.1311
 20
9.4654
 30
0.0
 10
70.967
 20
9.3492
 30
0.0
 10
70.8852
 20
9.2048
 30
0.0
 10
70.8852
 20
9.0315
 30
0.0
 10
70.8852
 20
9.0315
 30
0.0
 10
70.8852
 20
8.8604
 30
0.0
 10
70.9578
 20
8.7244
 30
0.0
 10
71.1022
 20
8.6223
 30
0.0
 10
71.1022
 20
8.6223
 30
0.0
 10
71.286
 20
8.4948
 30
0.0
 10
71.627
 20
8.4307
 30
0.0
 10
72.1236
 20
8.4307
 30
0.0
  0
SPLINE
  5
74
330
1F
100
AcDbEntity
  8
DEFAULT_1
 62
   250
100
AcDbSpline
210
0.0
220
0.0
230
1.0
 70
    11
 71
     3
 72
    20
 73
    16
 74
     0
 42
0.0000000001
 43
0.0000000001
 40
0.0
 40
0.0
 40
0.0
 40
0.0
 40
0.2
 40
0.2
 40
0.2
 40
0.2
 40
0.4
 40
0.4
 40
0.4
 40
0.4
 40
0.6
 40
0.6
 40
0.6
 40
0.6
 40
1.0
 40
1.0
 40
1.0
 40
1.0
 10
74.489
 20
16.3901
 30
0.0
 10
74.489
 20
16.3901
 30
0.0
 10
75.1652
 20
21.0215
 30
0.0
 10
75.1652
 20
21.0215
 30
0.0
 10
75.1652
 20
21.0215
 30
0.0
 10
75.1652
 20
21.0215
 30
0.0
 10
73.6725
 20
21.0215
 30
0.0
 10
73.6725
 20
21.0215
 30
0.0
 10
73.6725
 20
21.0215
 30
0.0
 10
73.6725
 20
21.0215
 30
0.0
 10
74.487
 20
16.3901
 30
0.0
 10
74.487
 20
16.3901
 30
0.0
 10
74.487
 20
16.3901
 30
0.0
 10
74.487
 20
16.3901
 30
0.0
 10
74.489
 20
16.3901
 30
0.0
 10
74.489
 20
16.3901
 30
0.0
  0
SPLINE
  5
75
330
1F
100
AcDbEntity
  8
DEFAULT_1
 62
   250
100
AcDbSpline
210
0.0
220
0.0
230
1.0
 70
    11
 71
     3
 72
    20
 73
    16
 74
     0
 42
0.0000000001
 43
0.0000000001
 40
0.0
 40
0.0
 40
0.0
 40
0.0
 40
0.2
 40
0.2
 40
0.2
 40
0.2
 40
0.4
 40
0.4
 40
0.4
 40
0.4
 40
0.6
 40
0.6
 40
0.6
 40
0.6
 40
1.0
 40
1.0
 40
1.0
 40
1.0
 10
74.4699
 20
-3.513
 30
0.0
 10
74.4699
 20
-3.513
 30
0.0
 10
73.7937
 20
-8.1443
 30
0.0
 10
73.7937
 20
-8.1443
 30
0.0
 10
73.7937
 20
-8.1443
 30
0.0
 10
73.7937
 20
-8.1443
 30
0.0
 10
75.2864
 20
-8.1443
 30
0.0
 10
75.2864
 20
-8.1443
 30
0.0
 10
75.2864
 20
-8.1443
 30
0.0
 10
75.2864
 20
-8.1443
 30
0.0
 10
74.472
 20
-3.513
 30
0.0
 10
74.472
 20
-3.513
 30
0.0
 10
74.472
 20
-3.513
 30
0.0
 10
74.472
 20
-3.513
 30
0.0
 10
74.4699
 20
-3.513
 30
0.0
 10
74.4699
 20
-3.513
 30
0.0
  0
SPLINE
  5
76
330
1F
100
AcDbEntity
  8
DEFAULT_1
 62
   250
100
AcDbSpline
210
0.0
220
0.0
230
1.0
 70
    24
 71
     3
 72
     8
 73
     4
 74
     0
 42
0.0000000001
 43
0.0000000001
 40
0.0
 40
0.0
 40
0.0
 40
0.0
 40
1.0
 40
1.0
 40
1.0
 40
1.0
 10
74.4817
 20
22.0697
 30
0.0
 10
74.4817
 20
22.0697
 30
0.0
 10
74.4817
 20
-9.3648
 30
0.0
 10
74.4817
 20
-9.3648
 30
0.0
  0
SPLINE
  5
77
330
1F
100
AcDbEntity
  8
DEFAULT_1
 62
   250
100
AcDbSpline
210
0.0
220
0.0
230
1.0
 70
    24
 71
     3
 72
     8
 73
     4
 74
     0
 42
0.0000000001
 43
0.0000000001
 40
0.0
 40
0.0
 40
0.0
 40
0.0
 40
1.0
 40
1.0
 40
1.0
 40
1.0
 10
41.0796
 20
-1.53
 30
0.0
 10
41.0796
 20
-1.53
 30
0.0
 10
22.0093
 20
-1.53
 30
0.0
 10
22.0093
 20
-1.53
 30
0.0
  0
SPLINE
  5
78
330
1F
100
AcDbEntity
  8
DEFAULT_1
 62
   250
100
AcDbSpline
210
0.0
220
0.0
230
1.0
 70
    24
 71
     3
 72
     8
 73
     4
 74
     0
 42
0.0000000001
 43
0.0000000001
 40
0.0
 40
0.0
 40
0.0
 40
0.0
 40
1.0
 40
1.0
 40
1.0
 40
1.0
 10
60.9444
 20
-3.5167
 30
0.0
 10
60.9444
 20
-3.5167
 30
0.0
 10
60.9444
 20
16.3482
 30
0.0
 10
60.9444
 20
16.3482
 30
0.0
  0
SPLINE
  5
79
330
1F
100
AcDbEntity
  8
DEFAULT_1
 62
   250
100
AcDbSpline
210
0.0
220
0.0
230
1.0
 70
    24
 71
     3
 72
     8
 73
     4
 74
     0
 42
0.0000000001
 43
0.0000000001
 40
0.0
 40
0.0
 40
0.0
 40
0.0
 40
1.0
 40
1.0
 40
1.0
 40
1.0
 10
41.0796
 20
-3.5167
 30
0.0
 10
41.0796
 20
-3.5167
 30
0.0
 10
41.0796
 20
16.3482
 30
0.0
 10
41.0796
 20
16.3482
 30
0.0
  0
SPLINE
  5
7A
330
1F
100
AcDbEntity
  8
DEFAULT_1
 62
   250
100
AcDbSpline
210
0.0
220
0.0
230
1.0
 70
    24
 71
     3
 72
     8
 73
     4
 74
     0
 42
0.0000000001
 43
0.0000000001
 40
0.0
 40
0.0
 40
0.0
 40
0.0
 40
1.0
 40
1.0
 40
1.0
 40
1.0
 10
60.9444
 20
16.3482
 30
0.0
 10
60.9444
 20
16.3482
 30
0.0
 10
41.0796
 20
16.3482
 30
0.0
 10
41.0796
 20
16.3482
 30
0.0
  0
SPLINE
  5
7B
330
1F
100
AcDbEntity
  8
DEFAULT_1
 62
   250
100
AcDbSpline
210
0.0
220
0.0
230
1.0
 70
    24
 71
     3
 72
     8
 73
     4
 74
     0
 42
0.0000000001
 43
0.0000000001
 40
0.0
 40
0.0
 40
0.0
 40
0.0
 40
1.0
 40
1.0
 40
1.0
 40
1.0
 10
60.9444
 20
-3.5167
 30
0.0
 10
60.9444
 20
-3.5167
 30
0.0
 10
41.0796
 20
-3.5167
 30
0.0
 10
41.0796
 20
-3.5167
 30
0.0
  0
SPLINE
  5
7C
330
1F
100
AcDbEntity
  8
DEFAULT_1
 62
   250
100
AcDbSpline
210
0.0
220
0.0
230
1.0
 70
     8
 71
     3
 72
    12
 73
     8
 74
     0
 42
0.0000000001
 43
0.0000000001
 40
0.0
 40
0.0
 40
0.0
 40
0.0
 40
0.3333333333333333
 40
0.3333333333333333
 40
0.3333333333333333
 40
0.3333333333333333
 40
1.0
 40
1.0
 40
1.0
 40
1.0
 10
22.0093
 20
14.4612
 30
0.0
 10
22.0093
 20
14.6804
 30
0.0
 10
21.8312
 20
14.8582
 30
0.0
 10
21.6121
 20
14.8582
 30
0.0
 10
21.6121
 20
14.8582
 30
0.0
 10
21.3924
 20
14.8582
 30
0.0
 10
21.2147
 20
14.6804
 30
0.0
 10
21.2147
 20
14.4612
 30
0.0
  0
SPLINE
  5
7D
330
1F
100
AcDbEntity
  8
DEFAULT_1
 62
   250
100
AcDbSpline
210
0.0
220
0.0
230
1.0
 70
     8
 71
     3
 72
     8
 73
     4
 74
     0
 42
0.0000000001
 43
0.0000000001
 40
0.0
 40
0.0
 40
0.0
 40
0.0
 40
1.0
 40
1.0
 40
1.0
 40
1.0
 10
18.2347
 20
13.5672
 30
0.0
 10
18.125
 20
13.5672
 30
0.0
 10
18.0361
 20
13.4783
 30
0.0
 10
18.0361
 20
13.3686
 30
0.0
  0
SPLINE
  5
7E
330
1F
100
AcDbEntity
  8
DEFAULT_1
 62
   250
100
AcDbSpline
210
0.0
220
0.0
230
1.0
 70
     8
 71
     3
 72
     8
 73
     4
 74
     0
 42
0.0000000001
 43
0.0000000001
 40
0.0
 40
0.0
 40
0.0
 40
0.0
 40
1.0
 40
1.0
 40
1.0
 40
1.0
 10
18.0361
 20
-0.5371
 30
0.0
 10
18.0361
 20
-0.6466
 30
0.0
 10
18.125
 20
-0.7355
 30
0.0
 10
18.2347
 20
-0.7355
 30
0.0
  0
SPLINE
  5
7F
330
1F
100
AcDbEntity
  8
DEFAULT_1
 62
   250
100
AcDbSpline
210
0.0
220
0.0
230
1.0
 70
     8
 71
     3
 72
    12
 73
     8
 74
     0
 42
0.0000000001
 43
0.0000000001
 40
0.0
 40
0.0
 40
0.0
 40
0.0
 40
0.3333333333333333
 40
0.3333333333333333
 40
0.3333333333333333
 40
0.3333333333333333
 40
1.0
 40
1.0
 40
1.0
 40
1.0
 10
21.2147
 20
-1.6296
 30
0.0
 10
21.2147
 20
-1.849
 30
0.0
 10
21.3924
 20
-2.0273
 30
0.0
 10
21.6121
 20
-2.0273
 30
0.0
 10
21.6121
 20
-2.0273
 30
0.0
 10
21.8312
 20
-2.0273
 30
0.0
 10
22.0093
 20
-1.849
 30
0.0
 10
22.0093
 20
-1.6296
 30
0.0
  0
SPLINE
  5
80
330
1F
100
AcDbEntity
  8
DEFAULT_1
 62
   250
100
AcDbSpline
210
0.0
220
0.0
230
1.0
 70
    24
 71
     3
 72
     8
 73
     4
 74
     0
 42
0.0000000001
 43
0.0000000001
 40
0.0
 40
0.0
 40
0.0
 40
0.0
 40
1.0
 40
1.0
 40
1.0
 40
1.0
 10
22.0093
 20
14.4612
 30
0.0
 10
22.0093
 20
14.4612
 30
0.0
 10
22.0093
 20
-1.6296
 30
0.0
 10
22.0093
 20
-1.6296
 30
0.0
  0
SPLINE
  5
81
330
1F
100
AcDbEntity
  8
DEFAULT_1
 62
   250
100
AcDbSpline
210
0.0
220
0.0
230
1.0
 70
    24
 71
     3
 72
     8
 73
     4
 74
     0
 42
0.0000000001
 43
0.0000000001
 40
0.0
 40
0.0
 40
0.0
 40
0.0
 40
1.0
 40
1.0
 40
1.0
 40
1.0
 10
21.2147
 20
14.4612
 30
0.0
 10
21.2147
 20
14.4612
 30
0.0
 10
21.2147
 20
-1.6296
 30
0.0
 10
21.2147
 20
-1.6296
 30
0.0
  0
SPLINE
  5
82
330
1F
100
AcDbEntity
  8
DEFAULT_1
 62
   250
100
AcDbSpline
210
0.0
220
0.0
230
1.0
 70
    24
 71
     3
 72
     8
 73
     4
 74
     0
 42
0.0000000001
 43
0.0000000001
 40
0.0
 40
0.0
 40
0.0
 40
0.0
 40
1.0
 40
1.0
 40
1.0
 40
1.0
 10
18.0361
 20
13.3682
 30
0.0
 10
18.0361
 20
13.3682
 30
0.0
 10
18.0361
 20
-0.5371
 30
0.0
 10
18.0361
 20
-0.5371
 30
0.0
  0
SPLINE
  5
83
330
1F
100
AcDbEntity
  8
DEFAULT_1
 62
   250
100
AcDbSpline
210
0.0
220
0.0
230
1.0
 70
    24
 71
     3
 72
     8
 73
     4
 74
     0
 42
0.0000000001
 43
0.0000000001
 40
0.0
 40
0.0
 40
0.0
 40
0.0
 40
1.0
 40
1.0
 40
1.0
 40
1.0
 10
41.0796
 20
14.3616
 30
0.0
 10
41.0796
 20
14.3616
 30
0.0
 10
22.0093
 20
14.3616
 30
0.0
 10
22.0093
 20
14.3616
 30
0.0
  0
SPLINE
  5
84
330
1F
100
AcDbEntity
  8
DEFAULT_1
 62
   250
100
AcDbSpline
210
0.0
220
0.0
230
1.0
 70
    24
 71
     3
 72
     8
 73
     4
 74
     0
 42
0.0000000001
 43
0.0000000001
 40
0.0
 40
0.0
 40
0.0
 40
0.0
 40
1.0
 40
1.0
 40
1.0
 40
1.0
 10
21.2147
 20
13.5672
 30
0.0
 10
21.2147
 20
13.5672
 30
0.0
 10
18.2347
 20
13.5672
 30
0.0
 10
18.2347
 20
13.5672
 30
0.0
  0
SPLINE
  5
85
330
1F
100
AcDbEntity
  8
DEFAULT_1
 62
   250
100
AcDbSpline
210
0.0
220
0.0
230
1.0
 70
    24
 71
     3
 72
     8
 73
     4
 74
     0
 42
0.0000000001
 43
0.0000000001
 40
0.0
 40
0.0
 40
0.0
 40
0.0
 40
1.0
 40
1.0
 40
1.0
 40
1.0
 10
21.2147
 20
-0.7355
 30
0.0
 10
21.2147
 20
-0.7355
 30
0.0
 10
18.2347
 20
-0.7355
 30
0.0
 10
18.2347
 20
-0.7355
 30
0.0
  0
SPLINE
  5
86
330
1F
100
AcDbEntity
  8
DEFAULT_1
 62
   250
100
AcDbSpline
210
0.0
220
0.0
230
1.0
 70
    24
 71
     3
 72
     8
 73
     4
 74
     0
 42
0.0000000001
 43
0.0000000001
 40
0.0
 40
0.0
 40
0.0
 40
0.0
 40
1.0
 40
1.0
 40
1.0
 40
1.0
 10
-59.7843
 20
-1.0586
 30
0.0
 10
-59.7843
 20
-1.0586
 30
0.0
 10
-38.4506
 20
-1.0586
 30
0.0
 10
-38.4506
 20
-1.0586
 30
0.0
  0
SPLINE
  5
87
330
1F
100
AcDbEntity
  8
DEFAULT_1
 62
   250
100
AcDbSpline
210
0.0
220
0.0
230
1.0
 70
    24
 71
     3
 72
     8
 73
     4
 74
     0
 42
0.0000000001
 43
0.0000000001
 40
0.0
 40
0.0
 40
0.0
 40
0.0
 40
1.0
 40
1.0
 40
1.0
 40
1.0
 10
-36.0669
 20
-0.4627
 30
0.0
 10
-36.0669
 20
-0.4627
 30
0.0
 10
-36.0669
 20
13.84
 30
0.0
 10
-36.0669
 20
13.84
 30
0.0
  0
SPLINE
  5
88
330
1F
100
AcDbEntity
  8
DEFAULT_1
 62
   250
100
AcDbSpline
210
0.0
220
0.0
230
1.0
 70
    24
 71
     3
 72
     8
 73
     4
 74
     0
 42
0.0000000001
 43
0.0000000001
 40
0.0
 40
0.0
 40
0.0
 40
0.0
 40
1.0
 40
1.0
 40
1.0
 40
1.0
 10
-38.4506
 20
-1.0586
 30
0.0
 10
-38.4506
 20
-1.0586
 30
0.0
 10
-38.4506
 20
14.436
 30
0.0
 10
-38.4506
 20
14.436
 30
0.0
  0
SPLINE
  5
89
330
1F
100
AcDbEntity
  8
DEFAULT_1
 62
   250
100
AcDbSpline
210
0.0
220
0.0
230
1.0
 70
    24
 71
     3
 72
     8
 73
     4
 74
     0
 42
0.0000000001
 43
0.0000000001
 40
0.0
 40
0.0
 40
0.0
 40
0.0
 40
1.0
 40
1.0
 40
1.0
 40
1.0
 10
-59.8161
 20
14.436
 30
0.0
 10
-59.8161
 20
14.436
 30
0.0
 10
-38.4506
 20
14.436
 30
0.0
 10
-38.4506
 20
14.436
 30
0.0
  0
SPLINE
  5
8A
330
1F
100
AcDbEntity
  8
DEFAULT_1
 62
   250
100
AcDbSpline
210
0.0
220
0.0
230
1.0
 70
    24
 71
     3
 72
     8
 73
     4
 74
     0
 42
0.0000000001
 43
0.0000000001
 40
0.0
 40
0.0
 40
0.0
 40
0.0
 40
1.0
 40
1.0
 40
1.0
 40
1.0
 10
-38.4506
 20
13.84
 30
0.0
 10
-38.4506
 20
13.84
 30
0.0
 10
-36.0669
 20
13.84
 30
0.0
 10
-36.0669
 20
13.84
 30
0.0
  0
SPLINE
  5
8B
330
1F
100
AcDbEntity
  8
DEFAULT_1
 62
   250
100
AcDbSpline
210
0.0
220
0.0
230
1.0
 70
    24
 71
     3
 72
     8
 73
     4
 74
     0
 42
0.0000000001
 43
0.0000000001
 40
0.0
 40
0.0
 40
0.0
 40
0.0
 40
1.0
 40
1.0
 40
1.0
 40
1.0
 10
-38.4506
 20
-0.4627
 30
0.0
 10
-38.4506
 20
-0.4627
 30
0.0
 10
-36.0669
 20
-0.4627
 30
0.0
 10
-36.0669
 20
-0.4627
 30
0.0
  0
SPLINE
  5
8C
330
1F
100
AcDbEntity
  8
DEFAULT_1
 62
   250
100
AcDbSpline
210
0.0
220
0.0
230
1.0
 70
    24
 71
     3
 72
     8
 73
     4
 74
     0
 42
0.0000000001
 43
0.0000000001
 40
0.0
 40
0.0
 40
0.0
 40
0.0
 40
1.0
 40
1.0
 40
1.0
 40
1.0
 10
-62.6022
 20
16.4912
 30
0.0
 10
-62.6022
 20
16.4912
 30
0.0
 10
-62.6022
 20
-3.3735
 30
0.0
 10
-62.6022
 20
-3.3735
 30
0.0
  0
SPLINE
  5
8D
330
1F
100
AcDbEntity
  8
DEFAULT_1
 62
   250
100
AcDbSpline
210
0.0
220
0.0
230
1.0
 70
    24
 71
     3
 72
     8
 73
     4
 74
     0
 42
0.0000000001
 43
0.0000000001
 40
0.0
 40
0.0
 40
0.0
 40
0.0
 40
1.0
 40
1.0
 40
1.0
 40
1.0
 10
-62.6606
 20
15.5488
 30
0.0
 10
-62.6606
 20
15.5488
 30
0.0
 10
-63.5344
 20
16.4226
 30
0.0
 10
-63.5344
 20
16.4226
 30
0.0
  0
SPLINE
  5
8E
330
1F
100
AcDbEntity
  8
DEFAULT_1
 62
   250
100
AcDbSpline
210
0.0
220
0.0
230
1.0
 70
    24
 71
     3
 72
     8
 73
     4
 74
     0
 42
0.0000000001
 43
0.0000000001
 40
0.0
 40
0.0
 40
0.0
 40
0.0
 40
1.0
 40
1.0
 40
1.0
 40
1.0
 10
-62.6606
 20
12.8667
 30
0.0
 10
-62.6606
 20
12.8667
 30
0.0
 10
-65.2714
 20
15.4775
 30
0.0
 10
-65.2714
 20
15.4775
 30
0.0
  0
SPLINE
  5
8F
330
1F
100
AcDbEntity
  8
DEFAULT_1
 62
   250
100
AcDbSpline
210
0.0
220
0.0
230
1.0
 70
    24
 71
     3
 72
     8
 73
     4
 74
     0
 42
0.0000000001
 43
0.0000000001
 40
0.0
 40
0.0
 40
0.0
 40
0.0
 40
1.0
 40
1.0
 40
1.0
 40
1.0
 10
-62.6606
 20
10.1846
 30
0.0
 10
-62.6606
 20
10.1846
 30
0.0
 10
-65.2714
 20
12.7955
 30
0.0
 10
-65.2714
 20
12.7955
 30
0.0
  0
SPLINE
  5
90
330
1F
100
AcDbEntity
  8
DEFAULT_1
 62
   250
100
AcDbSpline
210
0.0
220
0.0
230
1.0
 70
    24
 71
     3
 72
     8
 73
     4
 74
     0
 42
0.0000000001
 43
0.0000000001
 40
0.0
 40
0.0
 40
0.0
 40
0.0
 40
1.0
 40
1.0
 40
1.0
 40
1.0
 10
-62.6606
 20
7.5408
 30
0.0
 10
-62.6606
 20
7.5408
 30
0.0
 10
-65.2714
 20
10.1517
 30
0.0
 10
-65.2714
 20
10.1517
 30
0.0
  0
SPLINE
  5
91
330
1F
100
AcDbEntity
  8
DEFAULT_1
 62
   250
100
AcDbSpline
210
0.0
220
0.0
230
1.0
 70
    24
 71
     3
 72
     8
 73
     4
 74
     0
 42
0.0000000001
 43
0.0000000001
 40
0.0
 40
0.0
 40
0.0
 40
0.0
 40
1.0
 40
1.0
 40
1.0
 40
1.0
 10
-65.2714
 20
15.5486
 30
0.0
 10
-65.2714
 20
15.5486
 30
0.0
 10
-64.4241
 20
16.3959
 30
0.0
 10
-64.4241
 20
16.3959
 30
0.0
  0
SPLINE
  5
92
330
1F
100
AcDbEntity
  8
DEFAULT_1
 62
   250
100
AcDbSpline
210
0.0
220
0.0
230
1.0
 70
    24
 71
     3
 72
     8
 73
     4
 74
     0
 42
0.0000000001
 43
0.0000000001
 40
0.0
 40
0.0
 40
0.0
 40
0.0
 40
1.0
 40
1.0
 40
1.0
 40
1.0
 10
-65.2714
 20
12.8665
 30
0.0
 10
-65.2714
 20
12.8665
 30
0.0
 10
-62.6606
 20
15.4773
 30
0.0
 10
-62.6606
 20
15.4773
 30
0.0
  0
SPLINE
  5
93
330
1F
100
AcDbEntity
  8
DEFAULT_1
 62
   250
100
AcDbSpline
210
0.0
220
0.0
230
1.0
 70
    24
 71
     3
 72
     8
 73
     4
 74
     0
 42
0.0000000001
 43
0.0000000001
 40
0.0
 40
0.0
 40
0.0
 40
0.0
 40
1.0
 40
1.0
 40
1.0
 40
1.0
 10
-65.2714
 20
10.1845
 30
0.0
 10
-65.2714
 20
10.1845
 30
0.0
 10
-62.6606
 20
12.7953
 30
0.0
 10
-62.6606
 20
12.7953
 30
0.0
  0
SPLINE
  5
94
330
1F
100
AcDbEntity
  8
DEFAULT_1
 62
   250
100
AcDbSpline
210
0.0
220
0.0
230
1.0
 70
    24
 71
     3
 72
     8
 73
     4
 74
     0
 42
0.0000000001
 43
0.0000000001
 40
0.0
 40
0.0
 40
0.0
 40
0.0
 40
1.0
 40
1.0
 40
1.0
 40
1.0
 10
-65.2714
 20
7.5407
 30
0.0
 10
-65.2714
 20
7.5407
 30
0.0
 10
-62.6606
 20
10.1515
 30
0.0
 10
-62.6606
 20
10.1515
 30
0.0
  0
SPLINE
  5
95
330
1F
100
AcDbEntity
  8
DEFAULT_1
 62
   250
100
AcDbSpline
210
0.0
220
0.0
230
1.0
 70
    24
 71
     3
 72
     8
 73
     4
 74
     0
 42
0.0000000001
 43
0.0000000001
 40
0.0
 40
0.0
 40
0.0
 40
0.0
 40
1.0
 40
1.0
 40
1.0
 40
1.0
 10
-62.6606
 20
4.9145
 30
0.0
 10
-62.6606
 20
4.9145
 30
0.0
 10
-65.2714
 20
7.5253
 30
0.0
 10
-65.2714
 20
7.5253
 30
0.0
  0
SPLINE
  5
96
330
1F
100
AcDbEntity
  8
DEFAULT_1
 62
   250
100
AcDbSpline
210
0.0
220
0.0
230
1.0
 70
    24
 71
     3
 72
     8
 73
     4
 74
     0
 42
0.0000000001
 43
0.0000000001
 40
0.0
 40
0.0
 40
0.0
 40
0.0
 40
1.0
 40
1.0
 40
1.0
 40
1.0
 10
-62.6606
 20
2.2324
 30
0.0
 10
-62.6606
 20
2.2324
 30
0.0
 10
-65.2714
 20
4.8432
 30
0.0
 10
-65.2714
 20
4.8432
 30
0.0
  0
SPLINE
  5
97
330
1F
100
AcDbEntity
  8
DEFAULT_1
 62
   250
100
AcDbSpline
210
0.0
220
0.0
230
1.0
 70
    24
 71
     3
 72
     8
 73
     4
 74
     0
 42
0.0000000001
 43
0.0000000001
 40
0.0
 40
0.0
 40
0.0
 40
0.0
 40
1.0
 40
1.0
 40
1.0
 40
1.0
 10
-62.6606
 20
-0.4496
 30
0.0
 10
-62.6606
 20
-0.4496
 30
0.0
 10
-65.2714
 20
2.1612
 30
0.0
 10
-65.2714
 20
2.1612
 30
0.0
  0
SPLINE
  5
98
330
1F
100
AcDbEntity
  8
DEFAULT_1
 62
   250
100
AcDbSpline
210
0.0
220
0.0
230
1.0
 70
    24
 71
     3
 72
     8
 73
     4
 74
     0
 42
0.0000000001
 43
0.0000000001
 40
0.0
 40
0.0
 40
0.0
 40
0.0
 40
1.0
 40
1.0
 40
1.0
 40
1.0
 10
-62.6606
 20
-3.0935
 30
0.0
 10
-62.6606
 20
-3.0935
 30
0.0
 10
-65.2714
 20
-0.4826
 30
0.0
 10
-65.2714
 20
-0.4826
 30
0.0
  0
SPLINE
  5
99
330
1F
100
AcDbEntity
  8
DEFAULT_1
 62
   250
100
AcDbSpline
210
0.0
220
0.0
230
1.0
 70
    24
 71
     3
 72
     8
 73
     4
 74
     0
 42
0.0000000001
 43
0.0000000001
 40
0.0
 40
0.0
 40
0.0
 40
0.0
 40
1.0
 40
1.0
 40
1.0
 40
1.0
 10
-65.2714
 20
4.9143
 30
0.0
 10
-65.2714
 20
4.9143
 30
0.0
 10
-62.6606
 20
7.5251
 30
0.0
 10
-62.6606
 20
7.5251
 30
0.0
  0
SPLINE
  5
9A
330
1F
100
AcDbEntity
  8
DEFAULT_1
 62
   250
100
AcDbSpline
210
0.0
220
0.0
230
1.0
 70
    24
 71
     3
 72
     8
 73
     4
 74
     0
 42
0.0000000001
 43
0.0000000001
 40
0.0
 40
0.0
 40
0.0
 40
0.0
 40
1.0
 40
1.0
 40
1.0
 40
1.0
 10
-65.2714
 20
2.2322
 30
0.0
 10
-65.2714
 20
2.2322
 30
0.0
 10
-62.6606
 20
4.8431
 30
0.0
 10
-62.6606
 20
4.8431
 30
0.0
  0
SPLINE
  5
9B
330
1F
100
AcDbEntity
  8
DEFAULT_1
 62
   250
100
AcDbSpline
210
0.0
220
0.0
230
1.0
 70
    24
 71
     3
 72
     8
 73
     4
 74
     0
 42
0.0000000001
 43
0.0000000001
 40
0.0
 40
0.0
 40
0.0
 40
0.0
 40
1.0
 40
1.0
 40
1.0
 40
1.0
 10
-65.2714
 20
-0.4498
 30
0.0
 10
-65.2714
 20
-0.4498
 30
0.0
 10
-62.6606
 20
2.161
 30
0.0
 10
-62.6606
 20
2.161
 30
0.0
  0
SPLINE
  5
9C
330
1F
100
AcDbEntity
  8
DEFAULT_1
 62
   250
100
AcDbSpline
210
0.0
220
0.0
230
1.0
 70
    24
 71
     3
 72
     8
 73
     4
 74
     0
 42
0.0000000001
 43
0.0000000001
 40
0.0
 40
0.0
 40
0.0
 40
0.0
 40
1.0
 40
1.0
 40
1.0
 40
1.0
 10
-65.2714
 20
-3.0936
 30
0.0
 10
-65.2714
 20
-3.0936
 30
0.0
 10
-62.6606
 20
-0.4828
 30
0.0
 10
-62.6606
 20
-0.4828
 30
0.0
  0
SPLINE
  5
9D
330
1F
100
AcDbEntity
  8
DEFAULT_1
 62
   250
100
AcDbSpline
210
0.0
220
0.0
230
1.0
 70
    24
 71
     3
 72
     8
 73
     4
 74
     0
 42
0.0000000001
 43
0.0000000001
 40
0.0
 40
0.0
 40
0.0
 40
0.0
 40
1.0
 40
1.0
 40
1.0
 40
1.0
 10
-65.3832
 20
16.4912
 30
0.0
 10
-65.3832
 20
16.4912
 30
0.0
 10
-62.6022
 20
16.4912
 30
0.0
 10
-62.6022
 20
16.4912
 30
0.0
  0
SPLINE
  5
9E
330
1F
100
AcDbEntity
  8
DEFAULT_1
 62
   250
100
AcDbSpline
210
0.0
220
0.0
230
1.0
 70
    24
 71
     3
 72
     8
 73
     4
 74
     0
 42
0.0000000001
 43
0.0000000001
 40
0.0
 40
0.0
 40
0.0
 40
0.0
 40
1.0
 40
1.0
 40
1.0
 40
1.0
 10
-65.3832
 20
-3.3737
 30
0.0
 10
-65.3832
 20
-3.3737
 30
0.0
 10
-62.6022
 20
-3.3737
 30
0.0
 10
-62.6022
 20
-3.3737
 30
0.0
  0
SPLINE
  5
9F
330
1F
100
AcDbEntity
  8
DEFAULT_1
 62
   250
100
AcDbSpline
210
0.0
220
0.0
230
1.0
 70
    24
 71
     3
 72
     8
 73
     4
 74
     0
 42
0.0000000001
 43
0.0000000001
 40
0.0
 40
0.0
 40
0.0
 40
0.0
 40
1.0
 40
1.0
 40
1.0
 40
1.0
 10
-65.3832
 20
-3.3737
 30
0.0
 10
-65.3832
 20
-3.3737
 30
0.0
 10
-65.3832
 20
16.4912
 30
0.0
 10
-65.3832
 20
16.4912
 30
0.0
  0
SPLINE
  5
A0
330
1F
100
AcDbEntity
  8
DEFAULT_1
 62
   250
100
AcDbSpline
210
0.0
220
0.0
230
1.0
 70
    24
 71
     3
 72
     8
 73
     4
 74
     0
 42
0.0000000001
 43
0.0000000001
 40
0.0
 40
0.0
 40
0.0
 40
0.0
 40
1.0
 40
1.0
 40
1.0
 40
1.0
 10
-62.6022
 20
16.2926
 30
0.0
 10
-62.6022
 20
16.2926
 30
0.0
 10
-60.2183
 20
16.2926
 30
0.0
 10
-60.2183
 20
16.2926
 30
0.0
  0
SPLINE
  5
A1
330
1F
100
AcDbEntity
  8
DEFAULT_1
 62
   250
100
AcDbSpline
210
0.0
220
0.0
230
1.0
 70
    24
 71
     3
 72
     8
 73
     4
 74
     0
 42
0.0000000001
 43
0.0000000001
 40
0.0
 40
0.0
 40
0.0
 40
0.0
 40
1.0
 40
1.0
 40
1.0
 40
1.0
 10
-62.6022
 20
-3.1749
 30
0.0
 10
-62.6022
 20
-3.1749
 30
0.0
 10
-60.2183
 20
-3.1749
 30
0.0
 10
-60.2183
 20
-3.1749
 30
0.0
  0
SPLINE
  5
A2
330
1F
100
AcDbEntity
  8
DEFAULT_1
 62
   250
100
AcDbSpline
210
0.0
220
0.0
230
1.0
 70
    24
 71
     3
 72
     8
 73
     4
 74
     0
 42
0.0000000001
 43
0.0000000001
 40
0.0
 40
0.0
 40
0.0
 40
0.0
 40
1.0
 40
1.0
 40
1.0
 40
1.0
 10
-60.2183
 20
16.2926
 30
0.0
 10
-60.2183
 20
16.2926
 30
0.0
 10
-59.821
 20
15.8953
 30
0.0
 10
-59.821
 20
15.8953
 30
0.0
  0
SPLINE
  5
A3
330
1F
100
AcDbEntity
  8
DEFAULT_1
 62
   250
100
AcDbSpline
210
0.0
220
0.0
230
1.0
 70
    24
 71
     3
 72
     8
 73
     4
 74
     0
 42
0.0000000001
 43
0.0000000001
 40
0.0
 40
0.0
 40
0.0
 40
0.0
 40
1.0
 40
1.0
 40
1.0
 40
1.0
 10
-60.2183
 20
-3.1749
 30
0.0
 10
-60.2183
 20
-3.1749
 30
0.0
 10
-59.821
 20
-2.7776
 30
0.0
 10
-59.821
 20
-2.7776
 30
0.0
  0
SPLINE
  5
A4
330
1F
100
AcDbEntity
  8
DEFAULT_1
 62
   250
100
AcDbSpline
210
0.0
220
0.0
230
1.0
 70
    24
 71
     3
 72
     8
 73
     4
 74
     0
 42
0.0000000001
 43
0.0000000001
 40
0.0
 40
0.0
 40
0.0
 40
0.0
 40
1.0
 40
1.0
 40
1.0
 40
1.0
 10
-59.821
 20
15.8951
 30
0.0
 10
-59.821
 20
15.8951
 30
0.0
 10
-59.821
 20
-2.7776
 30
0.0
 10
-59.821
 20
-2.7776
 30
0.0
  0
SPLINE
  5
A5
330
1F
100
AcDbEntity
  8
DEFAULT_1
 62
   250
100
AcDbSpline
210
0.0
220
0.0
230
1.0
 70
    24
 71
     3
 72
     8
 73
     4
 74
     0
 42
0.0000000001
 43
0.0000000001
 40
0.0
 40
0.0
 40
0.0
 40
0.0
 40
1.0
 40
1.0
 40
1.0
 40
1.0
 10
-33.548
 20
0.3911
 30
0.0
 10
-33.548
 20
0.3911
 30
0.0
 10
-33.548
 20
12.8893
 30
0.0
 10
-33.548
 20
12.8893
 30
0.0
  0
SPLINE
  5
A6
330
1F
100
AcDbEntity
  8
DEFAULT_1
 62
   250
100
AcDbSpline
210
0.0
220
0.0
230
1.0
 70
    24
 71
     3
 72
     8
 73
     4
 74
     0
 42
0.0000000001
 43
0.0000000001
 40
0.0
 40
0.0
 40
0.0
 40
0.0
 40
1.0
 40
1.0
 40
1.0
 40
1.0
 10
-33.2783
 20
14.4174
 30
0.0
 10
-33.2783
 20
14.4174
 30
0.0
 10
-33.548
 20
12.8893
 30
0.0
 10
-33.548
 20
12.8893
 30
0.0
  0
SPLINE
  5
A7
330
1F
100
AcDbEntity
  8
DEFAULT_1
 62
   250
100
AcDbSpline
210
0.0
220
0.0
230
1.0
 70
    24
 71
     3
 72
     8
 73
     4
 74
     0
 42
0.0000000001
 43
0.0000000001
 40
0.0
 40
0.0
 40
0.0
 40
0.0
 40
1.0
 40
1.0
 40
1.0
 40
1.0
 10
-33.2783
 20
-1.1373
 30
0.0
 10
-33.2783
 20
-1.1373
 30
0.0
 10
-33.548
 20
0.3911
 30
0.0
 10
-33.548
 20
0.3911
 30
0.0
  0
SPLINE
  5
A8
330
1F
100
AcDbEntity
  8
DEFAULT_1
 62
   250
100
AcDbSpline
210
0.0
220
0.0
230
1.0
 70
    24
 71
     3
 72
     8
 73
     4
 74
     0
 42
0.0000000001
 43
0.0000000001
 40
0.0
 40
0.0
 40
0.0
 40
0.0
 40
1.0
 40
1.0
 40
1.0
 40
1.0
 10
-32.3344
 20
0.3911
 30
0.0
 10
-32.3344
 20
0.3911
 30
0.0
 10
-32.9025
 20
-1.1702
 30
0.0
 10
-32.9025
 20
-1.1702
 30
0.0
  0
SPLINE
  5
A9
330
1F
100
AcDbEntity
  8
DEFAULT_1
 62
   250
100
AcDbSpline
210
0.0
220
0.0
230
1.0
 70
    24
 71
     3
 72
     8
 73
     4
 74
     0
 42
0.0000000001
 43
0.0000000001
 40
0.0
 40
0.0
 40
0.0
 40
0.0
 40
1.0
 40
1.0
 40
1.0
 40
1.0
 10
-32.3344
 20
12.8893
 30
0.0
 10
-32.3344
 20
12.8893
 30
0.0
 10
-32.9025
 20
14.4505
 30
0.0
 10
-32.9025
 20
14.4505
 30
0.0
  0
SPLINE
  5
AA
330
1F
100
AcDbEntity
  8
DEFAULT_1
 62
   250
100
AcDbSpline
210
0.0
220
0.0
230
1.0
 70
    24
 71
     3
 72
     8
 73
     4
 74
     0
 42
0.0000000001
 43
0.0000000001
 40
0.0
 40
0.0
 40
0.0
 40
0.0
 40
1.0
 40
1.0
 40
1.0
 40
1.0
 10
-33.548
 20
0.3911
 30
0.0
 10
-33.548
 20
0.3911
 30
0.0
 10
-35.8914
 20
0.3911
 30
0.0
 10
-35.8914
 20
0.3911
 30
0.0
  0
SPLINE
  5
AB
330
1F
100
AcDbEntity
  8
DEFAULT_1
 62
   250
100
AcDbSpline
210
0.0
220
0.0
230
1.0
 70
    24
 71
     3
 72
     8
 73
     4
 74
     0
 42
0.0000000001
 43
0.0000000001
 40
0.0
 40
0.0
 40
0.0
 40
0.0
 40
1.0
 40
1.0
 40
1.0
 40
1.0
 10
-33.548
 20
12.8893
 30
0.0
 10
-33.548
 20
12.8893
 30
0.0
 10
-35.8914
 20
12.8893
 30
0.0
 10
-35.8914
 20
12.8893
 30
0.0
  0
SPLINE
  5
AC
330
1F
100
AcDbEntity
  8
DEFAULT_1
 62
   250
100
AcDbSpline
210
0.0
220
0.0
230
1.0
 70
     8
 71
     3
 72
    12
 73
     8
 74
     0
 42
0.0000000001
 43
0.0000000001
 40
0.0
 40
0.0
 40
0.0
 40
0.0
 40
0.3333333333333333
 40
0.3333333333333333
 40
0.3333333333333333
 40
0.3333333333333333
 40
1.0
 40
1.0
 40
1.0
 40
1.0
 10
-33.2783
 20
-1.1373
 30
0.0
 10
-33.2632
 20
-1.2243
 30
0.0
 10
-33.1911
 20
-1.2901
 30
0.0
 10
-33.1031
 20
-1.2978
 30
0.0
 10
-33.1031
 20
-1.2978
 30
0.0
 10
-33.0149
 20
-1.3055
 30
0.0
 10
-32.9331
 20
-1.253
 30
0.0
 10
-32.9025
 20
-1.1702
 30
0.0
  0
SPLINE
  5
AD
330
1F
100
AcDbEntity
  8
DEFAULT_1
 62
   250
100
AcDbSpline
210
0.0
220
0.0
230
1.0
 70
     8
 71
     3
 72
    12
 73
     8
 74
     0
 42
0.0000000001
 43
0.0000000001
 40
0.0
 40
0.0
 40
0.0
 40
0.0
 40
0.3333333333333333
 40
0.3333333333333333
 40
0.3333333333333333
 40
0.3333333333333333
 40
1.0
 40
1.0
 40
1.0
 40
1.0
 10
-32.9025
 20
14.4505
 30
0.0
 10
-32.9331
 20
14.5331
 30
0.0
 10
-33.0149
 20
14.5859
 30
0.0
 10
-33.1031
 20
14.5782
 30
0.0
 10
-33.1031
 20
14.5782
 30
0.0
 10
-33.1911
 20
14.5705
 30
0.0
 10
-33.2632
 20
14.5047
 30
0.0
 10
-33.2783
 20
14.4174
 30
0.0
  0
SPLINE
  5
AE
330
1F
100
AcDbEntity
  8
DEFAULT_1
 62
   250
100
AcDbSpline
210
0.0
220
0.0
230
1.0
 70
     8
 71
     3
 72
    40
 73
    36
 74
     0
 42
0.0000000001
 43
0.0000000001
 40
0.0
 40
0.0
 40
0.0
 40
0.0
 40
0.1
 40
0.1
 40
0.1
 40
0.1
 40
0.2
 40
0.2
 40
0.2
 40
0.2
 40
0.3
 40
0.3
 40
0.3
 40
0.3
 40
0.4
 40
0.4
 40
0.4
 40
0.4
 40
0.5
 40
0.5
 40
0.5
 40
0.5
 40
0.6
 40
0.6
 40
0.6
 40
0.6
 40
0.7
 40
0.7
 40
0.7
 40
0.7
 40
0.8
 40
0.8
 40
0.8
 40
0.8
 40
1.0
 40
1.0
 40
1.0
 40
1.0
 10
-32.3344
 20
12.8893
 30
0.0
 10
-32.3344
 20
12.8893
 30
0.0
 10
-32.1377
 20
14.4755
 30
0.0
 10
-32.1377
 20
14.4755
 30
0.0
 10
-32.1377
 20
14.4755
 30
0.0
 10
-32.1377
 20
14.4755
 30
0.0
 10
-32.0071
 20
14.6428
 30
0.0
 10
-32.0071
 20
14.6428
 30
0.0
 10
-32.0071
 20
14.6428
 30
0.0
 10
-32.0071
 20
14.6428
 30
0.0
 10
-31.7938
 20
14.6888
 30
0.0
 10
-31.7938
 20
14.6888
 30
0.0
 10
-31.7938
 20
14.6888
 30
0.0
 10
-31.7938
 20
14.6888
 30
0.0
 10
-31.5045
 20
14.6888
 30
0.0
 10
-31.5045
 20
14.6888
 30
0.0
 10
-31.5045
 20
14.6888
 30
0.0
 10
-31.5045
 20
14.6888
 30
0.0
 10
-31.3067
 20
14.6734
 30
0.0
 10
-31.3067
 20
14.6734
 30
0.0
 10
-31.3067
 20
14.6734
 30
0.0
 10
-31.3067
 20
14.6734
 30
0.0
 10
-31.124
 20
14.6582
 30
0.0
 10
-31.124
 20
14.6582
 30
0.0
 10
-31.124
 20
14.6582
 30
0.0
 10
-31.124
 20
14.6582
 30
0.0
 10
-31.0174
 20
14.4599
 30
0.0
 10
-31.0174
 20
14.4599
 30
0.0
 10
-31.0174
 20
14.4599
 30
0.0
 10
-31.0174
 20
14.4599
 30
0.0
 10
-30.9413
 20
14.2156
 30
0.0
 10
-30.9413
 20
14.2156
 30
0.0
 10
-30.9413
 20
14.2156
 30
0.0
 10
-30.9413
 20
14.2156
 30
0.0
 10
-30.789
 20
12.8636
 30
0.0
 10
-30.789
 20
12.8636
 30
0.0
  0
SPLINE
  5
AF
330
1F
100
AcDbEntity
  8
DEFAULT_1
 62
   250
100
AcDbSpline
210
0.0
220
0.0
230
1.0
 70
    24
 71
     3
 72
     8
 73
     4
 74
     0
 42
0.0000000001
 43
0.0000000001
 40
0.0
 40
0.0
 40
0.0
 40
0.0
 40
1.0
 40
1.0
 40
1.0
 40
1.0
 10
-32.3344
 20
0.3911
 30
0.0
 10
-32.3344
 20
0.3911
 30
0.0
 10
-32.3344
 20
12.8893
 30
0.0
 10
-32.3344
 20
12.8893
 30
0.0
  0
SPLINE
  5
B0
330
1F
100
AcDbEntity
  8
DEFAULT_1
 62
   250
100
AcDbSpline
210
0.0
220
0.0
230
1.0
 70
    24
 71
     3
 72
     8
 73
     4
 74
     0
 42
0.0000000001
 43
0.0000000001
 40
0.0
 40
0.0
 40
0.0
 40
0.0
 40
1.0
 40
1.0
 40
1.0
 40
1.0
 10
-30.7719
 20
0.3911
 30
0.0
 10
-30.7719
 20
0.3911
 30
0.0
 10
-30.7719
 20
12.8893
 30
0.0
 10
-30.7719
 20
12.8893
 30
0.0
  0
SPLINE
  5
B1
330
1F
100
AcDbEntity
  8
DEFAULT_1
 62
   250
100
AcDbSpline
210
0.0
220
0.0
230
1.0
 70
    24
 71
     3
 72
     8
 73
     4
 74
     0
 42
0.0000000001
 43
0.0000000001
 40
0.0
 40
0.0
 40
0.0
 40
0.0
 40
1.0
 40
1.0
 40
1.0
 40
1.0
 10
-29.2095
 20
0.3911
 30
0.0
 10
-29.2095
 20
0.3911
 30
0.0
 10
-29.2095
 20
12.8893
 30
0.0
 10
-29.2095
 20
12.8893
 30
0.0
  0
SPLINE
  5
B2
330
1F
100
AcDbEntity
  8
DEFAULT_1
 62
   250
100
AcDbSpline
210
0.0
220
0.0
230
1.0
 70
    24
 71
     3
 72
     8
 73
     4
 74
     0
 42
0.0000000001
 43
0.0000000001
 40
0.0
 40
0.0
 40
0.0
 40
0.0
 40
1.0
 40
1.0
 40
1.0
 40
1.0
 10
-27.6473
 20
0.3911
 30
0.0
 10
-27.6473
 20
0.3911
 30
0.0
 10
-27.6473
 20
12.8893
 30
0.0
 10
-27.6473
 20
12.8893
 30
0.0
  0
SPLINE
  5
B3
330
1F
100
AcDbEntity
  8
DEFAULT_1
 62
   250
100
AcDbSpline
210
0.0
220
0.0
230
1.0
 70
    24
 71
     3
 72
     8
 73
     4
 74
     0
 42
0.0000000001
 43
0.0000000001
 40
0.0
 40
0.0
 40
0.0
 40
0.0
 40
1.0
 40
1.0
 40
1.0
 40
1.0
 10
-26.0851
 20
0.3911
 30
0.0
 10
-26.0851
 20
0.3911
 30
0.0
 10
-26.0851
 20
12.8893
 30
0.0
 10
-26.0851
 20
12.8893
 30
0.0
  0
SPLINE
  5
B4
330
1F
100
AcDbEntity
  8
DEFAULT_1
 62
   250
100
AcDbSpline
210
0.0
220
0.0
230
1.0
 70
    24
 71
     3
 72
     8
 73
     4
 74
     0
 42
0.0000000001
 43
0.0000000001
 40
0.0
 40
0.0
 40
0.0
 40
0.0
 40
1.0
 40
1.0
 40
1.0
 40
1.0
 10
-24.5228
 20
0.3911
 30
0.0
 10
-24.5228
 20
0.3911
 30
0.0
 10
-24.5228
 20
12.8893
 30
0.0
 10
-24.5228
 20
12.8893
 30
0.0
  0
SPLINE
  5
B5
330
1F
100
AcDbEntity
  8
DEFAULT_1
 62
   250
100
AcDbSpline
210
0.0
220
0.0
230
1.0
 70
    24
 71
     3
 72
     8
 73
     4
 74
     0
 42
0.0000000001
 43
0.0000000001
 40
0.0
 40
0.0
 40
0.0
 40
0.0
 40
1.0
 40
1.0
 40
1.0
 40
1.0
 10
-22.9602
 20
0.3911
 30
0.0
 10
-22.9602
 20
0.3911
 30
0.0
 10
-22.9602
 20
12.8893
 30
0.0
 10
-22.9602
 20
12.8893
 30
0.0
  0
SPLINE
  5
B6
330
1F
100
AcDbEntity
  8
DEFAULT_1
 62
   250
100
AcDbSpline
210
0.0
220
0.0
230
1.0
 70
    24
 71
     3
 72
     8
 73
     4
 74
     0
 42
0.0000000001
 43
0.0000000001
 40
0.0
 40
0.0
 40
0.0
 40
0.0
 40
1.0
 40
1.0
 40
1.0
 40
1.0
 10
-21.3977
 20
0.3911
 30
0.0
 10
-21.3977
 20
0.3911
 30
0.0
 10
-21.3977
 20
12.8893
 30
0.0
 10
-21.3977
 20
12.8893
 30
0.0
  0
SPLINE
  5
B7
330
1F
100
AcDbEntity
  8
DEFAULT_1
 62
   250
100
AcDbSpline
210
0.0
220
0.0
230
1.0
 70
    24
 71
     3
 72
     8
 73
     4
 74
     0
 42
0.0000000001
 43
0.0000000001
 40
0.0
 40
0.0
 40
0.0
 40
0.0
 40
1.0
 40
1.0
 40
1.0
 40
1.0
 10
-19.8355
 20
0.3911
 30
0.0
 10
-19.8355
 20
0.3911
 30
0.0
 10
-19.8355
 20
12.8893
 30
0.0
 10
-19.8355
 20
12.8893
 30
0.0
  0
SPLINE
  5
B8
330
1F
100
AcDbEntity
  8
DEFAULT_1
 62
   250
100
AcDbSpline
210
0.0
220
0.0
230
1.0
 70
    24
 71
     3
 72
     8
 73
     4
 74
     0
 42
0.0000000001
 43
0.0000000001
 40
0.0
 40
0.0
 40
0.0
 40
0.0
 40
1.0
 40
1.0
 40
1.0
 40
1.0
 10
-18.2733
 20
0.3911
 30
0.0
 10
-18.2733
 20
0.3911
 30
0.0
 10
-18.2733
 20
12.8893
 30
0.0
 10
-18.2733
 20
12.8893
 30
0.0
  0
SPLINE
  5
B9
330
1F
100
AcDbEntity
  8
DEFAULT_1
 62
   250
100
AcDbSpline
210
0.0
220
0.0
230
1.0
 70
    24
 71
     3
 72
     8
 73
     4
 74
     0
 42
0.0000000001
 43
0.0000000001
 40
0.0
 40
0.0
 40
0.0
 40
0.0
 40
1.0
 40
1.0
 40
1.0
 40
1.0
 10
-16.7108
 20
0.3911
 30
0.0
 10
-16.7108
 20
0.3911
 30
0.0
 10
-16.7108
 20
12.8893
 30
0.0
 10
-16.7108
 20
12.8893
 30
0.0
  0
SPLINE
  5
BA
330
1F
100
AcDbEntity
  8
DEFAULT_1
 62
   250
100
AcDbSpline
210
0.0
220
0.0
230
1.0
 70
    24
 71
     3
 72
     8
 73
     4
 74
     0
 42
0.0000000001
 43
0.0000000001
 40
0.0
 40
0.0
 40
0.0
 40
0.0
 40
1.0
 40
1.0
 40
1.0
 40
1.0
 10
-15.1484
 20
0.3911
 30
0.0
 10
-15.1484
 20
0.3911
 30
0.0
 10
-15.1484
 20
12.8893
 30
0.0
 10
-15.1484
 20
12.8893
 30
0.0
  0
SPLINE
  5
BB
330
1F
100
AcDbEntity
  8
DEFAULT_1
 62
   250
100
AcDbSpline
210
0.0
220
0.0
230
1.0
 70
    24
 71
     3
 72
     8
 73
     4
 74
     0
 42
0.0000000001
 43
0.0000000001
 40
0.0
 40
0.0
 40
0.0
 40
0.0
 40
1.0
 40
1.0
 40
1.0
 40
1.0
 10
-13.5864
 20
0.3911
 30
0.0
 10
-13.5864
 20
0.3911
 30
0.0
 10
-13.5864
 20
12.8893
 30
0.0
 10
-13.5864
 20
12.8893
 30
0.0
  0
SPLINE
  5
BC
330
1F
100
AcDbEntity
  8
DEFAULT_1
 62
   250
100
AcDbSpline
210
0.0
220
0.0
230
1.0
 70
    24
 71
     3
 72
     8
 73
     4
 74
     0
 42
0.0000000001
 43
0.0000000001
 40
0.0
 40
0.0
 40
0.0
 40
0.0
 40
1.0
 40
1.0
 40
1.0
 40
1.0
 10
-12.0237
 20
0.3911
 30
0.0
 10
-12.0237
 20
0.3911
 30
0.0
 10
-12.0237
 20
12.8893
 30
0.0
 10
-12.0237
 20
12.8893
 30
0.0
  0
SPLINE
  5
BD
330
1F
100
AcDbEntity
  8
DEFAULT_1
 62
   250
100
AcDbSpline
210
0.0
220
0.0
230
1.0
 70
    24
 71
     3
 72
     8
 73
     4
 74
     0
 42
0.0000000001
 43
0.0000000001
 40
0.0
 40
0.0
 40
0.0
 40
0.0
 40
1.0
 40
1.0
 40
1.0
 40
1.0
 10
-10.4615
 20
0.3911
 30
0.0
 10
-10.4615
 20
0.3911
 30
0.0
 10
-10.4615
 20
12.8893
 30
0.0
 10
-10.4615
 20
12.8893
 30
0.0
  0
SPLINE
  5
BE
330
1F
100
AcDbEntity
  8
DEFAULT_1
 62
   250
100
AcDbSpline
210
0.0
220
0.0
230
1.0
 70
     8
 71
     3
 72
    96
 73
    92
 74
     0
 42
0.0000000001
 43
0.0000000001
 40
0.0
 40
0.0
 40
0.0
 40
0.0
 40
0.0416666666666667
 40
0.0416666666666667
 40
0.0416666666666667
 40
0.0416666666666667
 40
0.0833333333333333
 40
0.0833333333333333
 40
0.0833333333333333
 40
0.0833333333333333
 40
0.125
 40
0.125
 40
0.125
 40
0.125
 40
0.1666666666666667
 40
0.1666666666666667
 40
0.1666666666666667
 40
0.1666666666666667
 40
0.2083333333333333
 40
0.2083333333333333
 40
0.2083333333333333
 40
0.2083333333333333
 40
0.25
 40
0.25
 40
0.25
 40
0.25
 40
0.2916666666666667
 40
0.2916666666666667
 40
0.2916666666666667
 40
0.2916666666666667
 40
0.3333333333333333
 40
0.3333333333333333
 40
0.3333333333333333
 40
0.3333333333333333
 40
0.375
 40
0.375
 40
0.375
 40
0.375
 40
0.4166666666666667
 40
0.4166666666666667
 40
0.4166666666666667
 40
0.4166666666666667
 40
0.4583333333333333
 40
0.4583333333333333
 40
0.4583333333333333
 40
0.4583333333333333
 40
0.5
 40
0.5
 40
0.5
 40
0.5
 40
0.5416666666666666
 40
0.5416666666666666
 40
0.5416666666666666
 40
0.5416666666666666
 40
0.5833333333333334
 40
0.5833333333333334
 40
0.5833333333333334
 40
0.5833333333333334
 40
0.625
 40
0.625
 40
0.625
 40
0.625
 40
0.6666666666666666
 40
0.6666666666666666
 40
0.6666666666666666
 40
0.6666666666666666
 40
0.7083333333333334
 40
0.7083333333333334
 40
0.7083333333333334
 40
0.7083333333333334
 40
0.75
 40
0.75
 40
0.75
 40
0.75
 40
0.7916666666666666
 40
0.7916666666666666
 40
0.7916666666666666
 40
0.7916666666666666
 40
0.8333333333333334
 40
0.8333333333333334
 40
0.8333333333333334
 40
0.8333333333333334
 40
0.875
 40
0.875
 40
0.875
 40
0.875
 40
0.9166666666666666
 40
0.9166666666666666
 40
0.9166666666666666
 40
0.9166666666666666
 40
1.0
 40
1.0
 40
1.0
 40
1.0
 10
-10.4615
 20
12.8893
 30
0.0
 10
-10.4615
 20
12.8893
 30
0.0
 10
-10.2651
 20
14.4755
 30
0.0
 10
-10.2651
 20
14.4755
 30
0.0
 10
-10.2651
 20
14.4755
 30
0.0
 10
-10.2527
 20
14.5737
 30
0.0
 10
-10.1694
 20
14.647
 30
0.0
 10
-10.0707
 20
14.647
 30
0.0
 10
-10.0707
 20
14.647
 30
0.0
 10
-9.9723
 20
14.647
 30
0.0
 10
-9.8892
 20
14.5737
 30
0.0
 10
-9.8771
 20
14.4755
 30
0.0
 10
-9.8771
 20
14.4755
 30
0.0
 10
-9.8771
 20
14.4755
 30
0.0
 10
-9.6806
 20
12.8893
 30
0.0
 10
-9.6806
 20
12.8893
 30
0.0
 10
-9.6806
 20
12.8893
 30
0.0
 10
-9.6806
 20
12.8893
 30
0.0
 10
-9.4417
 20
11.7542
 30
0.0
 10
-9.4417
 20
11.7542
 30
0.0
 10
-9.4417
 20
11.7542
 30
0.0
 10
-9.4417
 20
11.7542
 30
0.0
 10
-9.246
 20
11.0534
 30
0.0
 10
-9.246
 20
11.0534
 30
0.0
 10
-9.246
 20
11.0534
 30
0.0
 10
-9.246
 20
11.0534
 30
0.0
 10
-9.106
 20
9.9319
 30
0.0
 10
-9.106
 20
9.9319
 30
0.0
 10
-9.106
 20
9.9319
 30
0.0
 10
-9.106
 20
9.9319
 30
0.0
 10
-8.9942
 20
8.9508
 30
0.0
 10
-8.9942
 20
8.9508
 30
0.0
 10
-8.9942
 20
8.9508
 30
0.0
 10
-8.9942
 20
8.9508
 30
0.0
 10
-8.9663
 20
8.0258
 30
0.0
 10
-8.9663
 20
8.0258
 30
0.0
 10
-8.9663
 20
8.0258
 30
0.0
 10
-8.9663
 20
8.0258
 30
0.0
 10
-8.9663
 20
7.1287
 30
0.0
 10
-8.9663
 20
7.1287
 30
0.0
 10
-8.9663
 20
7.1287
 30
0.0
 10
-8.9663
 20
7.1287
 30
0.0
 10
-8.9942
 20
6.2037
 30
0.0
 10
-8.9942
 20
6.2037
 30
0.0
 10
-8.9942
 20
6.2037
 30
0.0
 10
-8.9942
 20
6.2037
 30
0.0
 10
-9.218
 20
4.6617
 30
0.0
 10
-9.218
 20
4.6617
 30
0.0
 10
-9.218
 20
4.6617
 30
0.0
 10
-9.218
 20
4.6617
 30
0.0
 10
-9.8563
 20
-1.064
 30
0.0
 10
-9.8563
 20
-1.064
 30
0.0
 10
-9.8563
 20
-1.064
 30
0.0
 10
-9.8563
 20
-1.064
 30
0.0
 10
-9.8754
 20
-1.1861
 30
0.0
 10
-9.8754
 20
-1.1861
 30
0.0
 10
-9.8754
 20
-1.1861
 30
0.0
 10
-9.8754
 20
-1.1861
 30
0.0
 10
-9.9097
 20
-1.2815
 30
0.0
 10
-9.9097
 20
-1.2815
 30
0.0
 10
-9.9097
 20
-1.2815
 30
0.0
 10
-9.9097
 20
-1.2815
 30
0.0
 10
-9.9783
 20
-1.3463
 30
0.0
 10
-9.9783
 20
-1.3463
 30
0.0
 10
-9.9783
 20
-1.3463
 30
0.0
 10
-9.9783
 20
-1.3463
 30
0.0
 10
-10.043
 20
-1.3501
 30
0.0
 10
-10.043
 20
-1.3501
 30
0.0
 10
-10.043
 20
-1.3501
 30
0.0
 10
-10.043
 20
-1.3501
 30
0.0
 10
-10.1115
 20
-1.3501
 30
0.0
 10
-10.1115
 20
-1.3501
 30
0.0
 10
-10.1115
 20
-1.3501
 30
0.0
 10
-10.1115
 20
-1.3501
 30
0.0
 10
-10.1685
 20
-1.3195
 30
0.0
 10
-10.1685
 20
-1.3195
 30
0.0
 10
-10.1685
 20
-1.3195
 30
0.0
 10
-10.1685
 20
-1.3195
 30
0.0
 10
-10.2182
 20
-1.2624
 30
0.0
 10
-10.2182
 20
-1.2624
 30
0.0
 10
-10.2182
 20
-1.2624
 30
0.0
 10
-10.2182
 20
-1.2624
 30
0.0
 10
-10.2562
 20
-1.19
 30
0.0
 10
-10.2562
 20
-1.19
 30
0.0
 10
-10.2562
 20
-1.19
 30
0.0
 10
-10.2562
 20
-1.19
 30
0.0
 10
-10.2751
 20
-1.0946
 30
0.0
 10
-10.2751
 20
-1.0946
 30
0.0
 10
-10.2751
 20
-1.0946
 30
0.0
 10
-10.2751
 20
-1.0946
 30
0.0
 10
-10.4617
 20
0.4081
 30
0.0
 10
-10.4617
 20
0.4081
 30
0.0
  0
SPLINE
  5
BF
330
1F
100
AcDbEntity
  8
DEFAULT_1
 62
   250
100
AcDbSpline
210
0.0
220
0.0
230
1.0
 70
    24
 71
     3
 72
     8
 73
     4
 74
     0
 42
0.0000000001
 43
0.0000000001
 40
0.0
 40
0.0
 40
0.0
 40
0.0
 40
1.0
 40
1.0
 40
1.0
 40
1.0
 10
15.1709
 20
14.3395
 30
0.0
 10
15.1709
 20
14.3395
 30
0.0
 10
15.4508
 20
12.8113
 30
0.0
 10
15.4508
 20
12.8113
 30
0.0
  0
SPLINE
  5
C0
330
1F
100
AcDbEntity
  8
DEFAULT_1
 62
   250
100
AcDbSpline
210
0.0
220
0.0
230
1.0
 70
    24
 71
     3
 72
     8
 73
     4
 74
     0
 42
0.0000000001
 43
0.0000000001
 40
0.0
 40
0.0
 40
0.0
 40
0.0
 40
1.0
 40
1.0
 40
1.0
 40
1.0
 10
15.1709
 20
-1.2152
 30
0.0
 10
15.1709
 20
-1.2152
 30
0.0
 10
15.4508
 20
0.3132
 30
0.0
 10
15.4508
 20
0.3132
 30
0.0
  0
SPLINE
  5
C1
330
1F
100
AcDbEntity
  8
DEFAULT_1
 62
   250
100
AcDbSpline
210
0.0
220
0.0
230
1.0
 70
    24
 71
     3
 72
     8
 73
     4
 74
     0
 42
0.0000000001
 43
0.0000000001
 40
0.0
 40
0.0
 40
0.0
 40
0.0
 40
1.0
 40
1.0
 40
1.0
 40
1.0
 10
14.191
 20
0.3132
 30
0.0
 10
14.191
 20
0.3132
 30
0.0
 10
14.7805
 20
-1.2481
 30
0.0
 10
14.7805
 20
-1.2481
 30
0.0
  0
SPLINE
  5
C2
330
1F
100
AcDbEntity
  8
DEFAULT_1
 62
   250
100
AcDbSpline
210
0.0
220
0.0
230
1.0
 70
    24
 71
     3
 72
     8
 73
     4
 74
     0
 42
0.0000000001
 43
0.0000000001
 40
0.0
 40
0.0
 40
0.0
 40
0.0
 40
1.0
 40
1.0
 40
1.0
 40
1.0
 10
14.191
 20
12.8113
 30
0.0
 10
14.191
 20
12.8113
 30
0.0
 10
14.7805
 20
14.3724
 30
0.0
 10
14.7805
 20
14.3724
 30
0.0
  0
SPLINE
  5
C3
330
1F
100
AcDbEntity
  8
DEFAULT_1
 62
   250
100
AcDbSpline
210
0.0
220
0.0
230
1.0
 70
    24
 71
     3
 72
     8
 73
     4
 74
     0
 42
0.0000000001
 43
0.0000000001
 40
0.0
 40
0.0
 40
0.0
 40
0.0
 40
1.0
 40
1.0
 40
1.0
 40
1.0
 10
15.4508
 20
0.3132
 30
0.0
 10
15.4508
 20
0.3132
 30
0.0
 10
17.884
 20
0.3132
 30
0.0
 10
17.884
 20
0.3132
 30
0.0
  0
SPLINE
  5
C4
330
1F
100
AcDbEntity
  8
DEFAULT_1
 62
   250
100
AcDbSpline
210
0.0
220
0.0
230
1.0
 70
    24
 71
     3
 72
     8
 73
     4
 74
     0
 42
0.0000000001
 43
0.0000000001
 40
0.0
 40
0.0
 40
0.0
 40
0.0
 40
1.0
 40
1.0
 40
1.0
 40
1.0
 10
15.4508
 20
12.8113
 30
0.0
 10
15.4508
 20
12.8113
 30
0.0
 10
17.884
 20
12.8113
 30
0.0
 10
17.884
 20
12.8113
 30
0.0
  0
SPLINE
  5
C5
330
1F
100
AcDbEntity
  8
DEFAULT_1
 62
   250
100
AcDbSpline
210
0.0
220
0.0
230
1.0
 70
     8
 71
     3
 72
    12
 73
     8
 74
     0
 42
0.0000000001
 43
0.0000000001
 40
0.0
 40
0.0
 40
0.0
 40
0.0
 40
0.3333333333333333
 40
0.3333333333333333
 40
0.3333333333333333
 40
0.3333333333333333
 40
1.0
 40
1.0
 40
1.0
 40
1.0
 10
15.1709
 20
-1.2152
 30
0.0
 10
15.1552
 20
-1.3023
 30
0.0
 10
15.0803
 20
-1.368
 30
0.0
 10
14.9891
 20
-1.3757
 30
0.0
 10
14.9891
 20
-1.3757
 30
0.0
 10
14.8974
 20
-1.3834
 30
0.0
 10
14.8125
 20
-1.331
 30
0.0
 10
14.7805
 20
-1.2481
 30
0.0
  0
SPLINE
  5
C6
330
1F
100
AcDbEntity
  8
DEFAULT_1
 62
   250
100
AcDbSpline
210
0.0
220
0.0
230
1.0
 70
     8
 71
     3
 72
    12
 73
     8
 74
     0
 42
0.0000000001
 43
0.0000000001
 40
0.0
 40
0.0
 40
0.0
 40
0.0
 40
0.3333333333333333
 40
0.3333333333333333
 40
0.3333333333333333
 40
0.3333333333333333
 40
1.0
 40
1.0
 40
1.0
 40
1.0
 10
14.7805
 20
14.3724
 30
0.0
 10
14.8125
 20
14.4552
 30
0.0
 10
14.8974
 20
14.5079
 30
0.0
 10
14.9891
 20
14.5002
 30
0.0
 10
14.9891
 20
14.5002
 30
0.0
 10
15.0803
 20
14.4925
 30
0.0
 10
15.1552
 20
14.4268
 30
0.0
 10
15.1709
 20
14.3395
 30
0.0
  0
SPLINE
  5
C7
330
1F
100
AcDbEntity
  8
DEFAULT_1
 62
   250
100
AcDbSpline
210
0.0
220
0.0
230
1.0
 70
    24
 71
     3
 72
     8
 73
     4
 74
     0
 42
0.0000000001
 43
0.0000000001
 40
0.0
 40
0.0
 40
0.0
 40
0.0
 40
1.0
 40
1.0
 40
1.0
 40
1.0
 10
13.9866
 20
14.3976
 30
0.0
 10
13.9866
 20
14.3976
 30
0.0
 10
14.191
 20
12.8113
 30
0.0
 10
14.191
 20
12.8113
 30
0.0
  0
SPLINE
  5
C8
330
1F
100
AcDbEntity
  8
DEFAULT_1
 62
   250
100
AcDbSpline
210
0.0
220
0.0
230
1.0
 70
    24
 71
     3
 72
     8
 73
     4
 74
     0
 42
0.0000000001
 43
0.0000000001
 40
0.0
 40
0.0
 40
0.0
 40
0.0
 40
1.0
 40
1.0
 40
1.0
 40
1.0
 10
14.191
 20
0.3132
 30
0.0
 10
14.191
 20
0.3132
 30
0.0
 10
14.191
 20
12.8113
 30
0.0
 10
14.191
 20
12.8113
 30
0.0
  0
SPLINE
  5
C9
330
1F
100
AcDbEntity
  8
DEFAULT_1
 62
   250
100
AcDbSpline
210
0.0
220
0.0
230
1.0
 70
    24
 71
     3
 72
     8
 73
     4
 74
     0
 42
0.0000000001
 43
0.0000000001
 40
0.0
 40
0.0
 40
0.0
 40
0.0
 40
1.0
 40
1.0
 40
1.0
 40
1.0
 10
11.8232
 20
-0.1166
 30
0.0
 10
11.8232
 20
-0.1166
 30
0.0
 10
11.8232
 20
12.8792
 30
0.0
 10
11.8232
 20
12.8792
 30
0.0
  0
SPLINE
  5
CA
330
1F
100
AcDbEntity
  8
DEFAULT_1
 62
   250
100
AcDbSpline
210
0.0
220
0.0
230
1.0
 70
    24
 71
     3
 72
     8
 73
     4
 74
     0
 42
0.0000000001
 43
0.0000000001
 40
0.0
 40
0.0
 40
0.0
 40
0.0
 40
1.0
 40
1.0
 40
1.0
 40
1.0
 10
10.2686
 20
0.155
 30
0.0
 10
10.2686
 20
0.155
 30
0.0
 10
10.2686
 20
13.2868
 30
0.0
 10
10.2686
 20
13.2868
 30
0.0
  0
SPLINE
  5
CB
330
1F
100
AcDbEntity
  8
DEFAULT_1
 62
   250
100
AcDbSpline
210
0.0
220
0.0
230
1.0
 70
    24
 71
     3
 72
     8
 73
     4
 74
     0
 42
0.0000000001
 43
0.0000000001
 40
0.0
 40
0.0
 40
0.0
 40
0.0
 40
1.0
 40
1.0
 40
1.0
 40
1.0
 10
13.3798
 20
12.8113
 30
0.0
 10
13.3798
 20
12.8113
 30
0.0
 10
13.5839
 20
14.3976
 30
0.0
 10
13.5839
 20
14.3976
 30
0.0
  0
SPLINE
  5
CC
330
1F
100
AcDbEntity
  8
DEFAULT_1
 62
   250
100
AcDbSpline
210
0.0
220
0.0
230
1.0
 70
    24
 71
     3
 72
     8
 73
     4
 74
     0
 42
0.0000000001
 43
0.0000000001
 40
0.0
 40
0.0
 40
0.0
 40
0.0
 40
1.0
 40
1.0
 40
1.0
 40
1.0
 10
8.7148
 20
-0.1507
 30
0.0
 10
8.7148
 20
-0.1507
 30
0.0
 10
8.7148
 20
13.0153
 30
0.0
 10
8.7148
 20
13.0153
 30
0.0
  0
SPLINE
  5
CD
330
1F
100
AcDbEntity
  8
DEFAULT_1
 62
   250
100
AcDbSpline
210
0.0
220
0.0
230
1.0
 70
    24
 71
     3
 72
     8
 73
     4
 74
     0
 42
0.0000000001
 43
0.0000000001
 40
0.0
 40
0.0
 40
0.0
 40
0.0
 40
1.0
 40
1.0
 40
1.0
 40
1.0
 10
7.0924
 20
0.0871
 30
0.0
 10
7.0924
 20
0.0871
 30
0.0
 10
7.0924
 20
12.9812
 30
0.0
 10
7.0924
 20
12.9812
 30
0.0
  0
SPLINE
  5
CE
330
1F
100
AcDbEntity
  8
DEFAULT_1
 62
   250
100
AcDbSpline
210
0.0
220
0.0
230
1.0
 70
    24
 71
     3
 72
     8
 73
     4
 74
     0
 42
0.0000000001
 43
0.0000000001
 40
0.0
 40
0.0
 40
0.0
 40
0.0
 40
1.0
 40
1.0
 40
1.0
 40
1.0
 10
5.5381
 20
0.0533
 30
0.0
 10
5.5381
 20
0.0533
 30
0.0
 10
5.5381
 20
12.981
 30
0.0
 10
5.5381
 20
12.981
 30
0.0
  0
SPLINE
  5
CF
330
1F
100
AcDbEntity
  8
DEFAULT_1
 62
   250
100
AcDbSpline
210
0.0
220
0.0
230
1.0
 70
    24
 71
     3
 72
     8
 73
     4
 74
     0
 42
0.0000000001
 43
0.0000000001
 40
0.0
 40
0.0
 40
0.0
 40
0.0
 40
1.0
 40
1.0
 40
1.0
 40
1.0
 10
3.9834
 20
0.0533
 30
0.0
 10
3.9834
 20
0.0533
 30
0.0
 10
3.9834
 20
13.015
 30
0.0
 10
3.9834
 20
13.015
 30
0.0
  0
SPLINE
  5
D0
330
1F
100
AcDbEntity
  8
DEFAULT_1
 62
   250
100
AcDbSpline
210
0.0
220
0.0
230
1.0
 70
    24
 71
     3
 72
     8
 73
     4
 74
     0
 42
0.0000000001
 43
0.0000000001
 40
0.0
 40
0.0
 40
0.0
 40
0.0
 40
1.0
 40
1.0
 40
1.0
 40
1.0
 10
2.4291
 20
0.347
 30
0.0
 10
2.4291
 20
0.347
 30
0.0
 10
2.4291
 20
12.8452
 30
0.0
 10
2.4291
 20
12.8452
 30
0.0
  0
SPLINE
  5
D1
330
1F
100
AcDbEntity
  8
DEFAULT_1
 62
   250
100
AcDbSpline
210
0.0
220
0.0
230
1.0
 70
    24
 71
     3
 72
     8
 73
     4
 74
     0
 42
0.0000000001
 43
0.0000000001
 40
0.0
 40
0.0
 40
0.0
 40
0.0
 40
1.0
 40
1.0
 40
1.0
 40
1.0
 10
0.9084
 20
-0.0487
 30
0.0
 10
0.9084
 20
-0.0487
 30
0.0
 10
0.9084
 20
12.981
 30
0.0
 10
0.9084
 20
12.981
 30
0.0
  0
SPLINE
  5
D2
330
1F
100
AcDbEntity
  8
DEFAULT_1
 62
   250
100
AcDbSpline
210
0.0
220
0.0
230
1.0
 70
    24
 71
     3
 72
     8
 73
     4
 74
     0
 42
0.0000000001
 43
0.0000000001
 40
0.0
 40
0.0
 40
0.0
 40
0.0
 40
1.0
 40
1.0
 40
1.0
 40
1.0
 10
-0.7126
 20
0.155
 30
0.0
 10
-0.7126
 20
0.155
 30
0.0
 10
-0.7126
 20
13.0153
 30
0.0
 10
-0.7126
 20
13.0153
 30
0.0
  0
SPLINE
  5
D3
330
1F
100
AcDbEntity
  8
DEFAULT_1
 62
   250
100
AcDbSpline
210
0.0
220
0.0
230
1.0
 70
    24
 71
     3
 72
     8
 73
     4
 74
     0
 42
0.0000000001
 43
0.0000000001
 40
0.0
 40
0.0
 40
0.0
 40
0.0
 40
1.0
 40
1.0
 40
1.0
 40
1.0
 10
-2.2678
 20
0.0871
 30
0.0
 10
-2.2678
 20
0.0871
 30
0.0
 10
-2.2678
 20
12.9812
 30
0.0
 10
-2.2678
 20
12.9812
 30
0.0
  0
SPLINE
  5
D4
330
1F
100
AcDbEntity
  8
DEFAULT_1
 62
   250
100
AcDbSpline
210
0.0
220
0.0
230
1.0
 70
    24
 71
     3
 72
     8
 73
     4
 74
     0
 42
0.0000000001
 43
0.0000000001
 40
0.0
 40
0.0
 40
0.0
 40
0.0
 40
1.0
 40
1.0
 40
1.0
 40
1.0
 10
-3.8517
 20
0.0082
 30
0.0
 10
-3.8517
 20
0.0082
 30
0.0
 10
-3.8517
 20
12.9821
 30
0.0
 10
-3.8517
 20
12.9821
 30
0.0
  0
SPLINE
  5
D5
330
1F
100
AcDbEntity
  8
DEFAULT_1
 62
   250
100
AcDbSpline
210
0.0
220
0.0
230
1.0
 70
    24
 71
     3
 72
     8
 73
     4
 74
     0
 42
0.0000000001
 43
0.0000000001
 40
0.0
 40
0.0
 40
0.0
 40
0.0
 40
1.0
 40
1.0
 40
1.0
 40
1.0
 10
-5.3883
 20
0.3132
 30
0.0
 10
-5.3883
 20
0.3132
 30
0.0
 10
-5.3883
 20
13.1403
 30
0.0
 10
-5.3883
 20
13.1403
 30
0.0
  0
SPLINE
  5
D6
330
1F
100
AcDbEntity
  8
DEFAULT_1
 62
   250
100
AcDbSpline
210
0.0
220
0.0
230
1.0
 70
    24
 71
     3
 72
     8
 73
     4
 74
     0
 42
0.0000000001
 43
0.0000000001
 40
0.0
 40
0.0
 40
0.0
 40
0.0
 40
1.0
 40
1.0
 40
1.0
 40
1.0
 10
-6.9136
 20
0.0131
 30
0.0
 10
-6.9136
 20
0.0131
 30
0.0
 10
-6.9136
 20
12.8732
 30
0.0
 10
-6.9136
 20
12.8732
 30
0.0
  0
SPLINE
  5
D7
330
1F
100
AcDbEntity
  8
DEFAULT_1
 62
   250
100
AcDbSpline
210
0.0
220
0.0
230
1.0
 70
    24
 71
     3
 72
     8
 73
     4
 74
     0
 42
0.0000000001
 43
0.0000000001
 40
0.0
 40
0.0
 40
0.0
 40
0.0
 40
1.0
 40
1.0
 40
1.0
 40
1.0
 10
-8.5192
 20
0.3132
 30
0.0
 10
-8.5192
 20
0.3132
 30
0.0
 10
-8.5192
 20
2.2323
 30
0.0
 10
-8.5192
 20
2.2323
 30
0.0
  0
SPLINE
  5
D8
330
1F
100
AcDbEntity
  8
DEFAULT_1
 62
   250
100
AcDbSpline
210
0.0
220
0.0
230
1.0
 70
     8
 71
     3
 72
    12
 73
     8
 74
     0
 42
0.0000000001
 43
0.0000000001
 40
0.0
 40
0.0
 40
0.0
 40
0.0
 40
0.3333333333333333
 40
0.3333333333333333
 40
0.3333333333333333
 40
0.3333333333333333
 40
1.0
 40
1.0
 40
1.0
 40
1.0
 10
13.5839
 20
14.3976
 30
0.0
 10
13.5967
 20
14.4958
 30
0.0
 10
13.6828
 20
14.5691
 30
0.0
 10
13.7853
 20
14.5691
 30
0.0
 10
13.7853
 20
14.5691
 30
0.0
 10
13.8877
 20
14.5691
 30
0.0
 10
13.9738
 20
14.4958
 30
0.0
 10
13.9866
 20
14.3976
 30
0.0
  0
SPLINE
  5
D9
330
1F
100
AcDbEntity
  8
DEFAULT_1
 62
   250
100
AcDbSpline
210
0.0
220
0.0
230
1.0
 70
     8
 71
     3
 72
    36
 73
    32
 74
     0
 42
0.0000000001
 43
0.0000000001
 40
0.0
 40
0.0
 40
0.0
 40
0.0
 40
0.1111111111111111
 40
0.1111111111111111
 40
0.1111111111111111
 40
0.1111111111111111
 40
0.2222222222222222
 40
0.2222222222222222
 40
0.2222222222222222
 40
0.2222222222222222
 40
0.3333333333333333
 40
0.3333333333333333
 40
0.3333333333333333
 40
0.3333333333333333
 40
0.4444444444444444
 40
0.4444444444444444
 40
0.4444444444444444
 40
0.4444444444444444
 40
0.5555555555555556
 40
0.5555555555555556
 40
0.5555555555555556
 40
0.5555555555555556
 40
0.6666666666666666
 40
0.6666666666666666
 40
0.6666666666666666
 40
0.6666666666666666
 40
0.7777777777777778
 40
0.7777777777777778
 40
0.7777777777777778
 40
0.7777777777777778
 40
1.0
 40
1.0
 40
1.0
 40
1.0
 10
-8.5615
 20
11.6877
 30
0.0
 10
-8.5615
 20
11.6877
 30
0.0
 10
-8.4091
 20
10.9869
 30
0.0
 10
-8.4091
 20
10.9869
 30
0.0
 10
-8.4091
 20
10.9869
 30
0.0
 10
-8.4091
 20
10.9869
 30
0.0
 10
-8.3002
 20
9.8656
 30
0.0
 10
-8.3002
 20
9.8656
 30
0.0
 10
-8.3002
 20
9.8656
 30
0.0
 10
-8.3002
 20
9.8656
 30
0.0
 10
-8.2129
 20
8.8843
 30
0.0
 10
-8.2129
 20
8.8843
 30
0.0
 10
-8.2129
 20
8.8843
 30
0.0
 10
-8.2129
 20
8.8843
 30
0.0
 10
-8.1912
 20
7.9593
 30
0.0
 10
-8.1912
 20
7.9593
 30
0.0
 10
-8.1912
 20
7.9593
 30
0.0
 10
-8.1912
 20
7.9593
 30
0.0
 10
-8.1912
 20
7.0622
 30
0.0
 10
-8.1912
 20
7.0622
 30
0.0
 10
-8.1912
 20
7.0622
 30
0.0
 10
-8.1912
 20
7.0622
 30
0.0
 10
-8.2129
 20
6.1372
 30
0.0
 10
-8.2129
 20
6.1372
 30
0.0
 10
-8.2129
 20
6.1372
 30
0.0
 10
-8.2129
 20
6.1372
 30
0.0
 10
-8.3872
 20
4.5952
 30
0.0
 10
-8.3872
 20
4.5952
 30
0.0
 10
-8.3872
 20
4.5952
 30
0.0
 10
-8.3872
 20
4.5952
 30
0.0
 10
-8.5941
 20
2.2141
 30
0.0
 10
-8.5941
 20
2.2141
 30
0.0
  0
SPLINE
  5
DA
330
1F
100
AcDbEntity
  8
DEFAULT_1
 62
   250
100
AcDbSpline
210
0.0
220
0.0
230
1.0
 70
    24
 71
     3
 72
     8
 73
     4
 74
     0
 42
0.0000000001
 43
0.0000000001
 40
0.0
 40
0.0
 40
0.0
 40
0.0
 40
1.0
 40
1.0
 40
1.0
 40
1.0
 10
-8.5209
 20
11.7204
 30
0.0
 10
-8.5209
 20
11.7204
 30
0.0
 10
-8.5209
 20
12.8713
 30
0.0
 10
-8.5209
 20
12.8713
 30
0.0
  0
SPLINE
  5
DB
330
1F
100
AcDbEntity
  8
DEFAULT_1
 62
   250
100
AcDbSpline
210
0.0
220
0.0
230
1.0
 70
    24
 71
     3
 72
     8
 73
     4
 74
     0
 42
0.0000000001
 43
0.0000000001
 40
0.0
 40
0.0
 40
0.0
 40
0.0
 40
1.0
 40
1.0
 40
1.0
 40
1.0
 10
15.4508
 20
0.3132
 30
0.0
 10
15.4508
 20
0.3132
 30
0.0
 10
15.4508
 20
12.8113
 30
0.0
 10
15.4508
 20
12.8113
 30
0.0
  0
SPLINE
  5
DC
330
1F
100
AcDbEntity
  8
DEFAULT_1
 62
   250
100
AcDbSpline
210
0.0
220
0.0
230
1.0
 70
     8
 71
     3
 72
    40
 73
    36
 74
     0
 42
0.0000000001
 43
0.0000000001
 40
0.0
 40
0.0
 40
0.0
 40
0.0
 40
0.1
 40
0.1
 40
0.1
 40
0.1
 40
0.2
 40
0.2
 40
0.2
 40
0.2
 40
0.3
 40
0.3
 40
0.3
 40
0.3
 40
0.4
 40
0.4
 40
0.4
 40
0.4
 40
0.5
 40
0.5
 40
0.5
 40
0.5
 40
0.6
 40
0.6
 40
0.6
 40
0.6
 40
0.7
 40
0.7
 40
0.7
 40
0.7
 40
0.8
 40
0.8
 40
0.8
 40
0.8
 40
1.0
 40
1.0
 40
1.0
 40
1.0
 10
-30.7696
 20
12.8963
 30
0.0
 10
-30.7696
 20
12.8963
 30
0.0
 10
-30.5729
 20
14.4825
 30
0.0
 10
-30.5729
 20
14.4825
 30
0.0
 10
-30.5729
 20
14.4825
 30
0.0
 10
-30.5729
 20
14.4825
 30
0.0
 10
-30.4423
 20
14.6498
 30
0.0
 10
-30.4423
 20
14.6498
 30
0.0
 10
-30.4423
 20
14.6498
 30
0.0
 10
-30.4423
 20
14.6498
 30
0.0
 10
-30.229
 20
14.6958
 30
0.0
 10
-30.229
 20
14.6958
 30
0.0
 10
-30.229
 20
14.6958
 30
0.0
 10
-30.229
 20
14.6958
 30
0.0
 10
-29.9397
 20
14.6958
 30
0.0
 10
-29.9397
 20
14.6958
 30
0.0
 10
-29.9397
 20
14.6958
 30
0.0
 10
-29.9397
 20
14.6958
 30
0.0
 10
-29.7419
 20
14.6804
 30
0.0
 10
-29.7419
 20
14.6804
 30
0.0
 10
-29.7419
 20
14.6804
 30
0.0
 10
-29.7419
 20
14.6804
 30
0.0
 10
-29.5592
 20
14.6652
 30
0.0
 10
-29.5592
 20
14.6652
 30
0.0
 10
-29.5592
 20
14.6652
 30
0.0
 10
-29.5592
 20
14.6652
 30
0.0
 10
-29.4526
 20
14.4669
 30
0.0
 10
-29.4526
 20
14.4669
 30
0.0
 10
-29.4526
 20
14.4669
 30
0.0
 10
-29.4526
 20
14.4669
 30
0.0
 10
-29.3765
 20
14.2226
 30
0.0
 10
-29.3765
 20
14.2226
 30
0.0
 10
-29.3765
 20
14.2226
 30
0.0
 10
-29.3765
 20
14.2226
 30
0.0
 10
-29.2242
 20
12.8566
 30
0.0
 10
-29.2242
 20
12.8566
 30
0.0
  0
SPLINE
  5
DD
330
1F
100
AcDbEntity
  8
DEFAULT_1
 62
   250
100
AcDbSpline
210
0.0
220
0.0
230
1.0
 70
     8
 71
     3
 72
    40
 73
    36
 74
     0
 42
0.0000000001
 43
0.0000000001
 40
0.0
 40
0.0
 40
0.0
 40
0.0
 40
0.1
 40
0.1
 40
0.1
 40
0.1
 40
0.2
 40
0.2
 40
0.2
 40
0.2
 40
0.3
 40
0.3
 40
0.3
 40
0.3
 40
0.4
 40
0.4
 40
0.4
 40
0.4
 40
0.5
 40
0.5
 40
0.5
 40
0.5
 40
0.6
 40
0.6
 40
0.6
 40
0.6
 40
0.7
 40
0.7
 40
0.7
 40
0.7
 40
0.8
 40
0.8
 40
0.8
 40
0.8
 40
1.0
 40
1.0
 40
1.0
 40
1.0
 10
-29.1969
 20
12.8893
 30
0.0
 10
-29.1969
 20
12.8893
 30
0.0
 10
-29.0002
 20
14.4755
 30
0.0
 10
-29.0002
 20
14.4755
 30
0.0
 10
-29.0002
 20
14.4755
 30
0.0
 10
-29.0002
 20
14.4755
 30
0.0
 10
-28.8696
 20
14.6428
 30
0.0
 10
-28.8696
 20
14.6428
 30
0.0
 10
-28.8696
 20
14.6428
 30
0.0
 10
-28.8696
 20
14.6428
 30
0.0
 10
-28.6563
 20
14.6888
 30
0.0
 10
-28.6563
 20
14.6888
 30
0.0
 10
-28.6563
 20
14.6888
 30
0.0
 10
-28.6563
 20
14.6888
 30
0.0
 10
-28.367
 20
14.6888
 30
0.0
 10
-28.367
 20
14.6888
 30
0.0
 10
-28.367
 20
14.6888
 30
0.0
 10
-28.367
 20
14.6888
 30
0.0
 10
-28.1692
 20
14.6734
 30
0.0
 10
-28.1692
 20
14.6734
 30
0.0
 10
-28.1692
 20
14.6734
 30
0.0
 10
-28.1692
 20
14.6734
 30
0.0
 10
-27.9865
 20
14.6582
 30
0.0
 10
-27.9865
 20
14.6582
 30
0.0
 10
-27.9865
 20
14.6582
 30
0.0
 10
-27.9865
 20
14.6582
 30
0.0
 10
-27.8799
 20
14.4599
 30
0.0
 10
-27.8799
 20
14.4599
 30
0.0
 10
-27.8799
 20
14.4599
 30
0.0
 10
-27.8799
 20
14.4599
 30
0.0
 10
-27.8038
 20
14.2156
 30
0.0
 10
-27.8038
 20
14.2156
 30
0.0
 10
-27.8038
 20
14.2156
 30
0.0
 10
-27.8038
 20
14.2156
 30
0.0
 10
-27.6515
 20
12.8636
 30
0.0
 10
-27.6515
 20
12.8636
 30
0.0
  0
SPLINE
  5
DE
330
1F
100
AcDbEntity
  8
DEFAULT_1
 62
   250
100
AcDbSpline
210
0.0
220
0.0
230
1.0
 70
     8
 71
     3
 72
    40
 73
    36
 74
     0
 42
0.0000000001
 43
0.0000000001
 40
0.0
 40
0.0
 40
0.0
 40
0.0
 40
0.1
 40
0.1
 40
0.1
 40
0.1
 40
0.2
 40
0.2
 40
0.2
 40
0.2
 40
0.3
 40
0.3
 40
0.3
 40
0.3
 40
0.4
 40
0.4
 40
0.4
 40
0.4
 40
0.5
 40
0.5
 40
0.5
 40
0.5
 40
0.6
 40
0.6
 40
0.6
 40
0.6
 40
0.7
 40
0.7
 40
0.7
 40
0.7
 40
0.8
 40
0.8
 40
0.8
 40
0.8
 40
1.0
 40
1.0
 40
1.0
 40
1.0
 10
-27.6321
 20
12.8963
 30
0.0
 10
-27.6321
 20
12.8963
 30
0.0
 10
-27.4354
 20
14.4825
 30
0.0
 10
-27.4354
 20
14.4825
 30
0.0
 10
-27.4354
 20
14.4825
 30
0.0
 10
-27.4354
 20
14.4825
 30
0.0
 10
-27.3048
 20
14.6498
 30
0.0
 10
-27.3048
 20
14.6498
 30
0.0
 10
-27.3048
 20
14.6498
 30
0.0
 10
-27.3048
 20
14.6498
 30
0.0
 10
-27.0915
 20
14.6958
 30
0.0
 10
-27.0915
 20
14.6958
 30
0.0
 10
-27.0915
 20
14.6958
 30
0.0
 10
-27.0915
 20
14.6958
 30
0.0
 10
-26.8022
 20
14.6958
 30
0.0
 10
-26.8022
 20
14.6958
 30
0.0
 10
-26.8022
 20
14.6958
 30
0.0
 10
-26.8022
 20
14.6958
 30
0.0
 10
-26.6044
 20
14.6804
 30
0.0
 10
-26.6044
 20
14.6804
 30
0.0
 10
-26.6044
 20
14.6804
 30
0.0
 10
-26.6044
 20
14.6804
 30
0.0
 10
-26.4217
 20
14.6652
 30
0.0
 10
-26.4217
 20
14.6652
 30
0.0
 10
-26.4217
 20
14.6652
 30
0.0
 10
-26.4217
 20
14.6652
 30
0.0
 10
-26.3151
 20
14.4669
 30
0.0
 10
-26.3151
 20
14.4669
 30
0.0
 10
-26.3151
 20
14.4669
 30
0.0
 10
-26.3151
 20
14.4669
 30
0.0
 10
-26.239
 20
14.2226
 30
0.0
 10
-26.239
 20
14.2226
 30
0.0
 10
-26.239
 20
14.2226
 30
0.0
 10
-26.239
 20
14.2226
 30
0.0
 10
-26.0867
 20
12.8566
 30
0.0
 10
-26.0867
 20
12.8566
 30
0.0
  0
SPLINE
  5
DF
330
1F
100
AcDbEntity
  8
DEFAULT_1
 62
   250
100
AcDbSpline
210
0.0
220
0.0
230
1.0
 70
     8
 71
     3
 72
    40
 73
    36
 74
     0
 42
0.0000000001
 43
0.0000000001
 40
0.0
 40
0.0
 40
0.0
 40
0.0
 40
0.1
 40
0.1
 40
0.1
 40
0.1
 40
0.2
 40
0.2
 40
0.2
 40
0.2
 40
0.3
 40
0.3
 40
0.3
 40
0.3
 40
0.4
 40
0.4
 40
0.4
 40
0.4
 40
0.5
 40
0.5
 40
0.5
 40
0.5
 40
0.6
 40
0.6
 40
0.6
 40
0.6
 40
0.7
 40
0.7
 40
0.7
 40
0.7
 40
0.8
 40
0.8
 40
0.8
 40
0.8
 40
1.0
 40
1.0
 40
1.0
 40
1.0
 10
-26.0783
 20
12.8659
 30
0.0
 10
-26.0783
 20
12.8659
 30
0.0
 10
-25.8816
 20
14.4522
 30
0.0
 10
-25.8816
 20
14.4522
 30
0.0
 10
-25.8816
 20
14.4522
 30
0.0
 10
-25.8816
 20
14.4522
 30
0.0
 10
-25.751
 20
14.6195
 30
0.0
 10
-25.751
 20
14.6195
 30
0.0
 10
-25.751
 20
14.6195
 30
0.0
 10
-25.751
 20
14.6195
 30
0.0
 10
-25.5377
 20
14.6654
 30
0.0
 10
-25.5377
 20
14.6654
 30
0.0
 10
-25.5377
 20
14.6654
 30
0.0
 10
-25.5377
 20
14.6654
 30
0.0
 10
-25.2484
 20
14.6654
 30
0.0
 10
-25.2484
 20
14.6654
 30
0.0
 10
-25.2484
 20
14.6654
 30
0.0
 10
-25.2484
 20
14.6654
 30
0.0
 10
-25.0506
 20
14.65
 30
0.0
 10
-25.0506
 20
14.65
 30
0.0
 10
-25.0506
 20
14.65
 30
0.0
 10
-25.0506
 20
14.65
 30
0.0
 10
-24.8679
 20
14.6349
 30
0.0
 10
-24.8679
 20
14.6349
 30
0.0
 10
-24.8679
 20
14.6349
 30
0.0
 10
-24.8679
 20
14.6349
 30
0.0
 10
-24.7613
 20
14.4365
 30
0.0
 10
-24.7613
 20
14.4365
 30
0.0
 10
-24.7613
 20
14.4365
 30
0.0
 10
-24.7613
 20
14.4365
 30
0.0
 10
-24.6852
 20
14.1923
 30
0.0
 10
-24.6852
 20
14.1923
 30
0.0
 10
-24.6852
 20
14.1923
 30
0.0
 10
-24.6852
 20
14.1923
 30
0.0
 10
-24.5329
 20
12.8403
 30
0.0
 10
-24.5329
 20
12.8403
 30
0.0
  0
SPLINE
  5
E0
330
1F
100
AcDbEntity
  8
DEFAULT_1
 62
   250
100
AcDbSpline
210
0.0
220
0.0
230
1.0
 70
     8
 71
     3
 72
    40
 73
    36
 74
     0
 42
0.0000000001
 43
0.0000000001
 40
0.0
 40
0.0
 40
0.0
 40
0.0
 40
0.1
 40
0.1
 40
0.1
 40
0.1
 40
0.2
 40
0.2
 40
0.2
 40
0.2
 40
0.3
 40
0.3
 40
0.3
 40
0.3
 40
0.4
 40
0.4
 40
0.4
 40
0.4
 40
0.5
 40
0.5
 40
0.5
 40
0.5
 40
0.6
 40
0.6
 40
0.6
 40
0.6
 40
0.7
 40
0.7
 40
0.7
 40
0.7
 40
0.8
 40
0.8
 40
0.8
 40
0.8
 40
1.0
 40
1.0
 40
1.0
 40
1.0
 10
-24.5135
 20
12.8729
 30
0.0
 10
-24.5135
 20
12.8729
 30
0.0
 10
-24.3168
 20
14.4592
 30
0.0
 10
-24.3168
 20
14.4592
 30
0.0
 10
-24.3168
 20
14.4592
 30
0.0
 10
-24.3168
 20
14.4592
 30
0.0
 10
-24.1862
 20
14.6265
 30
0.0
 10
-24.1862
 20
14.6265
 30
0.0
 10
-24.1862
 20
14.6265
 30
0.0
 10
-24.1862
 20
14.6265
 30
0.0
 10
-23.9729
 20
14.6724
 30
0.0
 10
-23.9729
 20
14.6724
 30
0.0
 10
-23.9729
 20
14.6724
 30
0.0
 10
-23.9729
 20
14.6724
 30
0.0
 10
-23.6836
 20
14.6724
 30
0.0
 10
-23.6836
 20
14.6724
 30
0.0
 10
-23.6836
 20
14.6724
 30
0.0
 10
-23.6836
 20
14.6724
 30
0.0
 10
-23.4858
 20
14.657
 30
0.0
 10
-23.4858
 20
14.657
 30
0.0
 10
-23.4858
 20
14.657
 30
0.0
 10
-23.4858
 20
14.657
 30
0.0
 10
-23.3031
 20
14.6419
 30
0.0
 10
-23.3031
 20
14.6419
 30
0.0
 10
-23.3031
 20
14.6419
 30
0.0
 10
-23.3031
 20
14.6419
 30
0.0
 10
-23.1965
 20
14.4435
 30
0.0
 10
-23.1965
 20
14.4435
 30
0.0
 10
-23.1965
 20
14.4435
 30
0.0
 10
-23.1965
 20
14.4435
 30
0.0
 10
-23.1204
 20
14.1993
 30
0.0
 10
-23.1204
 20
14.1993
 30
0.0
 10
-23.1204
 20
14.1993
 30
0.0
 10
-23.1204
 20
14.1993
 30
0.0
 10
-22.9681
 20
12.8333
 30
0.0
 10
-22.9681
 20
12.8333
 30
0.0
  0
SPLINE
  5
E1
330
1F
100
AcDbEntity
  8
DEFAULT_1
 62
   250
100
AcDbSpline
210
0.0
220
0.0
230
1.0
 70
     8
 71
     3
 72
    40
 73
    36
 74
     0
 42
0.0000000001
 43
0.0000000001
 40
0.0
 40
0.0
 40
0.0
 40
0.0
 40
0.1
 40
0.1
 40
0.1
 40
0.1
 40
0.2
 40
0.2
 40
0.2
 40
0.2
 40
0.3
 40
0.3
 40
0.3
 40
0.3
 40
0.4
 40
0.4
 40
0.4
 40
0.4
 40
0.5
 40
0.5
 40
0.5
 40
0.5
 40
0.6
 40
0.6
 40
0.6
 40
0.6
 40
0.7
 40
0.7
 40
0.7
 40
0.7
 40
0.8
 40
0.8
 40
0.8
 40
0.8
 40
1.0
 40
1.0
 40
1.0
 40
1.0
 10
-22.9408
 20
12.8659
 30
0.0
 10
-22.9408
 20
12.8659
 30
0.0
 10
-22.7441
 20
14.4522
 30
0.0
 10
-22.7441
 20
14.4522
 30
0.0
 10
-22.7441
 20
14.4522
 30
0.0
 10
-22.7441
 20
14.4522
 30
0.0
 10
-22.6135
 20
14.6195
 30
0.0
 10
-22.6135
 20
14.6195
 30
0.0
 10
-22.6135
 20
14.6195
 30
0.0
 10
-22.6135
 20
14.6195
 30
0.0
 10
-22.4002
 20
14.6654
 30
0.0
 10
-22.4002
 20
14.6654
 30
0.0
 10
-22.4002
 20
14.6654
 30
0.0
 10
-22.4002
 20
14.6654
 30
0.0
 10
-22.1109
 20
14.6654
 30
0.0
 10
-22.1109
 20
14.6654
 30
0.0
 10
-22.1109
 20
14.6654
 30
0.0
 10
-22.1109
 20
14.6654
 30
0.0
 10
-21.9131
 20
14.65
 30
0.0
 10
-21.9131
 20
14.65
 30
0.0
 10
-21.9131
 20
14.65
 30
0.0
 10
-21.9131
 20
14.65
 30
0.0
 10
-21.7304
 20
14.6349
 30
0.0
 10
-21.7304
 20
14.6349
 30
0.0
 10
-21.7304
 20
14.6349
 30
0.0
 10
-21.7304
 20
14.6349
 30
0.0
 10
-21.6238
 20
14.4365
 30
0.0
 10
-21.6238
 20
14.4365
 30
0.0
 10
-21.6238
 20
14.4365
 30
0.0
 10
-21.6238
 20
14.4365
 30
0.0
 10
-21.5477
 20
14.1923
 30
0.0
 10
-21.5477
 20
14.1923
 30
0.0
 10
-21.5477
 20
14.1923
 30
0.0
 10
-21.5477
 20
14.1923
 30
0.0
 10
-21.3954
 20
12.8403
 30
0.0
 10
-21.3954
 20
12.8403
 30
0.0
  0
SPLINE
  5
E2
330
1F
100
AcDbEntity
  8
DEFAULT_1
 62
   250
100
AcDbSpline
210
0.0
220
0.0
230
1.0
 70
     8
 71
     3
 72
    40
 73
    36
 74
     0
 42
0.0000000001
 43
0.0000000001
 40
0.0
 40
0.0
 40
0.0
 40
0.0
 40
0.1
 40
0.1
 40
0.1
 40
0.1
 40
0.2
 40
0.2
 40
0.2
 40
0.2
 40
0.3
 40
0.3
 40
0.3
 40
0.3
 40
0.4
 40
0.4
 40
0.4
 40
0.4
 40
0.5
 40
0.5
 40
0.5
 40
0.5
 40
0.6
 40
0.6
 40
0.6
 40
0.6
 40
0.7
 40
0.7
 40
0.7
 40
0.7
 40
0.8
 40
0.8
 40
0.8
 40
0.8
 40
1.0
 40
1.0
 40
1.0
 40
1.0
 10
-21.376
 20
12.8729
 30
0.0
 10
-21.376
 20
12.8729
 30
0.0
 10
-21.1793
 20
14.4592
 30
0.0
 10
-21.1793
 20
14.4592
 30
0.0
 10
-21.1793
 20
14.4592
 30
0.0
 10
-21.1793
 20
14.4592
 30
0.0
 10
-21.0487
 20
14.6265
 30
0.0
 10
-21.0487
 20
14.6265
 30
0.0
 10
-21.0487
 20
14.6265
 30
0.0
 10
-21.0487
 20
14.6265
 30
0.0
 10
-20.8354
 20
14.6724
 30
0.0
 10
-20.8354
 20
14.6724
 30
0.0
 10
-20.8354
 20
14.6724
 30
0.0
 10
-20.8354
 20
14.6724
 30
0.0
 10
-20.5461
 20
14.6724
 30
0.0
 10
-20.5461
 20
14.6724
 30
0.0
 10
-20.5461
 20
14.6724
 30
0.0
 10
-20.5461
 20
14.6724
 30
0.0
 10
-20.3483
 20
14.657
 30
0.0
 10
-20.3483
 20
14.657
 30
0.0
 10
-20.3483
 20
14.657
 30
0.0
 10
-20.3483
 20
14.657
 30
0.0
 10
-20.1656
 20
14.6419
 30
0.0
 10
-20.1656
 20
14.6419
 30
0.0
 10
-20.1656
 20
14.6419
 30
0.0
 10
-20.1656
 20
14.6419
 30
0.0
 10
-20.059
 20
14.4435
 30
0.0
 10
-20.059
 20
14.4435
 30
0.0
 10
-20.059
 20
14.4435
 30
0.0
 10
-20.059
 20
14.4435
 30
0.0
 10
-19.9829
 20
14.1993
 30
0.0
 10
-19.9829
 20
14.1993
 30
0.0
 10
-19.9829
 20
14.1993
 30
0.0
 10
-19.9829
 20
14.1993
 30
0.0
 10
-19.8306
 20
12.8333
 30
0.0
 10
-19.8306
 20
12.8333
 30
0.0
  0
SPLINE
  5
E3
330
1F
100
AcDbEntity
  8
DEFAULT_1
 62
   250
100
AcDbSpline
210
0.0
220
0.0
230
1.0
 70
     8
 71
     3
 72
    40
 73
    36
 74
     0
 42
0.0000000001
 43
0.0000000001
 40
0.0
 40
0.0
 40
0.0
 40
0.0
 40
0.1
 40
0.1
 40
0.1
 40
0.1
 40
0.2
 40
0.2
 40
0.2
 40
0.2
 40
0.3
 40
0.3
 40
0.3
 40
0.3
 40
0.4
 40
0.4
 40
0.4
 40
0.4
 40
0.5
 40
0.5
 40
0.5
 40
0.5
 40
0.6
 40
0.6
 40
0.6
 40
0.6
 40
0.7
 40
0.7
 40
0.7
 40
0.7
 40
0.8
 40
0.8
 40
0.8
 40
0.8
 40
1.0
 40
1.0
 40
1.0
 40
1.0
 10
-19.8325
 20
12.8893
 30
0.0
 10
-19.8325
 20
12.8893
 30
0.0
 10
-19.6358
 20
14.4755
 30
0.0
 10
-19.6358
 20
14.4755
 30
0.0
 10
-19.6358
 20
14.4755
 30
0.0
 10
-19.6358
 20
14.4755
 30
0.0
 10
-19.5051
 20
14.6428
 30
0.0
 10
-19.5051
 20
14.6428
 30
0.0
 10
-19.5051
 20
14.6428
 30
0.0
 10
-19.5051
 20
14.6428
 30
0.0
 10
-19.2919
 20
14.6888
 30
0.0
 10
-19.2919
 20
14.6888
 30
0.0
 10
-19.2919
 20
14.6888
 30
0.0
 10
-19.2919
 20
14.6888
 30
0.0
 10
-19.0026
 20
14.6888
 30
0.0
 10
-19.0026
 20
14.6888
 30
0.0
 10
-19.0026
 20
14.6888
 30
0.0
 10
-19.0026
 20
14.6888
 30
0.0
 10
-18.8048
 20
14.6734
 30
0.0
 10
-18.8048
 20
14.6734
 30
0.0
 10
-18.8048
 20
14.6734
 30
0.0
 10
-18.8048
 20
14.6734
 30
0.0
 10
-18.6221
 20
14.6582
 30
0.0
 10
-18.6221
 20
14.6582
 30
0.0
 10
-18.6221
 20
14.6582
 30
0.0
 10
-18.6221
 20
14.6582
 30
0.0
 10
-18.5155
 20
14.4599
 30
0.0
 10
-18.5155
 20
14.4599
 30
0.0
 10
-18.5155
 20
14.4599
 30
0.0
 10
-18.5155
 20
14.4599
 30
0.0
 10
-18.4394
 20
14.2156
 30
0.0
 10
-18.4394
 20
14.2156
 30
0.0
 10
-18.4394
 20
14.2156
 30
0.0
 10
-18.4394
 20
14.2156
 30
0.0
 10
-18.287
 20
12.8636
 30
0.0
 10
-18.287
 20
12.8636
 30
0.0
  0
SPLINE
  5
E4
330
1F
100
AcDbEntity
  8
DEFAULT_1
 62
   250
100
AcDbSpline
210
0.0
220
0.0
230
1.0
 70
     8
 71
     3
 72
    40
 73
    36
 74
     0
 42
0.0000000001
 43
0.0000000001
 40
0.0
 40
0.0
 40
0.0
 40
0.0
 40
0.1
 40
0.1
 40
0.1
 40
0.1
 40
0.2
 40
0.2
 40
0.2
 40
0.2
 40
0.3
 40
0.3
 40
0.3
 40
0.3
 40
0.4
 40
0.4
 40
0.4
 40
0.4
 40
0.5
 40
0.5
 40
0.5
 40
0.5
 40
0.6
 40
0.6
 40
0.6
 40
0.6
 40
0.7
 40
0.7
 40
0.7
 40
0.7
 40
0.8
 40
0.8
 40
0.8
 40
0.8
 40
1.0
 40
1.0
 40
1.0
 40
1.0
 10
-18.2677
 20
12.8963
 30
0.0
 10
-18.2677
 20
12.8963
 30
0.0
 10
-18.071
 20
14.4825
 30
0.0
 10
-18.071
 20
14.4825
 30
0.0
 10
-18.071
 20
14.4825
 30
0.0
 10
-18.071
 20
14.4825
 30
0.0
 10
-17.9404
 20
14.6498
 30
0.0
 10
-17.9404
 20
14.6498
 30
0.0
 10
-17.9404
 20
14.6498
 30
0.0
 10
-17.9404
 20
14.6498
 30
0.0
 10
-17.7271
 20
14.6958
 30
0.0
 10
-17.7271
 20
14.6958
 30
0.0
 10
-17.7271
 20
14.6958
 30
0.0
 10
-17.7271
 20
14.6958
 30
0.0
 10
-17.4378
 20
14.6958
 30
0.0
 10
-17.4378
 20
14.6958
 30
0.0
 10
-17.4378
 20
14.6958
 30
0.0
 10
-17.4378
 20
14.6958
 30
0.0
 10
-17.24
 20
14.6804
 30
0.0
 10
-17.24
 20
14.6804
 30
0.0
 10
-17.24
 20
14.6804
 30
0.0
 10
-17.24
 20
14.6804
 30
0.0
 10
-17.0573
 20
14.6652
 30
0.0
 10
-17.0573
 20
14.6652
 30
0.0
 10
-17.0573
 20
14.6652
 30
0.0
 10
-17.0573
 20
14.6652
 30
0.0
 10
-16.9507
 20
14.4669
 30
0.0
 10
-16.9507
 20
14.4669
 30
0.0
 10
-16.9507
 20
14.4669
 30
0.0
 10
-16.9507
 20
14.4669
 30
0.0
 10
-16.8746
 20
14.2226
 30
0.0
 10
-16.8746
 20
14.2226
 30
0.0
 10
-16.8746
 20
14.2226
 30
0.0
 10
-16.8746
 20
14.2226
 30
0.0
 10
-16.7223
 20
12.8566
 30
0.0
 10
-16.7223
 20
12.8566
 30
0.0
  0
SPLINE
  5
E5
330
1F
100
AcDbEntity
  8
DEFAULT_1
 62
   250
100
AcDbSpline
210
0.0
220
0.0
230
1.0
 70
     8
 71
     3
 72
    40
 73
    36
 74
     0
 42
0.0000000001
 43
0.0000000001
 40
0.0
 40
0.0
 40
0.0
 40
0.0
 40
0.1
 40
0.1
 40
0.1
 40
0.1
 40
0.2
 40
0.2
 40
0.2
 40
0.2
 40
0.3
 40
0.3
 40
0.3
 40
0.3
 40
0.4
 40
0.4
 40
0.4
 40
0.4
 40
0.5
 40
0.5
 40
0.5
 40
0.5
 40
0.6
 40
0.6
 40
0.6
 40
0.6
 40
0.7
 40
0.7
 40
0.7
 40
0.7
 40
0.8
 40
0.8
 40
0.8
 40
0.8
 40
1.0
 40
1.0
 40
1.0
 40
1.0
 10
-16.7139
 20
12.8659
 30
0.0
 10
-16.7139
 20
12.8659
 30
0.0
 10
-16.5172
 20
14.4522
 30
0.0
 10
-16.5172
 20
14.4522
 30
0.0
 10
-16.5172
 20
14.4522
 30
0.0
 10
-16.5172
 20
14.4522
 30
0.0
 10
-16.3865
 20
14.6195
 30
0.0
 10
-16.3865
 20
14.6195
 30
0.0
 10
-16.3865
 20
14.6195
 30
0.0
 10
-16.3865
 20
14.6195
 30
0.0
 10
-16.1733
 20
14.6654
 30
0.0
 10
-16.1733
 20
14.6654
 30
0.0
 10
-16.1733
 20
14.6654
 30
0.0
 10
-16.1733
 20
14.6654
 30
0.0
 10
-15.884
 20
14.6654
 30
0.0
 10
-15.884
 20
14.6654
 30
0.0
 10
-15.884
 20
14.6654
 30
0.0
 10
-15.884
 20
14.6654
 30
0.0
 10
-15.6862
 20
14.65
 30
0.0
 10
-15.6862
 20
14.65
 30
0.0
 10
-15.6862
 20
14.65
 30
0.0
 10
-15.6862
 20
14.65
 30
0.0
 10
-15.5035
 20
14.6349
 30
0.0
 10
-15.5035
 20
14.6349
 30
0.0
 10
-15.5035
 20
14.6349
 30
0.0
 10
-15.5035
 20
14.6349
 30
0.0
 10
-15.3969
 20
14.4365
 30
0.0
 10
-15.3969
 20
14.4365
 30
0.0
 10
-15.3969
 20
14.4365
 30
0.0
 10
-15.3969
 20
14.4365
 30
0.0
 10
-15.3208
 20
14.1923
 30
0.0
 10
-15.3208
 20
14.1923
 30
0.0
 10
-15.3208
 20
14.1923
 30
0.0
 10
-15.3208
 20
14.1923
 30
0.0
 10
-15.1685
 20
12.8403
 30
0.0
 10
-15.1685
 20
12.8403
 30
0.0
  0
SPLINE
  5
E6
330
1F
100
AcDbEntity
  8
DEFAULT_1
 62
   250
100
AcDbSpline
210
0.0
220
0.0
230
1.0
 70
     8
 71
     3
 72
    40
 73
    36
 74
     0
 42
0.0000000001
 43
0.0000000001
 40
0.0
 40
0.0
 40
0.0
 40
0.0
 40
0.1
 40
0.1
 40
0.1
 40
0.1
 40
0.2
 40
0.2
 40
0.2
 40
0.2
 40
0.3
 40
0.3
 40
0.3
 40
0.3
 40
0.4
 40
0.4
 40
0.4
 40
0.4
 40
0.5
 40
0.5
 40
0.5
 40
0.5
 40
0.6
 40
0.6
 40
0.6
 40
0.6
 40
0.7
 40
0.7
 40
0.7
 40
0.7
 40
0.8
 40
0.8
 40
0.8
 40
0.8
 40
1.0
 40
1.0
 40
1.0
 40
1.0
 10
-15.1491
 20
12.8729
 30
0.0
 10
-15.1491
 20
12.8729
 30
0.0
 10
-14.9524
 20
14.4592
 30
0.0
 10
-14.9524
 20
14.4592
 30
0.0
 10
-14.9524
 20
14.4592
 30
0.0
 10
-14.9524
 20
14.4592
 30
0.0
 10
-14.8218
 20
14.6265
 30
0.0
 10
-14.8218
 20
14.6265
 30
0.0
 10
-14.8218
 20
14.6265
 30
0.0
 10
-14.8218
 20
14.6265
 30
0.0
 10
-14.6085
 20
14.6724
 30
0.0
 10
-14.6085
 20
14.6724
 30
0.0
 10
-14.6085
 20
14.6724
 30
0.0
 10
-14.6085
 20
14.6724
 30
0.0
 10
-14.3192
 20
14.6724
 30
0.0
 10
-14.3192
 20
14.6724
 30
0.0
 10
-14.3192
 20
14.6724
 30
0.0
 10
-14.3192
 20
14.6724
 30
0.0
 10
-14.1214
 20
14.657
 30
0.0
 10
-14.1214
 20
14.657
 30
0.0
 10
-14.1214
 20
14.657
 30
0.0
 10
-14.1214
 20
14.657
 30
0.0
 10
-13.9387
 20
14.6419
 30
0.0
 10
-13.9387
 20
14.6419
 30
0.0
 10
-13.9387
 20
14.6419
 30
0.0
 10
-13.9387
 20
14.6419
 30
0.0
 10
-13.8321
 20
14.4435
 30
0.0
 10
-13.8321
 20
14.4435
 30
0.0
 10
-13.8321
 20
14.4435
 30
0.0
 10
-13.8321
 20
14.4435
 30
0.0
 10
-13.756
 20
14.1993
 30
0.0
 10
-13.756
 20
14.1993
 30
0.0
 10
-13.756
 20
14.1993
 30
0.0
 10
-13.756
 20
14.1993
 30
0.0
 10
-13.6037
 20
12.8333
 30
0.0
 10
-13.6037
 20
12.8333
 30
0.0
  0
SPLINE
  5
E7
330
1F
100
AcDbEntity
  8
DEFAULT_1
 62
   250
100
AcDbSpline
210
0.0
220
0.0
230
1.0
 70
     8
 71
     3
 72
    40
 73
    36
 74
     0
 42
0.0000000001
 43
0.0000000001
 40
0.0
 40
0.0
 40
0.0
 40
0.0
 40
0.1
 40
0.1
 40
0.1
 40
0.1
 40
0.2
 40
0.2
 40
0.2
 40
0.2
 40
0.3
 40
0.3
 40
0.3
 40
0.3
 40
0.4
 40
0.4
 40
0.4
 40
0.4
 40
0.5
 40
0.5
 40
0.5
 40
0.5
 40
0.6
 40
0.6
 40
0.6
 40
0.6
 40
0.7
 40
0.7
 40
0.7
 40
0.7
 40
0.8
 40
0.8
 40
0.8
 40
0.8
 40
1.0
 40
1.0
 40
1.0
 40
1.0
 10
-13.5764
 20
12.8659
 30
0.0
 10
-13.5764
 20
12.8659
 30
0.0
 10
-13.3797
 20
14.4522
 30
0.0
 10
-13.3797
 20
14.4522
 30
0.0
 10
-13.3797
 20
14.4522
 30
0.0
 10
-13.3797
 20
14.4522
 30
0.0
 10
-13.249
 20
14.6195
 30
0.0
 10
-13.249
 20
14.6195
 30
0.0
 10
-13.249
 20
14.6195
 30
0.0
 10
-13.249
 20
14.6195
 30
0.0
 10
-13.0358
 20
14.6654
 30
0.0
 10
-13.0358
 20
14.6654
 30
0.0
 10
-13.0358
 20
14.6654
 30
0.0
 10
-13.0358
 20
14.6654
 30
0.0
 10
-12.7465
 20
14.6654
 30
0.0
 10
-12.7465
 20
14.6654
 30
0.0
 10
-12.7465
 20
14.6654
 30
0.0
 10
-12.7465
 20
14.6654
 30
0.0
 10
-12.5487
 20
14.65
 30
0.0
 10
-12.5487
 20
14.65
 30
0.0
 10
-12.5487
 20
14.65
 30
0.0
 10
-12.5487
 20
14.65
 30
0.0
 10
-12.366
 20
14.6349
 30
0.0
 10
-12.366
 20
14.6349
 30
0.0
 10
-12.366
 20
14.6349
 30
0.0
 10
-12.366
 20
14.6349
 30
0.0
 10
-12.2594
 20
14.4365
 30
0.0
 10
-12.2594
 20
14.4365
 30
0.0
 10
-12.2594
 20
14.4365
 30
0.0
 10
-12.2594
 20
14.4365
 30
0.0
 10
-12.1833
 20
14.1923
 30
0.0
 10
-12.1833
 20
14.1923
 30
0.0
 10
-12.1833
 20
14.1923
 30
0.0
 10
-12.1833
 20
14.1923
 30
0.0
 10
-12.031
 20
12.8403
 30
0.0
 10
-12.031
 20
12.8403
 30
0.0
  0
SPLINE
  5
E8
330
1F
100
AcDbEntity
  8
DEFAULT_1
 62
   250
100
AcDbSpline
210
0.0
220
0.0
230
1.0
 70
     8
 71
     3
 72
    40
 73
    36
 74
     0
 42
0.0000000001
 43
0.0000000001
 40
0.0
 40
0.0
 40
0.0
 40
0.0
 40
0.1
 40
0.1
 40
0.1
 40
0.1
 40
0.2
 40
0.2
 40
0.2
 40
0.2
 40
0.3
 40
0.3
 40
0.3
 40
0.3
 40
0.4
 40
0.4
 40
0.4
 40
0.4
 40
0.5
 40
0.5
 40
0.5
 40
0.5
 40
0.6
 40
0.6
 40
0.6
 40
0.6
 40
0.7
 40
0.7
 40
0.7
 40
0.7
 40
0.8
 40
0.8
 40
0.8
 40
0.8
 40
1.0
 40
1.0
 40
1.0
 40
1.0
 10
-12.0116
 20
12.8729
 30
0.0
 10
-12.0116
 20
12.8729
 30
0.0
 10
-11.8149
 20
14.4592
 30
0.0
 10
-11.8149
 20
14.4592
 30
0.0
 10
-11.8149
 20
14.4592
 30
0.0
 10
-11.8149
 20
14.4592
 30
0.0
 10
-11.6843
 20
14.6265
 30
0.0
 10
-11.6843
 20
14.6265
 30
0.0
 10
-11.6843
 20
14.6265
 30
0.0
 10
-11.6843
 20
14.6265
 30
0.0
 10
-11.471
 20
14.6724
 30
0.0
 10
-11.471
 20
14.6724
 30
0.0
 10
-11.471
 20
14.6724
 30
0.0
 10
-11.471
 20
14.6724
 30
0.0
 10
-11.1817
 20
14.6724
 30
0.0
 10
-11.1817
 20
14.6724
 30
0.0
 10
-11.1817
 20
14.6724
 30
0.0
 10
-11.1817
 20
14.6724
 30
0.0
 10
-10.9839
 20
14.657
 30
0.0
 10
-10.9839
 20
14.657
 30
0.0
 10
-10.9839
 20
14.657
 30
0.0
 10
-10.9839
 20
14.657
 30
0.0
 10
-10.8012
 20
14.6419
 30
0.0
 10
-10.8012
 20
14.6419
 30
0.0
 10
-10.8012
 20
14.6419
 30
0.0
 10
-10.8012
 20
14.6419
 30
0.0
 10
-10.6946
 20
14.4435
 30
0.0
 10
-10.6946
 20
14.4435
 30
0.0
 10
-10.6946
 20
14.4435
 30
0.0
 10
-10.6946
 20
14.4435
 30
0.0
 10
-10.6185
 20
14.1993
 30
0.0
 10
-10.6185
 20
14.1993
 30
0.0
 10
-10.6185
 20
14.1993
 30
0.0
 10
-10.6185
 20
14.1993
 30
0.0
 10
-10.4662
 20
12.8333
 30
0.0
 10
-10.4662
 20
12.8333
 30
0.0
  0
SPLINE
  5
E9
330
1F
100
AcDbEntity
  8
DEFAULT_1
 62
   250
100
AcDbSpline
210
0.0
220
0.0
230
1.0
 70
     8
 71
     3
 72
    40
 73
    36
 74
     0
 42
0.0000000001
 43
0.0000000001
 40
0.0
 40
0.0
 40
0.0
 40
0.0
 40
0.1
 40
0.1
 40
0.1
 40
0.1
 40
0.2
 40
0.2
 40
0.2
 40
0.2
 40
0.3
 40
0.3
 40
0.3
 40
0.3
 40
0.4
 40
0.4
 40
0.4
 40
0.4
 40
0.5
 40
0.5
 40
0.5
 40
0.5
 40
0.6
 40
0.6
 40
0.6
 40
0.6
 40
0.7
 40
0.7
 40
0.7
 40
0.7
 40
0.8
 40
0.8
 40
0.8
 40
0.8
 40
1.0
 40
1.0
 40
1.0
 40
1.0
 10
-32.3344
 20
0.36
 30
0.0
 10
-32.3344
 20
0.36
 30
0.0
 10
-32.1377
 20
-1.2262
 30
0.0
 10
-32.1377
 20
-1.2262
 30
0.0
 10
-32.1377
 20
-1.2262
 30
0.0
 10
-32.1377
 20
-1.2262
 30
0.0
 10
-32.0071
 20
-1.3935
 30
0.0
 10
-32.0071
 20
-1.3935
 30
0.0
 10
-32.0071
 20
-1.3935
 30
0.0
 10
-32.0071
 20
-1.3935
 30
0.0
 10
-31.7938
 20
-1.4394
 30
0.0
 10
-31.7938
 20
-1.4394
 30
0.0
 10
-31.7938
 20
-1.4394
 30
0.0
 10
-31.7938
 20
-1.4394
 30
0.0
 10
-31.5045
 20
-1.4394
 30
0.0
 10
-31.5045
 20
-1.4394
 30
0.0
 10
-31.5045
 20
-1.4394
 30
0.0
 10
-31.5045
 20
-1.4394
 30
0.0
 10
-31.3067
 20
-1.424
 30
0.0
 10
-31.3067
 20
-1.424
 30
0.0
 10
-31.3067
 20
-1.424
 30
0.0
 10
-31.3067
 20
-1.424
 30
0.0
 10
-31.124
 20
-1.4089
 30
0.0
 10
-31.124
 20
-1.4089
 30
0.0
 10
-31.124
 20
-1.4089
 30
0.0
 10
-31.124
 20
-1.4089
 30
0.0
 10
-31.0174
 20
-1.2106
 30
0.0
 10
-31.0174
 20
-1.2106
 30
0.0
 10
-31.0174
 20
-1.2106
 30
0.0
 10
-31.0174
 20
-1.2106
 30
0.0
 10
-30.9413
 20
-0.9663
 30
0.0
 10
-30.9413
 20
-0.9663
 30
0.0
 10
-30.9413
 20
-0.9663
 30
0.0
 10
-30.9413
 20
-0.9663
 30
0.0
 10
-30.789
 20
0.3857
 30
0.0
 10
-30.789
 20
0.3857
 30
0.0
  0
SPLINE
  5
EA
330
1F
100
AcDbEntity
  8
DEFAULT_1
 62
   250
100
AcDbSpline
210
0.0
220
0.0
230
1.0
 70
     8
 71
     3
 72
    40
 73
    36
 74
     0
 42
0.0000000001
 43
0.0000000001
 40
0.0
 40
0.0
 40
0.0
 40
0.0
 40
0.1
 40
0.1
 40
0.1
 40
0.1
 40
0.2
 40
0.2
 40
0.2
 40
0.2
 40
0.3
 40
0.3
 40
0.3
 40
0.3
 40
0.4
 40
0.4
 40
0.4
 40
0.4
 40
0.5
 40
0.5
 40
0.5
 40
0.5
 40
0.6
 40
0.6
 40
0.6
 40
0.6
 40
0.7
 40
0.7
 40
0.7
 40
0.7
 40
0.8
 40
0.8
 40
0.8
 40
0.8
 40
1.0
 40
1.0
 40
1.0
 40
1.0
 10
-30.7696
 20
0.353
 30
0.0
 10
-30.7696
 20
0.353
 30
0.0
 10
-30.5729
 20
-1.2332
 30
0.0
 10
-30.5729
 20
-1.2332
 30
0.0
 10
-30.5729
 20
-1.2332
 30
0.0
 10
-30.5729
 20
-1.2332
 30
0.0
 10
-30.4423
 20
-1.4005
 30
0.0
 10
-30.4423
 20
-1.4005
 30
0.0
 10
-30.4423
 20
-1.4005
 30
0.0
 10
-30.4423
 20
-1.4005
 30
0.0
 10
-30.229
 20
-1.4464
 30
0.0
 10
-30.229
 20
-1.4464
 30
0.0
 10
-30.229
 20
-1.4464
 30
0.0
 10
-30.229
 20
-1.4464
 30
0.0
 10
-29.9397
 20
-1.4464
 30
0.0
 10
-29.9397
 20
-1.4464
 30
0.0
 10
-29.9397
 20
-1.4464
 30
0.0
 10
-29.9397
 20
-1.4464
 30
0.0
 10
-29.7419
 20
-1.431
 30
0.0
 10
-29.7419
 20
-1.431
 30
0.0
 10
-29.7419
 20
-1.431
 30
0.0
 10
-29.7419
 20
-1.431
 30
0.0
 10
-29.5592
 20
-1.4159
 30
0.0
 10
-29.5592
 20
-1.4159
 30
0.0
 10
-29.5592
 20
-1.4159
 30
0.0
 10
-29.5592
 20
-1.4159
 30
0.0
 10
-29.4526
 20
-1.2176
 30
0.0
 10
-29.4526
 20
-1.2176
 30
0.0
 10
-29.4526
 20
-1.2176
 30
0.0
 10
-29.4526
 20
-1.2176
 30
0.0
 10
-29.3765
 20
-0.9733
 30
0.0
 10
-29.3765
 20
-0.9733
 30
0.0
 10
-29.3765
 20
-0.9733
 30
0.0
 10
-29.3765
 20
-0.9733
 30
0.0
 10
-29.2242
 20
0.3927
 30
0.0
 10
-29.2242
 20
0.3927
 30
0.0
  0
SPLINE
  5
EB
330
1F
100
AcDbEntity
  8
DEFAULT_1
 62
   250
100
AcDbSpline
210
0.0
220
0.0
230
1.0
 70
     8
 71
     3
 72
    40
 73
    36
 74
     0
 42
0.0000000001
 43
0.0000000001
 40
0.0
 40
0.0
 40
0.0
 40
0.0
 40
0.1
 40
0.1
 40
0.1
 40
0.1
 40
0.2
 40
0.2
 40
0.2
 40
0.2
 40
0.3
 40
0.3
 40
0.3
 40
0.3
 40
0.4
 40
0.4
 40
0.4
 40
0.4
 40
0.5
 40
0.5
 40
0.5
 40
0.5
 40
0.6
 40
0.6
 40
0.6
 40
0.6
 40
0.7
 40
0.7
 40
0.7
 40
0.7
 40
0.8
 40
0.8
 40
0.8
 40
0.8
 40
1.0
 40
1.0
 40
1.0
 40
1.0
 10
-29.1969
 20
0.36
 30
0.0
 10
-29.1969
 20
0.36
 30
0.0
 10
-29.0002
 20
-1.2262
 30
0.0
 10
-29.0002
 20
-1.2262
 30
0.0
 10
-29.0002
 20
-1.2262
 30
0.0
 10
-29.0002
 20
-1.2262
 30
0.0
 10
-28.8696
 20
-1.3935
 30
0.0
 10
-28.8696
 20
-1.3935
 30
0.0
 10
-28.8696
 20
-1.3935
 30
0.0
 10
-28.8696
 20
-1.3935
 30
0.0
 10
-28.6563
 20
-1.4394
 30
0.0
 10
-28.6563
 20
-1.4394
 30
0.0
 10
-28.6563
 20
-1.4394
 30
0.0
 10
-28.6563
 20
-1.4394
 30
0.0
 10
-28.367
 20
-1.4394
 30
0.0
 10
-28.367
 20
-1.4394
 30
0.0
 10
-28.367
 20
-1.4394
 30
0.0
 10
-28.367
 20
-1.4394
 30
0.0
 10
-28.1692
 20
-1.424
 30
0.0
 10
-28.1692
 20
-1.424
 30
0.0
 10
-28.1692
 20
-1.424
 30
0.0
 10
-28.1692
 20
-1.424
 30
0.0
 10
-27.9865
 20
-1.4089
 30
0.0
 10
-27.9865
 20
-1.4089
 30
0.0
 10
-27.9865
 20
-1.4089
 30
0.0
 10
-27.9865
 20
-1.4089
 30
0.0
 10
-27.8799
 20
-1.2106
 30
0.0
 10
-27.8799
 20
-1.2106
 30
0.0
 10
-27.8799
 20
-1.2106
 30
0.0
 10
-27.8799
 20
-1.2106
 30
0.0
 10
-27.8038
 20
-0.9663
 30
0.0
 10
-27.8038
 20
-0.9663
 30
0.0
 10
-27.8038
 20
-0.9663
 30
0.0
 10
-27.8038
 20
-0.9663
 30
0.0
 10
-27.6515
 20
0.3857
 30
0.0
 10
-27.6515
 20
0.3857
 30
0.0
  0
SPLINE
  5
EC
330
1F
100
AcDbEntity
  8
DEFAULT_1
 62
   250
100
AcDbSpline
210
0.0
220
0.0
230
1.0
 70
     8
 71
     3
 72
    40
 73
    36
 74
     0
 42
0.0000000001
 43
0.0000000001
 40
0.0
 40
0.0
 40
0.0
 40
0.0
 40
0.1
 40
0.1
 40
0.1
 40
0.1
 40
0.2
 40
0.2
 40
0.2
 40
0.2
 40
0.3
 40
0.3
 40
0.3
 40
0.3
 40
0.4
 40
0.4
 40
0.4
 40
0.4
 40
0.5
 40
0.5
 40
0.5
 40
0.5
 40
0.6
 40
0.6
 40
0.6
 40
0.6
 40
0.7
 40
0.7
 40
0.7
 40
0.7
 40
0.8
 40
0.8
 40
0.8
 40
0.8
 40
1.0
 40
1.0
 40
1.0
 40
1.0
 10
-27.6321
 20
0.353
 30
0.0
 10
-27.6321
 20
0.353
 30
0.0
 10
-27.4354
 20
-1.2332
 30
0.0
 10
-27.4354
 20
-1.2332
 30
0.0
 10
-27.4354
 20
-1.2332
 30
0.0
 10
-27.4354
 20
-1.2332
 30
0.0
 10
-27.3048
 20
-1.4005
 30
0.0
 10
-27.3048
 20
-1.4005
 30
0.0
 10
-27.3048
 20
-1.4005
 30
0.0
 10
-27.3048
 20
-1.4005
 30
0.0
 10
-27.0915
 20
-1.4464
 30
0.0
 10
-27.0915
 20
-1.4464
 30
0.0
 10
-27.0915
 20
-1.4464
 30
0.0
 10
-27.0915
 20
-1.4464
 30
0.0
 10
-26.8022
 20
-1.4464
 30
0.0
 10
-26.8022
 20
-1.4464
 30
0.0
 10
-26.8022
 20
-1.4464
 30
0.0
 10
-26.8022
 20
-1.4464
 30
0.0
 10
-26.6044
 20
-1.431
 30
0.0
 10
-26.6044
 20
-1.431
 30
0.0
 10
-26.6044
 20
-1.431
 30
0.0
 10
-26.6044
 20
-1.431
 30
0.0
 10
-26.4217
 20
-1.4159
 30
0.0
 10
-26.4217
 20
-1.4159
 30
0.0
 10
-26.4217
 20
-1.4159
 30
0.0
 10
-26.4217
 20
-1.4159
 30
0.0
 10
-26.3151
 20
-1.2176
 30
0.0
 10
-26.3151
 20
-1.2176
 30
0.0
 10
-26.3151
 20
-1.2176
 30
0.0
 10
-26.3151
 20
-1.2176
 30
0.0
 10
-26.239
 20
-0.9733
 30
0.0
 10
-26.239
 20
-0.9733
 30
0.0
 10
-26.239
 20
-0.9733
 30
0.0
 10
-26.239
 20
-0.9733
 30
0.0
 10
-26.0867
 20
0.3927
 30
0.0
 10
-26.0867
 20
0.3927
 30
0.0
  0
SPLINE
  5
ED
330
1F
100
AcDbEntity
  8
DEFAULT_1
 62
   250
100
AcDbSpline
210
0.0
220
0.0
230
1.0
 70
     8
 71
     3
 72
    40
 73
    36
 74
     0
 42
0.0000000001
 43
0.0000000001
 40
0.0
 40
0.0
 40
0.0
 40
0.0
 40
0.1
 40
0.1
 40
0.1
 40
0.1
 40
0.2
 40
0.2
 40
0.2
 40
0.2
 40
0.3
 40
0.3
 40
0.3
 40
0.3
 40
0.4
 40
0.4
 40
0.4
 40
0.4
 40
0.5
 40
0.5
 40
0.5
 40
0.5
 40
0.6
 40
0.6
 40
0.6
 40
0.6
 40
0.7
 40
0.7
 40
0.7
 40
0.7
 40
0.8
 40
0.8
 40
0.8
 40
0.8
 40
1.0
 40
1.0
 40
1.0
 40
1.0
 10
-26.0783
 20
0.3834
 30
0.0
 10
-26.0783
 20
0.3834
 30
0.0
 10
-25.8816
 20
-1.2029
 30
0.0
 10
-25.8816
 20
-1.2029
 30
0.0
 10
-25.8816
 20
-1.2029
 30
0.0
 10
-25.8816
 20
-1.2029
 30
0.0
 10
-25.751
 20
-1.3701
 30
0.0
 10
-25.751
 20
-1.3701
 30
0.0
 10
-25.751
 20
-1.3701
 30
0.0
 10
-25.751
 20
-1.3701
 30
0.0
 10
-25.5377
 20
-1.4161
 30
0.0
 10
-25.5377
 20
-1.4161
 30
0.0
 10
-25.5377
 20
-1.4161
 30
0.0
 10
-25.5377
 20
-1.4161
 30
0.0
 10
-25.2484
 20
-1.4161
 30
0.0
 10
-25.2484
 20
-1.4161
 30
0.0
 10
-25.2484
 20
-1.4161
 30
0.0
 10
-25.2484
 20
-1.4161
 30
0.0
 10
-25.0506
 20
-1.4007
 30
0.0
 10
-25.0506
 20
-1.4007
 30
0.0
 10
-25.0506
 20
-1.4007
 30
0.0
 10
-25.0506
 20
-1.4007
 30
0.0
 10
-24.8679
 20
-1.3855
 30
0.0
 10
-24.8679
 20
-1.3855
 30
0.0
 10
-24.8679
 20
-1.3855
 30
0.0
 10
-24.8679
 20
-1.3855
 30
0.0
 10
-24.7613
 20
-1.1872
 30
0.0
 10
-24.7613
 20
-1.1872
 30
0.0
 10
-24.7613
 20
-1.1872
 30
0.0
 10
-24.7613
 20
-1.1872
 30
0.0
 10
-24.6852
 20
-0.943
 30
0.0
 10
-24.6852
 20
-0.943
 30
0.0
 10
-24.6852
 20
-0.943
 30
0.0
 10
-24.6852
 20
-0.943
 30
0.0
 10
-24.5329
 20
0.409
 30
0.0
 10
-24.5329
 20
0.409
 30
0.0
  0
SPLINE
  5
EE
330
1F
100
AcDbEntity
  8
DEFAULT_1
 62
   250
100
AcDbSpline
210
0.0
220
0.0
230
1.0
 70
     8
 71
     3
 72
    40
 73
    36
 74
     0
 42
0.0000000001
 43
0.0000000001
 40
0.0
 40
0.0
 40
0.0
 40
0.0
 40
0.1
 40
0.1
 40
0.1
 40
0.1
 40
0.2
 40
0.2
 40
0.2
 40
0.2
 40
0.3
 40
0.3
 40
0.3
 40
0.3
 40
0.4
 40
0.4
 40
0.4
 40
0.4
 40
0.5
 40
0.5
 40
0.5
 40
0.5
 40
0.6
 40
0.6
 40
0.6
 40
0.6
 40
0.7
 40
0.7
 40
0.7
 40
0.7
 40
0.8
 40
0.8
 40
0.8
 40
0.8
 40
1.0
 40
1.0
 40
1.0
 40
1.0
 10
-24.5135
 20
0.3764
 30
0.0
 10
-24.5135
 20
0.3764
 30
0.0
 10
-24.3168
 20
-1.2099
 30
0.0
 10
-24.3168
 20
-1.2099
 30
0.0
 10
-24.3168
 20
-1.2099
 30
0.0
 10
-24.3168
 20
-1.2099
 30
0.0
 10
-24.1862
 20
-1.3771
 30
0.0
 10
-24.1862
 20
-1.3771
 30
0.0
 10
-24.1862
 20
-1.3771
 30
0.0
 10
-24.1862
 20
-1.3771
 30
0.0
 10
-23.9729
 20
-1.4231
 30
0.0
 10
-23.9729
 20
-1.4231
 30
0.0
 10
-23.9729
 20
-1.4231
 30
0.0
 10
-23.9729
 20
-1.4231
 30
0.0
 10
-23.6836
 20
-1.4231
 30
0.0
 10
-23.6836
 20
-1.4231
 30
0.0
 10
-23.6836
 20
-1.4231
 30
0.0
 10
-23.6836
 20
-1.4231
 30
0.0
 10
-23.4858
 20
-1.4077
 30
0.0
 10
-23.4858
 20
-1.4077
 30
0.0
 10
-23.4858
 20
-1.4077
 30
0.0
 10
-23.4858
 20
-1.4077
 30
0.0
 10
-23.3031
 20
-1.3925
 30
0.0
 10
-23.3031
 20
-1.3925
 30
0.0
 10
-23.3031
 20
-1.3925
 30
0.0
 10
-23.3031
 20
-1.3925
 30
0.0
 10
-23.1965
 20
-1.1942
 30
0.0
 10
-23.1965
 20
-1.1942
 30
0.0
 10
-23.1965
 20
-1.1942
 30
0.0
 10
-23.1965
 20
-1.1942
 30
0.0
 10
-23.1204
 20
-0.95
 30
0.0
 10
-23.1204
 20
-0.95
 30
0.0
 10
-23.1204
 20
-0.95
 30
0.0
 10
-23.1204
 20
-0.95
 30
0.0
 10
-22.9681
 20
0.416
 30
0.0
 10
-22.9681
 20
0.416
 30
0.0
  0
SPLINE
  5
EF
330
1F
100
AcDbEntity
  8
DEFAULT_1
 62
   250
100
AcDbSpline
210
0.0
220
0.0
230
1.0
 70
     8
 71
     3
 72
    40
 73
    36
 74
     0
 42
0.0000000001
 43
0.0000000001
 40
0.0
 40
0.0
 40
0.0
 40
0.0
 40
0.1
 40
0.1
 40
0.1
 40
0.1
 40
0.2
 40
0.2
 40
0.2
 40
0.2
 40
0.3
 40
0.3
 40
0.3
 40
0.3
 40
0.4
 40
0.4
 40
0.4
 40
0.4
 40
0.5
 40
0.5
 40
0.5
 40
0.5
 40
0.6
 40
0.6
 40
0.6
 40
0.6
 40
0.7
 40
0.7
 40
0.7
 40
0.7
 40
0.8
 40
0.8
 40
0.8
 40
0.8
 40
1.0
 40
1.0
 40
1.0
 40
1.0
 10
-22.9408
 20
0.3834
 30
0.0
 10
-22.9408
 20
0.3834
 30
0.0
 10
-22.7441
 20
-1.2029
 30
0.0
 10
-22.7441
 20
-1.2029
 30
0.0
 10
-22.7441
 20
-1.2029
 30
0.0
 10
-22.7441
 20
-1.2029
 30
0.0
 10
-22.6135
 20
-1.3701
 30
0.0
 10
-22.6135
 20
-1.3701
 30
0.0
 10
-22.6135
 20
-1.3701
 30
0.0
 10
-22.6135
 20
-1.3701
 30
0.0
 10
-22.4002
 20
-1.4161
 30
0.0
 10
-22.4002
 20
-1.4161
 30
0.0
 10
-22.4002
 20
-1.4161
 30
0.0
 10
-22.4002
 20
-1.4161
 30
0.0
 10
-22.1109
 20
-1.4161
 30
0.0
 10
-22.1109
 20
-1.4161
 30
0.0
 10
-22.1109
 20
-1.4161
 30
0.0
 10
-22.1109
 20
-1.4161
 30
0.0
 10
-21.9131
 20
-1.4007
 30
0.0
 10
-21.9131
 20
-1.4007
 30
0.0
 10
-21.9131
 20
-1.4007
 30
0.0
 10
-21.9131
 20
-1.4007
 30
0.0
 10
-21.7304
 20
-1.3855
 30
0.0
 10
-21.7304
 20
-1.3855
 30
0.0
 10
-21.7304
 20
-1.3855
 30
0.0
 10
-21.7304
 20
-1.3855
 30
0.0
 10
-21.6238
 20
-1.1872
 30
0.0
 10
-21.6238
 20
-1.1872
 30
0.0
 10
-21.6238
 20
-1.1872
 30
0.0
 10
-21.6238
 20
-1.1872
 30
0.0
 10
-21.5477
 20
-0.943
 30
0.0
 10
-21.5477
 20
-0.943
 30
0.0
 10
-21.5477
 20
-0.943
 30
0.0
 10
-21.5477
 20
-0.943
 30
0.0
 10
-21.3954
 20
0.409
 30
0.0
 10
-21.3954
 20
0.409
 30
0.0
  0
SPLINE
  5
F0
330
1F
100
AcDbEntity
  8
DEFAULT_1
 62
   250
100
AcDbSpline
210
0.0
220
0.0
230
1.0
 70
     8
 71
     3
 72
    40
 73
    36
 74
     0
 42
0.0000000001
 43
0.0000000001
 40
0.0
 40
0.0
 40
0.0
 40
0.0
 40
0.1
 40
0.1
 40
0.1
 40
0.1
 40
0.2
 40
0.2
 40
0.2
 40
0.2
 40
0.3
 40
0.3
 40
0.3
 40
0.3
 40
0.4
 40
0.4
 40
0.4
 40
0.4
 40
0.5
 40
0.5
 40
0.5
 40
0.5
 40
0.6
 40
0.6
 40
0.6
 40
0.6
 40
0.7
 40
0.7
 40
0.7
 40
0.7
 40
0.8
 40
0.8
 40
0.8
 40
0.8
 40
1.0
 40
1.0
 40
1.0
 40
1.0
 10
-21.376
 20
0.3764
 30
0.0
 10
-21.376
 20
0.3764
 30
0.0
 10
-21.1793
 20
-1.2099
 30
0.0
 10
-21.1793
 20
-1.2099
 30
0.0
 10
-21.1793
 20
-1.2099
 30
0.0
 10
-21.1793
 20
-1.2099
 30
0.0
 10
-21.0487
 20
-1.3771
 30
0.0
 10
-21.0487
 20
-1.3771
 30
0.0
 10
-21.0487
 20
-1.3771
 30
0.0
 10
-21.0487
 20
-1.3771
 30
0.0
 10
-20.8354
 20
-1.4231
 30
0.0
 10
-20.8354
 20
-1.4231
 30
0.0
 10
-20.8354
 20
-1.4231
 30
0.0
 10
-20.8354
 20
-1.4231
 30
0.0
 10
-20.5461
 20
-1.4231
 30
0.0
 10
-20.5461
 20
-1.4231
 30
0.0
 10
-20.5461
 20
-1.4231
 30
0.0
 10
-20.5461
 20
-1.4231
 30
0.0
 10
-20.3483
 20
-1.4077
 30
0.0
 10
-20.3483
 20
-1.4077
 30
0.0
 10
-20.3483
 20
-1.4077
 30
0.0
 10
-20.3483
 20
-1.4077
 30
0.0
 10
-20.1656
 20
-1.3925
 30
0.0
 10
-20.1656
 20
-1.3925
 30
0.0
 10
-20.1656
 20
-1.3925
 30
0.0
 10
-20.1656
 20
-1.3925
 30
0.0
 10
-20.059
 20
-1.1942
 30
0.0
 10
-20.059
 20
-1.1942
 30
0.0
 10
-20.059
 20
-1.1942
 30
0.0
 10
-20.059
 20
-1.1942
 30
0.0
 10
-19.9829
 20
-0.95
 30
0.0
 10
-19.9829
 20
-0.95
 30
0.0
 10
-19.9829
 20
-0.95
 30
0.0
 10
-19.9829
 20
-0.95
 30
0.0
 10
-19.8306
 20
0.416
 30
0.0
 10
-19.8306
 20
0.416
 30
0.0
  0
SPLINE
  5
F1
330
1F
100
AcDbEntity
  8
DEFAULT_1
 62
   250
100
AcDbSpline
210
0.0
220
0.0
230
1.0
 70
     8
 71
     3
 72
    40
 73
    36
 74
     0
 42
0.0000000001
 43
0.0000000001
 40
0.0
 40
0.0
 40
0.0
 40
0.0
 40
0.1
 40
0.1
 40
0.1
 40
0.1
 40
0.2
 40
0.2
 40
0.2
 40
0.2
 40
0.3
 40
0.3
 40
0.3
 40
0.3
 40
0.4
 40
0.4
 40
0.4
 40
0.4
 40
0.5
 40
0.5
 40
0.5
 40
0.5
 40
0.6
 40
0.6
 40
0.6
 40
0.6
 40
0.7
 40
0.7
 40
0.7
 40
0.7
 40
0.8
 40
0.8
 40
0.8
 40
0.8
 40
1.0
 40
1.0
 40
1.0
 40
1.0
 10
-19.8325
 20
0.36
 30
0.0
 10
-19.8325
 20
0.36
 30
0.0
 10
-19.6358
 20
-1.2262
 30
0.0
 10
-19.6358
 20
-1.2262
 30
0.0
 10
-19.6358
 20
-1.2262
 30
0.0
 10
-19.6358
 20
-1.2262
 30
0.0
 10
-19.5051
 20
-1.3935
 30
0.0
 10
-19.5051
 20
-1.3935
 30
0.0
 10
-19.5051
 20
-1.3935
 30
0.0
 10
-19.5051
 20
-1.3935
 30
0.0
 10
-19.2919
 20
-1.4394
 30
0.0
 10
-19.2919
 20
-1.4394
 30
0.0
 10
-19.2919
 20
-1.4394
 30
0.0
 10
-19.2919
 20
-1.4394
 30
0.0
 10
-19.0026
 20
-1.4394
 30
0.0
 10
-19.0026
 20
-1.4394
 30
0.0
 10
-19.0026
 20
-1.4394
 30
0.0
 10
-19.0026
 20
-1.4394
 30
0.0
 10
-18.8048
 20
-1.424
 30
0.0
 10
-18.8048
 20
-1.424
 30
0.0
 10
-18.8048
 20
-1.424
 30
0.0
 10
-18.8048
 20
-1.424
 30
0.0
 10
-18.6221
 20
-1.4089
 30
0.0
 10
-18.6221
 20
-1.4089
 30
0.0
 10
-18.6221
 20
-1.4089
 30
0.0
 10
-18.6221
 20
-1.4089
 30
0.0
 10
-18.5155
 20
-1.2106
 30
0.0
 10
-18.5155
 20
-1.2106
 30
0.0
 10
-18.5155
 20
-1.2106
 30
0.0
 10
-18.5155
 20
-1.2106
 30
0.0
 10
-18.4394
 20
-0.9663
 30
0.0
 10
-18.4394
 20
-0.9663
 30
0.0
 10
-18.4394
 20
-0.9663
 30
0.0
 10
-18.4394
 20
-0.9663
 30
0.0
 10
-18.287
 20
0.3857
 30
0.0
 10
-18.287
 20
0.3857
 30
0.0
  0
SPLINE
  5
F2
330
1F
100
AcDbEntity
  8
DEFAULT_1
 62
   250
100
AcDbSpline
210
0.0
220
0.0
230
1.0
 70
     8
 71
     3
 72
    40
 73
    36
 74
     0
 42
0.0000000001
 43
0.0000000001
 40
0.0
 40
0.0
 40
0.0
 40
0.0
 40
0.1
 40
0.1
 40
0.1
 40
0.1
 40
0.2
 40
0.2
 40
0.2
 40
0.2
 40
0.3
 40
0.3
 40
0.3
 40
0.3
 40
0.4
 40
0.4
 40
0.4
 40
0.4
 40
0.5
 40
0.5
 40
0.5
 40
0.5
 40
0.6
 40
0.6
 40
0.6
 40
0.6
 40
0.7
 40
0.7
 40
0.7
 40
0.7
 40
0.8
 40
0.8
 40
0.8
 40
0.8
 40
1.0
 40
1.0
 40
1.0
 40
1.0
 10
-18.2677
 20
0.353
 30
0.0
 10
-18.2677
 20
0.353
 30
0.0
 10
-18.071
 20
-1.2332
 30
0.0
 10
-18.071
 20
-1.2332
 30
0.0
 10
-18.071
 20
-1.2332
 30
0.0
 10
-18.071
 20
-1.2332
 30
0.0
 10
-17.9404
 20
-1.4005
 30
0.0
 10
-17.9404
 20
-1.4005
 30
0.0
 10
-17.9404
 20
-1.4005
 30
0.0
 10
-17.9404
 20
-1.4005
 30
0.0
 10
-17.7271
 20
-1.4464
 30
0.0
 10
-17.7271
 20
-1.4464
 30
0.0
 10
-17.7271
 20
-1.4464
 30
0.0
 10
-17.7271
 20
-1.4464
 30
0.0
 10
-17.4378
 20
-1.4464
 30
0.0
 10
-17.4378
 20
-1.4464
 30
0.0
 10
-17.4378
 20
-1.4464
 30
0.0
 10
-17.4378
 20
-1.4464
 30
0.0
 10
-17.24
 20
-1.431
 30
0.0
 10
-17.24
 20
-1.431
 30
0.0
 10
-17.24
 20
-1.431
 30
0.0
 10
-17.24
 20
-1.431
 30
0.0
 10
-17.0573
 20
-1.4159
 30
0.0
 10
-17.0573
 20
-1.4159
 30
0.0
 10
-17.0573
 20
-1.4159
 30
0.0
 10
-17.0573
 20
-1.4159
 30
0.0
 10
-16.9507
 20
-1.2176
 30
0.0
 10
-16.9507
 20
-1.2176
 30
0.0
 10
-16.9507
 20
-1.2176
 30
0.0
 10
-16.9507
 20
-1.2176
 30
0.0
 10
-16.8746
 20
-0.9733
 30
0.0
 10
-16.8746
 20
-0.9733
 30
0.0
 10
-16.8746
 20
-0.9733
 30
0.0
 10
-16.8746
 20
-0.9733
 30
0.0
 10
-16.7223
 20
0.3927
 30
0.0
 10
-16.7223
 20
0.3927
 30
0.0
  0
SPLINE
  5
F3
330
1F
100
AcDbEntity
  8
DEFAULT_1
 62
   250
100
AcDbSpline
210
0.0
220
0.0
230
1.0
 70
     8
 71
     3
 72
    40
 73
    36
 74
     0
 42
0.0000000001
 43
0.0000000001
 40
0.0
 40
0.0
 40
0.0
 40
0.0
 40
0.1
 40
0.1
 40
0.1
 40
0.1
 40
0.2
 40
0.2
 40
0.2
 40
0.2
 40
0.3
 40
0.3
 40
0.3
 40
0.3
 40
0.4
 40
0.4
 40
0.4
 40
0.4
 40
0.5
 40
0.5
 40
0.5
 40
0.5
 40
0.6
 40
0.6
 40
0.6
 40
0.6
 40
0.7
 40
0.7
 40
0.7
 40
0.7
 40
0.8
 40
0.8
 40
0.8
 40
0.8
 40
1.0
 40
1.0
 40
1.0
 40
1.0
 10
-16.7139
 20
0.3834
 30
0.0
 10
-16.7139
 20
0.3834
 30
0.0
 10
-16.5172
 20
-1.2029
 30
0.0
 10
-16.5172
 20
-1.2029
 30
0.0
 10
-16.5172
 20
-1.2029
 30
0.0
 10
-16.5172
 20
-1.2029
 30
0.0
 10
-16.3865
 20
-1.3701
 30
0.0
 10
-16.3865
 20
-1.3701
 30
0.0
 10
-16.3865
 20
-1.3701
 30
0.0
 10
-16.3865
 20
-1.3701
 30
0.0
 10
-16.1733
 20
-1.4161
 30
0.0
 10
-16.1733
 20
-1.4161
 30
0.0
 10
-16.1733
 20
-1.4161
 30
0.0
 10
-16.1733
 20
-1.4161
 30
0.0
 10
-15.884
 20
-1.4161
 30
0.0
 10
-15.884
 20
-1.4161
 30
0.0
 10
-15.884
 20
-1.4161
 30
0.0
 10
-15.884
 20
-1.4161
 30
0.0
 10
-15.6862
 20
-1.4007
 30
0.0
 10
-15.6862
 20
-1.4007
 30
0.0
 10
-15.6862
 20
-1.4007
 30
0.0
 10
-15.6862
 20
-1.4007
 30
0.0
 10
-15.5035
 20
-1.3855
 30
0.0
 10
-15.5035
 20
-1.3855
 30
0.0
 10
-15.5035
 20
-1.3855
 30
0.0
 10
-15.5035
 20
-1.3855
 30
0.0
 10
-15.3969
 20
-1.1872
 30
0.0
 10
-15.3969
 20
-1.1872
 30
0.0
 10
-15.3969
 20
-1.1872
 30
0.0
 10
-15.3969
 20
-1.1872
 30
0.0
 10
-15.3208
 20
-0.943
 30
0.0
 10
-15.3208
 20
-0.943
 30
0.0
 10
-15.3208
 20
-0.943
 30
0.0
 10
-15.3208
 20
-0.943
 30
0.0
 10
-15.1685
 20
0.409
 30
0.0
 10
-15.1685
 20
0.409
 30
0.0
  0
SPLINE
  5
F4
330
1F
100
AcDbEntity
  8
DEFAULT_1
 62
   250
100
AcDbSpline
210
0.0
220
0.0
230
1.0
 70
     8
 71
     3
 72
    40
 73
    36
 74
     0
 42
0.0000000001
 43
0.0000000001
 40
0.0
 40
0.0
 40
0.0
 40
0.0
 40
0.1
 40
0.1
 40
0.1
 40
0.1
 40
0.2
 40
0.2
 40
0.2
 40
0.2
 40
0.3
 40
0.3
 40
0.3
 40
0.3
 40
0.4
 40
0.4
 40
0.4
 40
0.4
 40
0.5
 40
0.5
 40
0.5
 40
0.5
 40
0.6
 40
0.6
 40
0.6
 40
0.6
 40
0.7
 40
0.7
 40
0.7
 40
0.7
 40
0.8
 40
0.8
 40
0.8
 40
0.8
 40
1.0
 40
1.0
 40
1.0
 40
1.0
 10
-15.1491
 20
0.3764
 30
0.0
 10
-15.1491
 20
0.3764
 30
0.0
 10
-14.9524
 20
-1.2099
 30
0.0
 10
-14.9524
 20
-1.2099
 30
0.0
 10
-14.9524
 20
-1.2099
 30
0.0
 10
-14.9524
 20
-1.2099
 30
0.0
 10
-14.8218
 20
-1.3771
 30
0.0
 10
-14.8218
 20
-1.3771
 30
0.0
 10
-14.8218
 20
-1.3771
 30
0.0
 10
-14.8218
 20
-1.3771
 30
0.0
 10
-14.6085
 20
-1.4231
 30
0.0
 10
-14.6085
 20
-1.4231
 30
0.0
 10
-14.6085
 20
-1.4231
 30
0.0
 10
-14.6085
 20
-1.4231
 30
0.0
 10
-14.3192
 20
-1.4231
 30
0.0
 10
-14.3192
 20
-1.4231
 30
0.0
 10
-14.3192
 20
-1.4231
 30
0.0
 10
-14.3192
 20
-1.4231
 30
0.0
 10
-14.1214
 20
-1.4077
 30
0.0
 10
-14.1214
 20
-1.4077
 30
0.0
 10
-14.1214
 20
-1.4077
 30
0.0
 10
-14.1214
 20
-1.4077
 30
0.0
 10
-13.9387
 20
-1.3925
 30
0.0
 10
-13.9387
 20
-1.3925
 30
0.0
 10
-13.9387
 20
-1.3925
 30
0.0
 10
-13.9387
 20
-1.3925
 30
0.0
 10
-13.8321
 20
-1.1942
 30
0.0
 10
-13.8321
 20
-1.1942
 30
0.0
 10
-13.8321
 20
-1.1942
 30
0.0
 10
-13.8321
 20
-1.1942
 30
0.0
 10
-13.756
 20
-0.95
 30
0.0
 10
-13.756
 20
-0.95
 30
0.0
 10
-13.756
 20
-0.95
 30
0.0
 10
-13.756
 20
-0.95
 30
0.0
 10
-13.6037
 20
0.416
 30
0.0
 10
-13.6037
 20
0.416
 30
0.0
  0
SPLINE
  5
F5
330
1F
100
AcDbEntity
  8
DEFAULT_1
 62
   250
100
AcDbSpline
210
0.0
220
0.0
230
1.0
 70
     8
 71
     3
 72
    40
 73
    36
 74
     0
 42
0.0000000001
 43
0.0000000001
 40
0.0
 40
0.0
 40
0.0
 40
0.0
 40
0.1
 40
0.1
 40
0.1
 40
0.1
 40
0.2
 40
0.2
 40
0.2
 40
0.2
 40
0.3
 40
0.3
 40
0.3
 40
0.3
 40
0.4
 40
0.4
 40
0.4
 40
0.4
 40
0.5
 40
0.5
 40
0.5
 40
0.5
 40
0.6
 40
0.6
 40
0.6
 40
0.6
 40
0.7
 40
0.7
 40
0.7
 40
0.7
 40
0.8
 40
0.8
 40
0.8
 40
0.8
 40
1.0
 40
1.0
 40
1.0
 40
1.0
 10
-13.5764
 20
0.3834
 30
0.0
 10
-13.5764
 20
0.3834
 30
0.0
 10
-13.3797
 20
-1.2029
 30
0.0
 10
-13.3797
 20
-1.2029
 30
0.0
 10
-13.3797
 20
-1.2029
 30
0.0
 10
-13.3797
 20
-1.2029
 30
0.0
 10
-13.249
 20
-1.3701
 30
0.0
 10
-13.249
 20
-1.3701
 30
0.0
 10
-13.249
 20
-1.3701
 30
0.0
 10
-13.249
 20
-1.3701
 30
0.0
 10
-13.0358
 20
-1.4161
 30
0.0
 10
-13.0358
 20
-1.4161
 30
0.0
 10
-13.0358
 20
-1.4161
 30
0.0
 10
-13.0358
 20
-1.4161
 30
0.0
 10
-12.7465
 20
-1.4161
 30
0.0
 10
-12.7465
 20
-1.4161
 30
0.0
 10
-12.7465
 20
-1.4161
 30
0.0
 10
-12.7465
 20
-1.4161
 30
0.0
 10
-12.5487
 20
-1.4007
 30
0.0
 10
-12.5487
 20
-1.4007
 30
0.0
 10
-12.5487
 20
-1.4007
 30
0.0
 10
-12.5487
 20
-1.4007
 30
0.0
 10
-12.366
 20
-1.3855
 30
0.0
 10
-12.366
 20
-1.3855
 30
0.0
 10
-12.366
 20
-1.3855
 30
0.0
 10
-12.366
 20
-1.3855
 30
0.0
 10
-12.2594
 20
-1.1872
 30
0.0
 10
-12.2594
 20
-1.1872
 30
0.0
 10
-12.2594
 20
-1.1872
 30
0.0
 10
-12.2594
 20
-1.1872
 30
0.0
 10
-12.1833
 20
-0.943
 30
0.0
 10
-12.1833
 20
-0.943
 30
0.0
 10
-12.1833
 20
-0.943
 30
0.0
 10
-12.1833
 20
-0.943
 30
0.0
 10
-12.031
 20
0.409
 30
0.0
 10
-12.031
 20
0.409
 30
0.0
  0
SPLINE
  5
F6
330
1F
100
AcDbEntity
  8
DEFAULT_1
 62
   250
100
AcDbSpline
210
0.0
220
0.0
230
1.0
 70
     8
 71
     3
 72
    40
 73
    36
 74
     0
 42
0.0000000001
 43
0.0000000001
 40
0.0
 40
0.0
 40
0.0
 40
0.0
 40
0.1
 40
0.1
 40
0.1
 40
0.1
 40
0.2
 40
0.2
 40
0.2
 40
0.2
 40
0.3
 40
0.3
 40
0.3
 40
0.3
 40
0.4
 40
0.4
 40
0.4
 40
0.4
 40
0.5
 40
0.5
 40
0.5
 40
0.5
 40
0.6
 40
0.6
 40
0.6
 40
0.6
 40
0.7
 40
0.7
 40
0.7
 40
0.7
 40
0.8
 40
0.8
 40
0.8
 40
0.8
 40
1.0
 40
1.0
 40
1.0
 40
1.0
 10
-12.0116
 20
0.3764
 30
0.0
 10
-12.0116
 20
0.3764
 30
0.0
 10
-11.8149
 20
-1.2099
 30
0.0
 10
-11.8149
 20
-1.2099
 30
0.0
 10
-11.8149
 20
-1.2099
 30
0.0
 10
-11.8149
 20
-1.2099
 30
0.0
 10
-11.6843
 20
-1.3771
 30
0.0
 10
-11.6843
 20
-1.3771
 30
0.0
 10
-11.6843
 20
-1.3771
 30
0.0
 10
-11.6843
 20
-1.3771
 30
0.0
 10
-11.471
 20
-1.4231
 30
0.0
 10
-11.471
 20
-1.4231
 30
0.0
 10
-11.471
 20
-1.4231
 30
0.0
 10
-11.471
 20
-1.4231
 30
0.0
 10
-11.1817
 20
-1.4231
 30
0.0
 10
-11.1817
 20
-1.4231
 30
0.0
 10
-11.1817
 20
-1.4231
 30
0.0
 10
-11.1817
 20
-1.4231
 30
0.0
 10
-10.9839
 20
-1.4077
 30
0.0
 10
-10.9839
 20
-1.4077
 30
0.0
 10
-10.9839
 20
-1.4077
 30
0.0
 10
-10.9839
 20
-1.4077
 30
0.0
 10
-10.8012
 20
-1.3925
 30
0.0
 10
-10.8012
 20
-1.3925
 30
0.0
 10
-10.8012
 20
-1.3925
 30
0.0
 10
-10.8012
 20
-1.3925
 30
0.0
 10
-10.6946
 20
-1.1942
 30
0.0
 10
-10.6946
 20
-1.1942
 30
0.0
 10
-10.6946
 20
-1.1942
 30
0.0
 10
-10.6946
 20
-1.1942
 30
0.0
 10
-10.6185
 20
-0.95
 30
0.0
 10
-10.6185
 20
-0.95
 30
0.0
 10
-10.6185
 20
-0.95
 30
0.0
 10
-10.6185
 20
-0.95
 30
0.0
 10
-10.4662
 20
0.416
 30
0.0
 10
-10.4662
 20
0.416
 30
0.0
  0
SPLINE
  5
F7
330
1F
100
AcDbEntity
  8
DEFAULT_1
 62
   250
100
AcDbSpline
210
0.0
220
0.0
230
1.0
 70
     8
 71
     3
 72
    40
 73
    36
 74
     0
 42
0.0000000001
 43
0.0000000001
 40
0.0
 40
0.0
 40
0.0
 40
0.0
 40
0.1
 40
0.1
 40
0.1
 40
0.1
 40
0.2
 40
0.2
 40
0.2
 40
0.2
 40
0.3
 40
0.3
 40
0.3
 40
0.3
 40
0.4
 40
0.4
 40
0.4
 40
0.4
 40
0.5
 40
0.5
 40
0.5
 40
0.5
 40
0.6
 40
0.6
 40
0.6
 40
0.6
 40
0.7
 40
0.7
 40
0.7
 40
0.7
 40
0.8
 40
0.8
 40
0.8
 40
0.8
 40
1.0
 40
1.0
 40
1.0
 40
1.0
 10
-8.4922
 20
12.8893
 30
0.0
 10
-8.4922
 20
12.8893
 30
0.0
 10
-8.2955
 20
14.4755
 30
0.0
 10
-8.2955
 20
14.4755
 30
0.0
 10
-8.2955
 20
14.4755
 30
0.0
 10
-8.2955
 20
14.4755
 30
0.0
 10
-8.1648
 20
14.6428
 30
0.0
 10
-8.1648
 20
14.6428
 30
0.0
 10
-8.1648
 20
14.6428
 30
0.0
 10
-8.1648
 20
14.6428
 30
0.0
 10
-7.9516
 20
14.6888
 30
0.0
 10
-7.9516
 20
14.6888
 30
0.0
 10
-7.9516
 20
14.6888
 30
0.0
 10
-7.9516
 20
14.6888
 30
0.0
 10
-7.6623
 20
14.6888
 30
0.0
 10
-7.6623
 20
14.6888
 30
0.0
 10
-7.6623
 20
14.6888
 30
0.0
 10
-7.6623
 20
14.6888
 30
0.0
 10
-7.4645
 20
14.6734
 30
0.0
 10
-7.4645
 20
14.6734
 30
0.0
 10
-7.4645
 20
14.6734
 30
0.0
 10
-7.4645
 20
14.6734
 30
0.0
 10
-7.2818
 20
14.6582
 30
0.0
 10
-7.2818
 20
14.6582
 30
0.0
 10
-7.2818
 20
14.6582
 30
0.0
 10
-7.2818
 20
14.6582
 30
0.0
 10
-7.1752
 20
14.4599
 30
0.0
 10
-7.1752
 20
14.4599
 30
0.0
 10
-7.1752
 20
14.4599
 30
0.0
 10
-7.1752
 20
14.4599
 30
0.0
 10
-7.0991
 20
14.2156
 30
0.0
 10
-7.0991
 20
14.2156
 30
0.0
 10
-7.0991
 20
14.2156
 30
0.0
 10
-7.0991
 20
14.2156
 30
0.0
 10
-6.9468
 20
12.8636
 30
0.0
 10
-6.9468
 20
12.8636
 30
0.0
  0
SPLINE
  5
F8
330
1F
100
AcDbEntity
  8
DEFAULT_1
 62
   250
100
AcDbSpline
210
0.0
220
0.0
230
1.0
 70
     8
 71
     3
 72
    40
 73
    36
 74
     0
 42
0.0000000001
 43
0.0000000001
 40
0.0
 40
0.0
 40
0.0
 40
0.0
 40
0.1
 40
0.1
 40
0.1
 40
0.1
 40
0.2
 40
0.2
 40
0.2
 40
0.2
 40
0.3
 40
0.3
 40
0.3
 40
0.3
 40
0.4
 40
0.4
 40
0.4
 40
0.4
 40
0.5
 40
0.5
 40
0.5
 40
0.5
 40
0.6
 40
0.6
 40
0.6
 40
0.6
 40
0.7
 40
0.7
 40
0.7
 40
0.7
 40
0.8
 40
0.8
 40
0.8
 40
0.8
 40
1.0
 40
1.0
 40
1.0
 40
1.0
 10
-6.9274
 20
12.8963
 30
0.0
 10
-6.9274
 20
12.8963
 30
0.0
 10
-6.7307
 20
14.4825
 30
0.0
 10
-6.7307
 20
14.4825
 30
0.0
 10
-6.7307
 20
14.4825
 30
0.0
 10
-6.7307
 20
14.4825
 30
0.0
 10
-6.6001
 20
14.6498
 30
0.0
 10
-6.6001
 20
14.6498
 30
0.0
 10
-6.6001
 20
14.6498
 30
0.0
 10
-6.6001
 20
14.6498
 30
0.0
 10
-6.3868
 20
14.6958
 30
0.0
 10
-6.3868
 20
14.6958
 30
0.0
 10
-6.3868
 20
14.6958
 30
0.0
 10
-6.3868
 20
14.6958
 30
0.0
 10
-6.0975
 20
14.6958
 30
0.0
 10
-6.0975
 20
14.6958
 30
0.0
 10
-6.0975
 20
14.6958
 30
0.0
 10
-6.0975
 20
14.6958
 30
0.0
 10
-5.8997
 20
14.6804
 30
0.0
 10
-5.8997
 20
14.6804
 30
0.0
 10
-5.8997
 20
14.6804
 30
0.0
 10
-5.8997
 20
14.6804
 30
0.0
 10
-5.717
 20
14.6652
 30
0.0
 10
-5.717
 20
14.6652
 30
0.0
 10
-5.717
 20
14.6652
 30
0.0
 10
-5.717
 20
14.6652
 30
0.0
 10
-5.6104
 20
14.4669
 30
0.0
 10
-5.6104
 20
14.4669
 30
0.0
 10
-5.6104
 20
14.4669
 30
0.0
 10
-5.6104
 20
14.4669
 30
0.0
 10
-5.5343
 20
14.2226
 30
0.0
 10
-5.5343
 20
14.2226
 30
0.0
 10
-5.5343
 20
14.2226
 30
0.0
 10
-5.5343
 20
14.2226
 30
0.0
 10
-5.382
 20
12.8566
 30
0.0
 10
-5.382
 20
12.8566
 30
0.0
  0
SPLINE
  5
F9
330
1F
100
AcDbEntity
  8
DEFAULT_1
 62
   250
100
AcDbSpline
210
0.0
220
0.0
230
1.0
 70
     8
 71
     3
 72
    40
 73
    36
 74
     0
 42
0.0000000001
 43
0.0000000001
 40
0.0
 40
0.0
 40
0.0
 40
0.0
 40
0.1
 40
0.1
 40
0.1
 40
0.1
 40
0.2
 40
0.2
 40
0.2
 40
0.2
 40
0.3
 40
0.3
 40
0.3
 40
0.3
 40
0.4
 40
0.4
 40
0.4
 40
0.4
 40
0.5
 40
0.5
 40
0.5
 40
0.5
 40
0.6
 40
0.6
 40
0.6
 40
0.6
 40
0.7
 40
0.7
 40
0.7
 40
0.7
 40
0.8
 40
0.8
 40
0.8
 40
0.8
 40
1.0
 40
1.0
 40
1.0
 40
1.0
 10
-5.3547
 20
12.8893
 30
0.0
 10
-5.3547
 20
12.8893
 30
0.0
 10
-5.158
 20
14.4755
 30
0.0
 10
-5.158
 20
14.4755
 30
0.0
 10
-5.158
 20
14.4755
 30
0.0
 10
-5.158
 20
14.4755
 30
0.0
 10
-5.0274
 20
14.6428
 30
0.0
 10
-5.0274
 20
14.6428
 30
0.0
 10
-5.0274
 20
14.6428
 30
0.0
 10
-5.0274
 20
14.6428
 30
0.0
 10
-4.8141
 20
14.6888
 30
0.0
 10
-4.8141
 20
14.6888
 30
0.0
 10
-4.8141
 20
14.6888
 30
0.0
 10
-4.8141
 20
14.6888
 30
0.0
 10
-4.5248
 20
14.6888
 30
0.0
 10
-4.5248
 20
14.6888
 30
0.0
 10
-4.5248
 20
14.6888
 30
0.0
 10
-4.5248
 20
14.6888
 30
0.0
 10
-4.327
 20
14.6734
 30
0.0
 10
-4.327
 20
14.6734
 30
0.0
 10
-4.327
 20
14.6734
 30
0.0
 10
-4.327
 20
14.6734
 30
0.0
 10
-4.1443
 20
14.6582
 30
0.0
 10
-4.1443
 20
14.6582
 30
0.0
 10
-4.1443
 20
14.6582
 30
0.0
 10
-4.1443
 20
14.6582
 30
0.0
 10
-4.0377
 20
14.4599
 30
0.0
 10
-4.0377
 20
14.4599
 30
0.0
 10
-4.0377
 20
14.4599
 30
0.0
 10
-4.0377
 20
14.4599
 30
0.0
 10
-3.9616
 20
14.2156
 30
0.0
 10
-3.9616
 20
14.2156
 30
0.0
 10
-3.9616
 20
14.2156
 30
0.0
 10
-3.9616
 20
14.2156
 30
0.0
 10
-3.8093
 20
12.8636
 30
0.0
 10
-3.8093
 20
12.8636
 30
0.0
  0
SPLINE
  5
FA
330
1F
100
AcDbEntity
  8
DEFAULT_1
 62
   250
100
AcDbSpline
210
0.0
220
0.0
230
1.0
 70
     8
 71
     3
 72
    40
 73
    36
 74
     0
 42
0.0000000001
 43
0.0000000001
 40
0.0
 40
0.0
 40
0.0
 40
0.0
 40
0.1
 40
0.1
 40
0.1
 40
0.1
 40
0.2
 40
0.2
 40
0.2
 40
0.2
 40
0.3
 40
0.3
 40
0.3
 40
0.3
 40
0.4
 40
0.4
 40
0.4
 40
0.4
 40
0.5
 40
0.5
 40
0.5
 40
0.5
 40
0.6
 40
0.6
 40
0.6
 40
0.6
 40
0.7
 40
0.7
 40
0.7
 40
0.7
 40
0.8
 40
0.8
 40
0.8
 40
0.8
 40
1.0
 40
1.0
 40
1.0
 40
1.0
 10
-3.7899
 20
12.8963
 30
0.0
 10
-3.7899
 20
12.8963
 30
0.0
 10
-3.5932
 20
14.4825
 30
0.0
 10
-3.5932
 20
14.4825
 30
0.0
 10
-3.5932
 20
14.4825
 30
0.0
 10
-3.5932
 20
14.4825
 30
0.0
 10
-3.4626
 20
14.6498
 30
0.0
 10
-3.4626
 20
14.6498
 30
0.0
 10
-3.4626
 20
14.6498
 30
0.0
 10
-3.4626
 20
14.6498
 30
0.0
 10
-3.2493
 20
14.6958
 30
0.0
 10
-3.2493
 20
14.6958
 30
0.0
 10
-3.2493
 20
14.6958
 30
0.0
 10
-3.2493
 20
14.6958
 30
0.0
 10
-2.96
 20
14.6958
 30
0.0
 10
-2.96
 20
14.6958
 30
0.0
 10
-2.96
 20
14.6958
 30
0.0
 10
-2.96
 20
14.6958
 30
0.0
 10
-2.7622
 20
14.6804
 30
0.0
 10
-2.7622
 20
14.6804
 30
0.0
 10
-2.7622
 20
14.6804
 30
0.0
 10
-2.7622
 20
14.6804
 30
0.0
 10
-2.5795
 20
14.6652
 30
0.0
 10
-2.5795
 20
14.6652
 30
0.0
 10
-2.5795
 20
14.6652
 30
0.0
 10
-2.5795
 20
14.6652
 30
0.0
 10
-2.4729
 20
14.4669
 30
0.0
 10
-2.4729
 20
14.4669
 30
0.0
 10
-2.4729
 20
14.4669
 30
0.0
 10
-2.4729
 20
14.4669
 30
0.0
 10
-2.3968
 20
14.2226
 30
0.0
 10
-2.3968
 20
14.2226
 30
0.0
 10
-2.3968
 20
14.2226
 30
0.0
 10
-2.3968
 20
14.2226
 30
0.0
 10
-2.2445
 20
12.8566
 30
0.0
 10
-2.2445
 20
12.8566
 30
0.0
  0
SPLINE
  5
FB
330
1F
100
AcDbEntity
  8
DEFAULT_1
 62
   250
100
AcDbSpline
210
0.0
220
0.0
230
1.0
 70
     8
 71
     3
 72
    40
 73
    36
 74
     0
 42
0.0000000001
 43
0.0000000001
 40
0.0
 40
0.0
 40
0.0
 40
0.0
 40
0.1
 40
0.1
 40
0.1
 40
0.1
 40
0.2
 40
0.2
 40
0.2
 40
0.2
 40
0.3
 40
0.3
 40
0.3
 40
0.3
 40
0.4
 40
0.4
 40
0.4
 40
0.4
 40
0.5
 40
0.5
 40
0.5
 40
0.5
 40
0.6
 40
0.6
 40
0.6
 40
0.6
 40
0.7
 40
0.7
 40
0.7
 40
0.7
 40
0.8
 40
0.8
 40
0.8
 40
0.8
 40
1.0
 40
1.0
 40
1.0
 40
1.0
 10
-2.2361
 20
12.8659
 30
0.0
 10
-2.2361
 20
12.8659
 30
0.0
 10
-2.0394
 20
14.4522
 30
0.0
 10
-2.0394
 20
14.4522
 30
0.0
 10
-2.0394
 20
14.4522
 30
0.0
 10
-2.0394
 20
14.4522
 30
0.0
 10
-1.9088
 20
14.6195
 30
0.0
 10
-1.9088
 20
14.6195
 30
0.0
 10
-1.9088
 20
14.6195
 30
0.0
 10
-1.9088
 20
14.6195
 30
0.0
 10
-1.6955
 20
14.6654
 30
0.0
 10
-1.6955
 20
14.6654
 30
0.0
 10
-1.6955
 20
14.6654
 30
0.0
 10
-1.6955
 20
14.6654
 30
0.0
 10
-1.4062
 20
14.6654
 30
0.0
 10
-1.4062
 20
14.6654
 30
0.0
 10
-1.4062
 20
14.6654
 30
0.0
 10
-1.4062
 20
14.6654
 30
0.0
 10
-1.2084
 20
14.65
 30
0.0
 10
-1.2084
 20
14.65
 30
0.0
 10
-1.2084
 20
14.65
 30
0.0
 10
-1.2084
 20
14.65
 30
0.0
 10
-1.0257
 20
14.6349
 30
0.0
 10
-1.0257
 20
14.6349
 30
0.0
 10
-1.0257
 20
14.6349
 30
0.0
 10
-1.0257
 20
14.6349
 30
0.0
 10
-0.9191
 20
14.4365
 30
0.0
 10
-0.9191
 20
14.4365
 30
0.0
 10
-0.9191
 20
14.4365
 30
0.0
 10
-0.9191
 20
14.4365
 30
0.0
 10
-0.843
 20
14.1923
 30
0.0
 10
-0.843
 20
14.1923
 30
0.0
 10
-0.843
 20
14.1923
 30
0.0
 10
-0.843
 20
14.1923
 30
0.0
 10
-0.6907
 20
12.8403
 30
0.0
 10
-0.6907
 20
12.8403
 30
0.0
  0
SPLINE
  5
FC
330
1F
100
AcDbEntity
  8
DEFAULT_1
 62
   250
100
AcDbSpline
210
0.0
220
0.0
230
1.0
 70
     8
 71
     3
 72
    40
 73
    36
 74
     0
 42
0.0000000001
 43
0.0000000001
 40
0.0
 40
0.0
 40
0.0
 40
0.0
 40
0.1
 40
0.1
 40
0.1
 40
0.1
 40
0.2
 40
0.2
 40
0.2
 40
0.2
 40
0.3
 40
0.3
 40
0.3
 40
0.3
 40
0.4
 40
0.4
 40
0.4
 40
0.4
 40
0.5
 40
0.5
 40
0.5
 40
0.5
 40
0.6
 40
0.6
 40
0.6
 40
0.6
 40
0.7
 40
0.7
 40
0.7
 40
0.7
 40
0.8
 40
0.8
 40
0.8
 40
0.8
 40
1.0
 40
1.0
 40
1.0
 40
1.0
 10
-0.6713
 20
12.8729
 30
0.0
 10
-0.6713
 20
12.8729
 30
0.0
 10
-0.4746
 20
14.4592
 30
0.0
 10
-0.4746
 20
14.4592
 30
0.0
 10
-0.4746
 20
14.4592
 30
0.0
 10
-0.4746
 20
14.4592
 30
0.0
 10
-0.344
 20
14.6265
 30
0.0
 10
-0.344
 20
14.6265
 30
0.0
 10
-0.344
 20
14.6265
 30
0.0
 10
-0.344
 20
14.6265
 30
0.0
 10
-0.1307
 20
14.6724
 30
0.0
 10
-0.1307
 20
14.6724
 30
0.0
 10
-0.1307
 20
14.6724
 30
0.0
 10
-0.1307
 20
14.6724
 30
0.0
 10
0.1586
 20
14.6724
 30
0.0
 10
0.1586
 20
14.6724
 30
0.0
 10
0.1586
 20
14.6724
 30
0.0
 10
0.1586
 20
14.6724
 30
0.0
 10
0.3564
 20
14.657
 30
0.0
 10
0.3564
 20
14.657
 30
0.0
 10
0.3564
 20
14.657
 30
0.0
 10
0.3564
 20
14.657
 30
0.0
 10
0.5391
 20
14.6419
 30
0.0
 10
0.5391
 20
14.6419
 30
0.0
 10
0.5391
 20
14.6419
 30
0.0
 10
0.5391
 20
14.6419
 30
0.0
 10
0.6457
 20
14.4435
 30
0.0
 10
0.6457
 20
14.4435
 30
0.0
 10
0.6457
 20
14.4435
 30
0.0
 10
0.6457
 20
14.4435
 30
0.0
 10
0.7218
 20
14.1993
 30
0.0
 10
0.7218
 20
14.1993
 30
0.0
 10
0.7218
 20
14.1993
 30
0.0
 10
0.7218
 20
14.1993
 30
0.0
 10
0.8741
 20
12.8333
 30
0.0
 10
0.8741
 20
12.8333
 30
0.0
  0
SPLINE
  5
FD
330
1F
100
AcDbEntity
  8
DEFAULT_1
 62
   250
100
AcDbSpline
210
0.0
220
0.0
230
1.0
 70
     8
 71
     3
 72
    40
 73
    36
 74
     0
 42
0.0000000001
 43
0.0000000001
 40
0.0
 40
0.0
 40
0.0
 40
0.0
 40
0.1
 40
0.1
 40
0.1
 40
0.1
 40
0.2
 40
0.2
 40
0.2
 40
0.2
 40
0.3
 40
0.3
 40
0.3
 40
0.3
 40
0.4
 40
0.4
 40
0.4
 40
0.4
 40
0.5
 40
0.5
 40
0.5
 40
0.5
 40
0.6
 40
0.6
 40
0.6
 40
0.6
 40
0.7
 40
0.7
 40
0.7
 40
0.7
 40
0.8
 40
0.8
 40
0.8
 40
0.8
 40
1.0
 40
1.0
 40
1.0
 40
1.0
 10
0.9014
 20
12.8659
 30
0.0
 10
0.9014
 20
12.8659
 30
0.0
 10
1.0981
 20
14.4522
 30
0.0
 10
1.0981
 20
14.4522
 30
0.0
 10
1.0981
 20
14.4522
 30
0.0
 10
1.0981
 20
14.4522
 30
0.0
 10
1.2287
 20
14.6195
 30
0.0
 10
1.2287
 20
14.6195
 30
0.0
 10
1.2287
 20
14.6195
 30
0.0
 10
1.2287
 20
14.6195
 30
0.0
 10
1.442
 20
14.6654
 30
0.0
 10
1.442
 20
14.6654
 30
0.0
 10
1.442
 20
14.6654
 30
0.0
 10
1.442
 20
14.6654
 30
0.0
 10
1.7313
 20
14.6654
 30
0.0
 10
1.7313
 20
14.6654
 30
0.0
 10
1.7313
 20
14.6654
 30
0.0
 10
1.7313
 20
14.6654
 30
0.0
 10
1.9291
 20
14.65
 30
0.0
 10
1.9291
 20
14.65
 30
0.0
 10
1.9291
 20
14.65
 30
0.0
 10
1.9291
 20
14.65
 30
0.0
 10
2.1118
 20
14.6349
 30
0.0
 10
2.1118
 20
14.6349
 30
0.0
 10
2.1118
 20
14.6349
 30
0.0
 10
2.1118
 20
14.6349
 30
0.0
 10
2.2184
 20
14.4365
 30
0.0
 10
2.2184
 20
14.4365
 30
0.0
 10
2.2184
 20
14.4365
 30
0.0
 10
2.2184
 20
14.4365
 30
0.0
 10
2.2945
 20
14.1923
 30
0.0
 10
2.2945
 20
14.1923
 30
0.0
 10
2.2945
 20
14.1923
 30
0.0
 10
2.2945
 20
14.1923
 30
0.0
 10
2.4468
 20
12.8403
 30
0.0
 10
2.4468
 20
12.8403
 30
0.0
  0
SPLINE
  5
FE
330
1F
100
AcDbEntity
  8
DEFAULT_1
 62
   250
100
AcDbSpline
210
0.0
220
0.0
230
1.0
 70
     8
 71
     3
 72
    40
 73
    36
 74
     0
 42
0.0000000001
 43
0.0000000001
 40
0.0
 40
0.0
 40
0.0
 40
0.0
 40
0.1
 40
0.1
 40
0.1
 40
0.1
 40
0.2
 40
0.2
 40
0.2
 40
0.2
 40
0.3
 40
0.3
 40
0.3
 40
0.3
 40
0.4
 40
0.4
 40
0.4
 40
0.4
 40
0.5
 40
0.5
 40
0.5
 40
0.5
 40
0.6
 40
0.6
 40
0.6
 40
0.6
 40
0.7
 40
0.7
 40
0.7
 40
0.7
 40
0.8
 40
0.8
 40
0.8
 40
0.8
 40
1.0
 40
1.0
 40
1.0
 40
1.0
 10
2.4662
 20
12.8729
 30
0.0
 10
2.4662
 20
12.8729
 30
0.0
 10
2.6629
 20
14.4592
 30
0.0
 10
2.6629
 20
14.4592
 30
0.0
 10
2.6629
 20
14.4592
 30
0.0
 10
2.6629
 20
14.4592
 30
0.0
 10
2.7935
 20
14.6265
 30
0.0
 10
2.7935
 20
14.6265
 30
0.0
 10
2.7935
 20
14.6265
 30
0.0
 10
2.7935
 20
14.6265
 30
0.0
 10
3.0068
 20
14.6724
 30
0.0
 10
3.0068
 20
14.6724
 30
0.0
 10
3.0068
 20
14.6724
 30
0.0
 10
3.0068
 20
14.6724
 30
0.0
 10
3.2961
 20
14.6724
 30
0.0
 10
3.2961
 20
14.6724
 30
0.0
 10
3.2961
 20
14.6724
 30
0.0
 10
3.2961
 20
14.6724
 30
0.0
 10
3.4939
 20
14.657
 30
0.0
 10
3.4939
 20
14.657
 30
0.0
 10
3.4939
 20
14.657
 30
0.0
 10
3.4939
 20
14.657
 30
0.0
 10
3.6766
 20
14.6419
 30
0.0
 10
3.6766
 20
14.6419
 30
0.0
 10
3.6766
 20
14.6419
 30
0.0
 10
3.6766
 20
14.6419
 30
0.0
 10
3.7832
 20
14.4435
 30
0.0
 10
3.7832
 20
14.4435
 30
0.0
 10
3.7832
 20
14.4435
 30
0.0
 10
3.7832
 20
14.4435
 30
0.0
 10
3.8593
 20
14.1993
 30
0.0
 10
3.8593
 20
14.1993
 30
0.0
 10
3.8593
 20
14.1993
 30
0.0
 10
3.8593
 20
14.1993
 30
0.0
 10
4.0116
 20
12.8333
 30
0.0
 10
4.0116
 20
12.8333
 30
0.0
  0
SPLINE
  5
FF
330
1F
100
AcDbEntity
  8
DEFAULT_1
 62
   250
100
AcDbSpline
210
0.0
220
0.0
230
1.0
 70
     8
 71
     3
 72
    40
 73
    36
 74
     0
 42
0.0000000001
 43
0.0000000001
 40
0.0
 40
0.0
 40
0.0
 40
0.0
 40
0.1
 40
0.1
 40
0.1
 40
0.1
 40
0.2
 40
0.2
 40
0.2
 40
0.2
 40
0.3
 40
0.3
 40
0.3
 40
0.3
 40
0.4
 40
0.4
 40
0.4
 40
0.4
 40
0.5
 40
0.5
 40
0.5
 40
0.5
 40
0.6
 40
0.6
 40
0.6
 40
0.6
 40
0.7
 40
0.7
 40
0.7
 40
0.7
 40
0.8
 40
0.8
 40
0.8
 40
0.8
 40
1.0
 40
1.0
 40
1.0
 40
1.0
 10
4.0097
 20
12.8893
 30
0.0
 10
4.0097
 20
12.8893
 30
0.0
 10
4.2064
 20
14.4755
 30
0.0
 10
4.2064
 20
14.4755
 30
0.0
 10
4.2064
 20
14.4755
 30
0.0
 10
4.2064
 20
14.4755
 30
0.0
 10
4.3371
 20
14.6428
 30
0.0
 10
4.3371
 20
14.6428
 30
0.0
 10
4.3371
 20
14.6428
 30
0.0
 10
4.3371
 20
14.6428
 30
0.0
 10
4.5503
 20
14.6888
 30
0.0
 10
4.5503
 20
14.6888
 30
0.0
 10
4.5503
 20
14.6888
 30
0.0
 10
4.5503
 20
14.6888
 30
0.0
 10
4.8396
 20
14.6888
 30
0.0
 10
4.8396
 20
14.6888
 30
0.0
 10
4.8396
 20
14.6888
 30
0.0
 10
4.8396
 20
14.6888
 30
0.0
 10
5.0375
 20
14.6734
 30
0.0
 10
5.0375
 20
14.6734
 30
0.0
 10
5.0375
 20
14.6734
 30
0.0
 10
5.0375
 20
14.6734
 30
0.0
 10
5.2201
 20
14.6582
 30
0.0
 10
5.2201
 20
14.6582
 30
0.0
 10
5.2201
 20
14.6582
 30
0.0
 10
5.2201
 20
14.6582
 30
0.0
 10
5.3268
 20
14.4599
 30
0.0
 10
5.3268
 20
14.4599
 30
0.0
 10
5.3268
 20
14.4599
 30
0.0
 10
5.3268
 20
14.4599
 30
0.0
 10
5.4028
 20
14.2156
 30
0.0
 10
5.4028
 20
14.2156
 30
0.0
 10
5.4028
 20
14.2156
 30
0.0
 10
5.4028
 20
14.2156
 30
0.0
 10
5.5552
 20
12.8636
 30
0.0
 10
5.5552
 20
12.8636
 30
0.0
  0
SPLINE
  5
100
330
1F
100
AcDbEntity
  8
DEFAULT_1
 62
   250
100
AcDbSpline
210
0.0
220
0.0
230
1.0
 70
     8
 71
     3
 72
    40
 73
    36
 74
     0
 42
0.0000000001
 43
0.0000000001
 40
0.0
 40
0.0
 40
0.0
 40
0.0
 40
0.1
 40
0.1
 40
0.1
 40
0.1
 40
0.2
 40
0.2
 40
0.2
 40
0.2
 40
0.3
 40
0.3
 40
0.3
 40
0.3
 40
0.4
 40
0.4
 40
0.4
 40
0.4
 40
0.5
 40
0.5
 40
0.5
 40
0.5
 40
0.6
 40
0.6
 40
0.6
 40
0.6
 40
0.7
 40
0.7
 40
0.7
 40
0.7
 40
0.8
 40
0.8
 40
0.8
 40
0.8
 40
1.0
 40
1.0
 40
1.0
 40
1.0
 10
5.5745
 20
12.8963
 30
0.0
 10
5.5745
 20
12.8963
 30
0.0
 10
5.7712
 20
14.4825
 30
0.0
 10
5.7712
 20
14.4825
 30
0.0
 10
5.7712
 20
14.4825
 30
0.0
 10
5.7712
 20
14.4825
 30
0.0
 10
5.9019
 20
14.6498
 30
0.0
 10
5.9019
 20
14.6498
 30
0.0
 10
5.9019
 20
14.6498
 30
0.0
 10
5.9019
 20
14.6498
 30
0.0
 10
6.1151
 20
14.6958
 30
0.0
 10
6.1151
 20
14.6958
 30
0.0
 10
6.1151
 20
14.6958
 30
0.0
 10
6.1151
 20
14.6958
 30
0.0
 10
6.4044
 20
14.6958
 30
0.0
 10
6.4044
 20
14.6958
 30
0.0
 10
6.4044
 20
14.6958
 30
0.0
 10
6.4044
 20
14.6958
 30
0.0
 10
6.6022
 20
14.6804
 30
0.0
 10
6.6022
 20
14.6804
 30
0.0
 10
6.6022
 20
14.6804
 30
0.0
 10
6.6022
 20
14.6804
 30
0.0
 10
6.7849
 20
14.6652
 30
0.0
 10
6.7849
 20
14.6652
 30
0.0
 10
6.7849
 20
14.6652
 30
0.0
 10
6.7849
 20
14.6652
 30
0.0
 10
6.8915
 20
14.4669
 30
0.0
 10
6.8915
 20
14.4669
 30
0.0
 10
6.8915
 20
14.4669
 30
0.0
 10
6.8915
 20
14.4669
 30
0.0
 10
6.9676
 20
14.2226
 30
0.0
 10
6.9676
 20
14.2226
 30
0.0
 10
6.9676
 20
14.2226
 30
0.0
 10
6.9676
 20
14.2226
 30
0.0
 10
7.1199
 20
12.8566
 30
0.0
 10
7.1199
 20
12.8566
 30
0.0
  0
SPLINE
  5
101
330
1F
100
AcDbEntity
  8
DEFAULT_1
 62
   250
100
AcDbSpline
210
0.0
220
0.0
230
1.0
 70
     8
 71
     3
 72
    40
 73
    36
 74
     0
 42
0.0000000001
 43
0.0000000001
 40
0.0
 40
0.0
 40
0.0
 40
0.0
 40
0.1
 40
0.1
 40
0.1
 40
0.1
 40
0.2
 40
0.2
 40
0.2
 40
0.2
 40
0.3
 40
0.3
 40
0.3
 40
0.3
 40
0.4
 40
0.4
 40
0.4
 40
0.4
 40
0.5
 40
0.5
 40
0.5
 40
0.5
 40
0.6
 40
0.6
 40
0.6
 40
0.6
 40
0.7
 40
0.7
 40
0.7
 40
0.7
 40
0.8
 40
0.8
 40
0.8
 40
0.8
 40
1.0
 40
1.0
 40
1.0
 40
1.0
 10
7.1283
 20
12.8659
 30
0.0
 10
7.1283
 20
12.8659
 30
0.0
 10
7.325
 20
14.4522
 30
0.0
 10
7.325
 20
14.4522
 30
0.0
 10
7.325
 20
14.4522
 30
0.0
 10
7.325
 20
14.4522
 30
0.0
 10
7.4557
 20
14.6195
 30
0.0
 10
7.4557
 20
14.6195
 30
0.0
 10
7.4557
 20
14.6195
 30
0.0
 10
7.4557
 20
14.6195
 30
0.0
 10
7.6689
 20
14.6654
 30
0.0
 10
7.6689
 20
14.6654
 30
0.0
 10
7.6689
 20
14.6654
 30
0.0
 10
7.6689
 20
14.6654
 30
0.0
 10
7.9582
 20
14.6654
 30
0.0
 10
7.9582
 20
14.6654
 30
0.0
 10
7.9582
 20
14.6654
 30
0.0
 10
7.9582
 20
14.6654
 30
0.0
 10
8.1561
 20
14.65
 30
0.0
 10
8.1561
 20
14.65
 30
0.0
 10
8.1561
 20
14.65
 30
0.0
 10
8.1561
 20
14.65
 30
0.0
 10
8.3387
 20
14.6349
 30
0.0
 10
8.3387
 20
14.6349
 30
0.0
 10
8.3387
 20
14.6349
 30
0.0
 10
8.3387
 20
14.6349
 30
0.0
 10
8.4454
 20
14.4365
 30
0.0
 10
8.4454
 20
14.4365
 30
0.0
 10
8.4454
 20
14.4365
 30
0.0
 10
8.4454
 20
14.4365
 30
0.0
 10
8.5214
 20
14.1923
 30
0.0
 10
8.5214
 20
14.1923
 30
0.0
 10
8.5214
 20
14.1923
 30
0.0
 10
8.5214
 20
14.1923
 30
0.0
 10
8.6738
 20
12.8403
 30
0.0
 10
8.6738
 20
12.8403
 30
0.0
  0
SPLINE
  5
102
330
1F
100
AcDbEntity
  8
DEFAULT_1
 62
   250
100
AcDbSpline
210
0.0
220
0.0
230
1.0
 70
     8
 71
     3
 72
    40
 73
    36
 74
     0
 42
0.0000000001
 43
0.0000000001
 40
0.0
 40
0.0
 40
0.0
 40
0.0
 40
0.1
 40
0.1
 40
0.1
 40
0.1
 40
0.2
 40
0.2
 40
0.2
 40
0.2
 40
0.3
 40
0.3
 40
0.3
 40
0.3
 40
0.4
 40
0.4
 40
0.4
 40
0.4
 40
0.5
 40
0.5
 40
0.5
 40
0.5
 40
0.6
 40
0.6
 40
0.6
 40
0.6
 40
0.7
 40
0.7
 40
0.7
 40
0.7
 40
0.8
 40
0.8
 40
0.8
 40
0.8
 40
1.0
 40
1.0
 40
1.0
 40
1.0
 10
8.6931
 20
12.8729
 30
0.0
 10
8.6931
 20
12.8729
 30
0.0
 10
8.8898
 20
14.4592
 30
0.0
 10
8.8898
 20
14.4592
 30
0.0
 10
8.8898
 20
14.4592
 30
0.0
 10
8.8898
 20
14.4592
 30
0.0
 10
9.0205
 20
14.6265
 30
0.0
 10
9.0205
 20
14.6265
 30
0.0
 10
9.0205
 20
14.6265
 30
0.0
 10
9.0205
 20
14.6265
 30
0.0
 10
9.2337
 20
14.6724
 30
0.0
 10
9.2337
 20
14.6724
 30
0.0
 10
9.2337
 20
14.6724
 30
0.0
 10
9.2337
 20
14.6724
 30
0.0
 10
9.523
 20
14.6724
 30
0.0
 10
9.523
 20
14.6724
 30
0.0
 10
9.523
 20
14.6724
 30
0.0
 10
9.523
 20
14.6724
 30
0.0
 10
9.7208
 20
14.657
 30
0.0
 10
9.7208
 20
14.657
 30
0.0
 10
9.7208
 20
14.657
 30
0.0
 10
9.7208
 20
14.657
 30
0.0
 10
9.9035
 20
14.6419
 30
0.0
 10
9.9035
 20
14.6419
 30
0.0
 10
9.9035
 20
14.6419
 30
0.0
 10
9.9035
 20
14.6419
 30
0.0
 10
10.0101
 20
14.4435
 30
0.0
 10
10.0101
 20
14.4435
 30
0.0
 10
10.0101
 20
14.4435
 30
0.0
 10
10.0101
 20
14.4435
 30
0.0
 10
10.0862
 20
14.1993
 30
0.0
 10
10.0862
 20
14.1993
 30
0.0
 10
10.0862
 20
14.1993
 30
0.0
 10
10.0862
 20
14.1993
 30
0.0
 10
10.2385
 20
12.8333
 30
0.0
 10
10.2385
 20
12.8333
 30
0.0
  0
SPLINE
  5
103
330
1F
100
AcDbEntity
  8
DEFAULT_1
 62
   250
100
AcDbSpline
210
0.0
220
0.0
230
1.0
 70
     8
 71
     3
 72
    40
 73
    36
 74
     0
 42
0.0000000001
 43
0.0000000001
 40
0.0
 40
0.0
 40
0.0
 40
0.0
 40
0.1
 40
0.1
 40
0.1
 40
0.1
 40
0.2
 40
0.2
 40
0.2
 40
0.2
 40
0.3
 40
0.3
 40
0.3
 40
0.3
 40
0.4
 40
0.4
 40
0.4
 40
0.4
 40
0.5
 40
0.5
 40
0.5
 40
0.5
 40
0.6
 40
0.6
 40
0.6
 40
0.6
 40
0.7
 40
0.7
 40
0.7
 40
0.7
 40
0.8
 40
0.8
 40
0.8
 40
0.8
 40
1.0
 40
1.0
 40
1.0
 40
1.0
 10
10.2658
 20
12.8659
 30
0.0
 10
10.2658
 20
12.8659
 30
0.0
 10
10.4625
 20
14.4522
 30
0.0
 10
10.4625
 20
14.4522
 30
0.0
 10
10.4625
 20
14.4522
 30
0.0
 10
10.4625
 20
14.4522
 30
0.0
 10
10.5932
 20
14.6195
 30
0.0
 10
10.5932
 20
14.6195
 30
0.0
 10
10.5932
 20
14.6195
 30
0.0
 10
10.5932
 20
14.6195
 30
0.0
 10
10.8064
 20
14.6654
 30
0.0
 10
10.8064
 20
14.6654
 30
0.0
 10
10.8064
 20
14.6654
 30
0.0
 10
10.8064
 20
14.6654
 30
0.0
 10
11.0957
 20
14.6654
 30
0.0
 10
11.0957
 20
14.6654
 30
0.0
 10
11.0957
 20
14.6654
 30
0.0
 10
11.0957
 20
14.6654
 30
0.0
 10
11.2936
 20
14.65
 30
0.0
 10
11.2936
 20
14.65
 30
0.0
 10
11.2936
 20
14.65
 30
0.0
 10
11.2936
 20
14.65
 30
0.0
 10
11.4762
 20
14.6349
 30
0.0
 10
11.4762
 20
14.6349
 30
0.0
 10
11.4762
 20
14.6349
 30
0.0
 10
11.4762
 20
14.6349
 30
0.0
 10
11.5829
 20
14.4365
 30
0.0
 10
11.5829
 20
14.4365
 30
0.0
 10
11.5829
 20
14.4365
 30
0.0
 10
11.5829
 20
14.4365
 30
0.0
 10
11.6589
 20
14.1923
 30
0.0
 10
11.6589
 20
14.1923
 30
0.0
 10
11.6589
 20
14.1923
 30
0.0
 10
11.6589
 20
14.1923
 30
0.0
 10
11.8113
 20
12.8403
 30
0.0
 10
11.8113
 20
12.8403
 30
0.0
  0
SPLINE
  5
104
330
1F
100
AcDbEntity
  8
DEFAULT_1
 62
   250
100
AcDbSpline
210
0.0
220
0.0
230
1.0
 70
     8
 71
     3
 72
    40
 73
    36
 74
     0
 42
0.0000000001
 43
0.0000000001
 40
0.0
 40
0.0
 40
0.0
 40
0.0
 40
0.1
 40
0.1
 40
0.1
 40
0.1
 40
0.2
 40
0.2
 40
0.2
 40
0.2
 40
0.3
 40
0.3
 40
0.3
 40
0.3
 40
0.4
 40
0.4
 40
0.4
 40
0.4
 40
0.5
 40
0.5
 40
0.5
 40
0.5
 40
0.6
 40
0.6
 40
0.6
 40
0.6
 40
0.7
 40
0.7
 40
0.7
 40
0.7
 40
0.8
 40
0.8
 40
0.8
 40
0.8
 40
1.0
 40
1.0
 40
1.0
 40
1.0
 10
11.8306
 20
12.8729
 30
0.0
 10
11.8306
 20
12.8729
 30
0.0
 10
12.0273
 20
14.4592
 30
0.0
 10
12.0273
 20
14.4592
 30
0.0
 10
12.0273
 20
14.4592
 30
0.0
 10
12.0273
 20
14.4592
 30
0.0
 10
12.1579
 20
14.6265
 30
0.0
 10
12.1579
 20
14.6265
 30
0.0
 10
12.1579
 20
14.6265
 30
0.0
 10
12.1579
 20
14.6265
 30
0.0
 10
12.3712
 20
14.6724
 30
0.0
 10
12.3712
 20
14.6724
 30
0.0
 10
12.3712
 20
14.6724
 30
0.0
 10
12.3712
 20
14.6724
 30
0.0
 10
12.6605
 20
14.6724
 30
0.0
 10
12.6605
 20
14.6724
 30
0.0
 10
12.6605
 20
14.6724
 30
0.0
 10
12.6605
 20
14.6724
 30
0.0
 10
12.8583
 20
14.657
 30
0.0
 10
12.8583
 20
14.657
 30
0.0
 10
12.8583
 20
14.657
 30
0.0
 10
12.8583
 20
14.657
 30
0.0
 10
13.041
 20
14.6419
 30
0.0
 10
13.041
 20
14.6419
 30
0.0
 10
13.041
 20
14.6419
 30
0.0
 10
13.041
 20
14.6419
 30
0.0
 10
13.1476
 20
14.4435
 30
0.0
 10
13.1476
 20
14.4435
 30
0.0
 10
13.1476
 20
14.4435
 30
0.0
 10
13.1476
 20
14.4435
 30
0.0
 10
13.2237
 20
14.1993
 30
0.0
 10
13.2237
 20
14.1993
 30
0.0
 10
13.2237
 20
14.1993
 30
0.0
 10
13.2237
 20
14.1993
 30
0.0
 10
13.376
 20
12.8333
 30
0.0
 10
13.376
 20
12.8333
 30
0.0
  0
SPLINE
  5
105
330
1F
100
AcDbEntity
  8
DEFAULT_1
 62
   250
100
AcDbSpline
210
0.0
220
0.0
230
1.0
 70
    24
 71
     3
 72
     8
 73
     4
 74
     0
 42
0.0000000001
 43
0.0000000001
 40
0.0
 40
0.0
 40
0.0
 40
0.0
 40
1.0
 40
1.0
 40
1.0
 40
1.0
 10
13.9866
 20
-1.1592
 30
0.0
 10
13.9866
 20
-1.1592
 30
0.0
 10
14.191
 20
0.427
 30
0.0
 10
14.191
 20
0.427
 30
0.0
  0
SPLINE
  5
106
330
1F
100
AcDbEntity
  8
DEFAULT_1
 62
   250
100
AcDbSpline
210
0.0
220
0.0
230
1.0
 70
    24
 71
     3
 72
     8
 73
     4
 74
     0
 42
0.0000000001
 43
0.0000000001
 40
0.0
 40
0.0
 40
0.0
 40
0.0
 40
1.0
 40
1.0
 40
1.0
 40
1.0
 10
13.3798
 20
0.427
 30
0.0
 10
13.3798
 20
0.427
 30
0.0
 10
13.5839
 20
-1.1592
 30
0.0
 10
13.5839
 20
-1.1592
 30
0.0
  0
SPLINE
  5
107
330
1F
100
AcDbEntity
  8
DEFAULT_1
 62
   250
100
AcDbSpline
210
0.0
220
0.0
230
1.0
 70
     8
 71
     3
 72
    12
 73
     8
 74
     0
 42
0.0000000001
 43
0.0000000001
 40
0.0
 40
0.0
 40
0.0
 40
0.0
 40
0.3333333333333333
 40
0.3333333333333333
 40
0.3333333333333333
 40
0.3333333333333333
 40
1.0
 40
1.0
 40
1.0
 40
1.0
 10
13.5839
 20
-1.1592
 30
0.0
 10
13.5967
 20
-1.2575
 30
0.0
 10
13.6828
 20
-1.3307
 30
0.0
 10
13.7853
 20
-1.3307
 30
0.0
 10
13.7853
 20
-1.3307
 30
0.0
 10
13.8877
 20
-1.3307
 30
0.0
 10
13.9738
 20
-1.2575
 30
0.0
 10
13.9866
 20
-1.1592
 30
0.0
  0
SPLINE
  5
108
330
1F
100
AcDbEntity
  8
DEFAULT_1
 62
   250
100
AcDbSpline
210
0.0
220
0.0
230
1.0
 70
     8
 71
     3
 72
    40
 73
    36
 74
     0
 42
0.0000000001
 43
0.0000000001
 40
0.0
 40
0.0
 40
0.0
 40
0.0
 40
0.1
 40
0.1
 40
0.1
 40
0.1
 40
0.2
 40
0.2
 40
0.2
 40
0.2
 40
0.3
 40
0.3
 40
0.3
 40
0.3
 40
0.4
 40
0.4
 40
0.4
 40
0.4
 40
0.5
 40
0.5
 40
0.5
 40
0.5
 40
0.6
 40
0.6
 40
0.6
 40
0.6
 40
0.7
 40
0.7
 40
0.7
 40
0.7
 40
0.8
 40
0.8
 40
0.8
 40
0.8
 40
1.0
 40
1.0
 40
1.0
 40
1.0
 10
-8.4922
 20
0.3491
 30
0.0
 10
-8.4922
 20
0.3491
 30
0.0
 10
-8.2955
 20
-1.2372
 30
0.0
 10
-8.2955
 20
-1.2372
 30
0.0
 10
-8.2955
 20
-1.2372
 30
0.0
 10
-8.2955
 20
-1.2372
 30
0.0
 10
-8.1648
 20
-1.4044
 30
0.0
 10
-8.1648
 20
-1.4044
 30
0.0
 10
-8.1648
 20
-1.4044
 30
0.0
 10
-8.1648
 20
-1.4044
 30
0.0
 10
-7.9516
 20
-1.4504
 30
0.0
 10
-7.9516
 20
-1.4504
 30
0.0
 10
-7.9516
 20
-1.4504
 30
0.0
 10
-7.9516
 20
-1.4504
 30
0.0
 10
-7.6623
 20
-1.4504
 30
0.0
 10
-7.6623
 20
-1.4504
 30
0.0
 10
-7.6623
 20
-1.4504
 30
0.0
 10
-7.6623
 20
-1.4504
 30
0.0
 10
-7.4645
 20
-1.435
 30
0.0
 10
-7.4645
 20
-1.435
 30
0.0
 10
-7.4645
 20
-1.435
 30
0.0
 10
-7.4645
 20
-1.435
 30
0.0
 10
-7.2818
 20
-1.4198
 30
0.0
 10
-7.2818
 20
-1.4198
 30
0.0
 10
-7.2818
 20
-1.4198
 30
0.0
 10
-7.2818
 20
-1.4198
 30
0.0
 10
-7.1752
 20
-1.2215
 30
0.0
 10
-7.1752
 20
-1.2215
 30
0.0
 10
-7.1752
 20
-1.2215
 30
0.0
 10
-7.1752
 20
-1.2215
 30
0.0
 10
-7.0991
 20
-0.9773
 30
0.0
 10
-7.0991
 20
-0.9773
 30
0.0
 10
-7.0991
 20
-0.9773
 30
0.0
 10
-7.0991
 20
-0.9773
 30
0.0
 10
-6.9468
 20
0.3747
 30
0.0
 10
-6.9468
 20
0.3747
 30
0.0
  0
SPLINE
  5
109
330
1F
100
AcDbEntity
  8
DEFAULT_1
 62
   250
100
AcDbSpline
210
0.0
220
0.0
230
1.0
 70
     8
 71
     3
 72
    40
 73
    36
 74
     0
 42
0.0000000001
 43
0.0000000001
 40
0.0
 40
0.0
 40
0.0
 40
0.0
 40
0.1
 40
0.1
 40
0.1
 40
0.1
 40
0.2
 40
0.2
 40
0.2
 40
0.2
 40
0.3
 40
0.3
 40
0.3
 40
0.3
 40
0.4
 40
0.4
 40
0.4
 40
0.4
 40
0.5
 40
0.5
 40
0.5
 40
0.5
 40
0.6
 40
0.6
 40
0.6
 40
0.6
 40
0.7
 40
0.7
 40
0.7
 40
0.7
 40
0.8
 40
0.8
 40
0.8
 40
0.8
 40
1.0
 40
1.0
 40
1.0
 40
1.0
 10
-6.9274
 20
0.3421
 30
0.0
 10
-6.9274
 20
0.3421
 30
0.0
 10
-6.7307
 20
-1.2442
 30
0.0
 10
-6.7307
 20
-1.2442
 30
0.0
 10
-6.7307
 20
-1.2442
 30
0.0
 10
-6.7307
 20
-1.2442
 30
0.0
 10
-6.6001
 20
-1.4114
 30
0.0
 10
-6.6001
 20
-1.4114
 30
0.0
 10
-6.6001
 20
-1.4114
 30
0.0
 10
-6.6001
 20
-1.4114
 30
0.0
 10
-6.3868
 20
-1.4574
 30
0.0
 10
-6.3868
 20
-1.4574
 30
0.0
 10
-6.3868
 20
-1.4574
 30
0.0
 10
-6.3868
 20
-1.4574
 30
0.0
 10
-6.0975
 20
-1.4574
 30
0.0
 10
-6.0975
 20
-1.4574
 30
0.0
 10
-6.0975
 20
-1.4574
 30
0.0
 10
-6.0975
 20
-1.4574
 30
0.0
 10
-5.8997
 20
-1.442
 30
0.0
 10
-5.8997
 20
-1.442
 30
0.0
 10
-5.8997
 20
-1.442
 30
0.0
 10
-5.8997
 20
-1.442
 30
0.0
 10
-5.717
 20
-1.4268
 30
0.0
 10
-5.717
 20
-1.4268
 30
0.0
 10
-5.717
 20
-1.4268
 30
0.0
 10
-5.717
 20
-1.4268
 30
0.0
 10
-5.6104
 20
-1.2285
 30
0.0
 10
-5.6104
 20
-1.2285
 30
0.0
 10
-5.6104
 20
-1.2285
 30
0.0
 10
-5.6104
 20
-1.2285
 30
0.0
 10
-5.5343
 20
-0.9843
 30
0.0
 10
-5.5343
 20
-0.9843
 30
0.0
 10
-5.5343
 20
-0.9843
 30
0.0
 10
-5.5343
 20
-0.9843
 30
0.0
 10
-5.382
 20
0.3817
 30
0.0
 10
-5.382
 20
0.3817
 30
0.0
  0
SPLINE
  5
10A
330
1F
100
AcDbEntity
  8
DEFAULT_1
 62
   250
100
AcDbSpline
210
0.0
220
0.0
230
1.0
 70
     8
 71
     3
 72
    40
 73
    36
 74
     0
 42
0.0000000001
 43
0.0000000001
 40
0.0
 40
0.0
 40
0.0
 40
0.0
 40
0.1
 40
0.1
 40
0.1
 40
0.1
 40
0.2
 40
0.2
 40
0.2
 40
0.2
 40
0.3
 40
0.3
 40
0.3
 40
0.3
 40
0.4
 40
0.4
 40
0.4
 40
0.4
 40
0.5
 40
0.5
 40
0.5
 40
0.5
 40
0.6
 40
0.6
 40
0.6
 40
0.6
 40
0.7
 40
0.7
 40
0.7
 40
0.7
 40
0.8
 40
0.8
 40
0.8
 40
0.8
 40
1.0
 40
1.0
 40
1.0
 40
1.0
 10
-5.3547
 20
0.3491
 30
0.0
 10
-5.3547
 20
0.3491
 30
0.0
 10
-5.158
 20
-1.2372
 30
0.0
 10
-5.158
 20
-1.2372
 30
0.0
 10
-5.158
 20
-1.2372
 30
0.0
 10
-5.158
 20
-1.2372
 30
0.0
 10
-5.0274
 20
-1.4044
 30
0.0
 10
-5.0274
 20
-1.4044
 30
0.0
 10
-5.0274
 20
-1.4044
 30
0.0
 10
-5.0274
 20
-1.4044
 30
0.0
 10
-4.8141
 20
-1.4504
 30
0.0
 10
-4.8141
 20
-1.4504
 30
0.0
 10
-4.8141
 20
-1.4504
 30
0.0
 10
-4.8141
 20
-1.4504
 30
0.0
 10
-4.5248
 20
-1.4504
 30
0.0
 10
-4.5248
 20
-1.4504
 30
0.0
 10
-4.5248
 20
-1.4504
 30
0.0
 10
-4.5248
 20
-1.4504
 30
0.0
 10
-4.327
 20
-1.435
 30
0.0
 10
-4.327
 20
-1.435
 30
0.0
 10
-4.327
 20
-1.435
 30
0.0
 10
-4.327
 20
-1.435
 30
0.0
 10
-4.1443
 20
-1.4198
 30
0.0
 10
-4.1443
 20
-1.4198
 30
0.0
 10
-4.1443
 20
-1.4198
 30
0.0
 10
-4.1443
 20
-1.4198
 30
0.0
 10
-4.0377
 20
-1.2215
 30
0.0
 10
-4.0377
 20
-1.2215
 30
0.0
 10
-4.0377
 20
-1.2215
 30
0.0
 10
-4.0377
 20
-1.2215
 30
0.0
 10
-3.9616
 20
-0.9773
 30
0.0
 10
-3.9616
 20
-0.9773
 30
0.0
 10
-3.9616
 20
-0.9773
 30
0.0
 10
-3.9616
 20
-0.9773
 30
0.0
 10
-3.8093
 20
0.3747
 30
0.0
 10
-3.8093
 20
0.3747
 30
0.0
  0
SPLINE
  5
10B
330
1F
100
AcDbEntity
  8
DEFAULT_1
 62
   250
100
AcDbSpline
210
0.0
220
0.0
230
1.0
 70
     8
 71
     3
 72
    40
 73
    36
 74
     0
 42
0.0000000001
 43
0.0000000001
 40
0.0
 40
0.0
 40
0.0
 40
0.0
 40
0.1
 40
0.1
 40
0.1
 40
0.1
 40
0.2
 40
0.2
 40
0.2
 40
0.2
 40
0.3
 40
0.3
 40
0.3
 40
0.3
 40
0.4
 40
0.4
 40
0.4
 40
0.4
 40
0.5
 40
0.5
 40
0.5
 40
0.5
 40
0.6
 40
0.6
 40
0.6
 40
0.6
 40
0.7
 40
0.7
 40
0.7
 40
0.7
 40
0.8
 40
0.8
 40
0.8
 40
0.8
 40
1.0
 40
1.0
 40
1.0
 40
1.0
 10
-3.7899
 20
0.3421
 30
0.0
 10
-3.7899
 20
0.3421
 30
0.0
 10
-3.5932
 20
-1.2442
 30
0.0
 10
-3.5932
 20
-1.2442
 30
0.0
 10
-3.5932
 20
-1.2442
 30
0.0
 10
-3.5932
 20
-1.2442
 30
0.0
 10
-3.4626
 20
-1.4114
 30
0.0
 10
-3.4626
 20
-1.4114
 30
0.0
 10
-3.4626
 20
-1.4114
 30
0.0
 10
-3.4626
 20
-1.4114
 30
0.0
 10
-3.2493
 20
-1.4574
 30
0.0
 10
-3.2493
 20
-1.4574
 30
0.0
 10
-3.2493
 20
-1.4574
 30
0.0
 10
-3.2493
 20
-1.4574
 30
0.0
 10
-2.96
 20
-1.4574
 30
0.0
 10
-2.96
 20
-1.4574
 30
0.0
 10
-2.96
 20
-1.4574
 30
0.0
 10
-2.96
 20
-1.4574
 30
0.0
 10
-2.7622
 20
-1.442
 30
0.0
 10
-2.7622
 20
-1.442
 30
0.0
 10
-2.7622
 20
-1.442
 30
0.0
 10
-2.7622
 20
-1.442
 30
0.0
 10
-2.5795
 20
-1.4268
 30
0.0
 10
-2.5795
 20
-1.4268
 30
0.0
 10
-2.5795
 20
-1.4268
 30
0.0
 10
-2.5795
 20
-1.4268
 30
0.0
 10
-2.4729
 20
-1.2285
 30
0.0
 10
-2.4729
 20
-1.2285
 30
0.0
 10
-2.4729
 20
-1.2285
 30
0.0
 10
-2.4729
 20
-1.2285
 30
0.0
 10
-2.3968
 20
-0.9843
 30
0.0
 10
-2.3968
 20
-0.9843
 30
0.0
 10
-2.3968
 20
-0.9843
 30
0.0
 10
-2.3968
 20
-0.9843
 30
0.0
 10
-2.2445
 20
0.3817
 30
0.0
 10
-2.2445
 20
0.3817
 30
0.0
  0
SPLINE
  5
10C
330
1F
100
AcDbEntity
  8
DEFAULT_1
 62
   250
100
AcDbSpline
210
0.0
220
0.0
230
1.0
 70
     8
 71
     3
 72
    40
 73
    36
 74
     0
 42
0.0000000001
 43
0.0000000001
 40
0.0
 40
0.0
 40
0.0
 40
0.0
 40
0.1
 40
0.1
 40
0.1
 40
0.1
 40
0.2
 40
0.2
 40
0.2
 40
0.2
 40
0.3
 40
0.3
 40
0.3
 40
0.3
 40
0.4
 40
0.4
 40
0.4
 40
0.4
 40
0.5
 40
0.5
 40
0.5
 40
0.5
 40
0.6
 40
0.6
 40
0.6
 40
0.6
 40
0.7
 40
0.7
 40
0.7
 40
0.7
 40
0.8
 40
0.8
 40
0.8
 40
0.8
 40
1.0
 40
1.0
 40
1.0
 40
1.0
 10
-2.2361
 20
0.3724
 30
0.0
 10
-2.2361
 20
0.3724
 30
0.0
 10
-2.0394
 20
-1.2138
 30
0.0
 10
-2.0394
 20
-1.2138
 30
0.0
 10
-2.0394
 20
-1.2138
 30
0.0
 10
-2.0394
 20
-1.2138
 30
0.0
 10
-1.9088
 20
-1.3811
 30
0.0
 10
-1.9088
 20
-1.3811
 30
0.0
 10
-1.9088
 20
-1.3811
 30
0.0
 10
-1.9088
 20
-1.3811
 30
0.0
 10
-1.6955
 20
-1.4271
 30
0.0
 10
-1.6955
 20
-1.4271
 30
0.0
 10
-1.6955
 20
-1.4271
 30
0.0
 10
-1.6955
 20
-1.4271
 30
0.0
 10
-1.4062
 20
-1.4271
 30
0.0
 10
-1.4062
 20
-1.4271
 30
0.0
 10
-1.4062
 20
-1.4271
 30
0.0
 10
-1.4062
 20
-1.4271
 30
0.0
 10
-1.2084
 20
-1.4117
 30
0.0
 10
-1.2084
 20
-1.4117
 30
0.0
 10
-1.2084
 20
-1.4117
 30
0.0
 10
-1.2084
 20
-1.4117
 30
0.0
 10
-1.0257
 20
-1.3965
 30
0.0
 10
-1.0257
 20
-1.3965
 30
0.0
 10
-1.0257
 20
-1.3965
 30
0.0
 10
-1.0257
 20
-1.3965
 30
0.0
 10
-0.9191
 20
-1.1982
 30
0.0
 10
-0.9191
 20
-1.1982
 30
0.0
 10
-0.9191
 20
-1.1982
 30
0.0
 10
-0.9191
 20
-1.1982
 30
0.0
 10
-0.843
 20
-0.9539
 30
0.0
 10
-0.843
 20
-0.9539
 30
0.0
 10
-0.843
 20
-0.9539
 30
0.0
 10
-0.843
 20
-0.9539
 30
0.0
 10
-0.6907
 20
0.3981
 30
0.0
 10
-0.6907
 20
0.3981
 30
0.0
  0
SPLINE
  5
10D
330
1F
100
AcDbEntity
  8
DEFAULT_1
 62
   250
100
AcDbSpline
210
0.0
220
0.0
230
1.0
 70
     8
 71
     3
 72
    40
 73
    36
 74
     0
 42
0.0000000001
 43
0.0000000001
 40
0.0
 40
0.0
 40
0.0
 40
0.0
 40
0.1
 40
0.1
 40
0.1
 40
0.1
 40
0.2
 40
0.2
 40
0.2
 40
0.2
 40
0.3
 40
0.3
 40
0.3
 40
0.3
 40
0.4
 40
0.4
 40
0.4
 40
0.4
 40
0.5
 40
0.5
 40
0.5
 40
0.5
 40
0.6
 40
0.6
 40
0.6
 40
0.6
 40
0.7
 40
0.7
 40
0.7
 40
0.7
 40
0.8
 40
0.8
 40
0.8
 40
0.8
 40
1.0
 40
1.0
 40
1.0
 40
1.0
 10
-0.6713
 20
0.3654
 30
0.0
 10
-0.6713
 20
0.3654
 30
0.0
 10
-0.4746
 20
-1.2208
 30
0.0
 10
-0.4746
 20
-1.2208
 30
0.0
 10
-0.4746
 20
-1.2208
 30
0.0
 10
-0.4746
 20
-1.2208
 30
0.0
 10
-0.344
 20
-1.3881
 30
0.0
 10
-0.344
 20
-1.3881
 30
0.0
 10
-0.344
 20
-1.3881
 30
0.0
 10
-0.344
 20
-1.3881
 30
0.0
 10
-0.1307
 20
-1.4341
 30
0.0
 10
-0.1307
 20
-1.4341
 30
0.0
 10
-0.1307
 20
-1.4341
 30
0.0
 10
-0.1307
 20
-1.4341
 30
0.0
 10
0.1586
 20
-1.4341
 30
0.0
 10
0.1586
 20
-1.4341
 30
0.0
 10
0.1586
 20
-1.4341
 30
0.0
 10
0.1586
 20
-1.4341
 30
0.0
 10
0.3564
 20
-1.4187
 30
0.0
 10
0.3564
 20
-1.4187
 30
0.0
 10
0.3564
 20
-1.4187
 30
0.0
 10
0.3564
 20
-1.4187
 30
0.0
 10
0.5391
 20
-1.4035
 30
0.0
 10
0.5391
 20
-1.4035
 30
0.0
 10
0.5391
 20
-1.4035
 30
0.0
 10
0.5391
 20
-1.4035
 30
0.0
 10
0.6457
 20
-1.2052
 30
0.0
 10
0.6457
 20
-1.2052
 30
0.0
 10
0.6457
 20
-1.2052
 30
0.0
 10
0.6457
 20
-1.2052
 30
0.0
 10
0.7218
 20
-0.9609
 30
0.0
 10
0.7218
 20
-0.9609
 30
0.0
 10
0.7218
 20
-0.9609
 30
0.0
 10
0.7218
 20
-0.9609
 30
0.0
 10
0.8741
 20
0.4051
 30
0.0
 10
0.8741
 20
0.4051
 30
0.0
  0
SPLINE
  5
10E
330
1F
100
AcDbEntity
  8
DEFAULT_1
 62
   250
100
AcDbSpline
210
0.0
220
0.0
230
1.0
 70
     8
 71
     3
 72
    40
 73
    36
 74
     0
 42
0.0000000001
 43
0.0000000001
 40
0.0
 40
0.0
 40
0.0
 40
0.0
 40
0.1
 40
0.1
 40
0.1
 40
0.1
 40
0.2
 40
0.2
 40
0.2
 40
0.2
 40
0.3
 40
0.3
 40
0.3
 40
0.3
 40
0.4
 40
0.4
 40
0.4
 40
0.4
 40
0.5
 40
0.5
 40
0.5
 40
0.5
 40
0.6
 40
0.6
 40
0.6
 40
0.6
 40
0.7
 40
0.7
 40
0.7
 40
0.7
 40
0.8
 40
0.8
 40
0.8
 40
0.8
 40
1.0
 40
1.0
 40
1.0
 40
1.0
 10
0.9014
 20
0.3724
 30
0.0
 10
0.9014
 20
0.3724
 30
0.0
 10
1.0981
 20
-1.2138
 30
0.0
 10
1.0981
 20
-1.2138
 30
0.0
 10
1.0981
 20
-1.2138
 30
0.0
 10
1.0981
 20
-1.2138
 30
0.0
 10
1.2287
 20
-1.3811
 30
0.0
 10
1.2287
 20
-1.3811
 30
0.0
 10
1.2287
 20
-1.3811
 30
0.0
 10
1.2287
 20
-1.3811
 30
0.0
 10
1.442
 20
-1.4271
 30
0.0
 10
1.442
 20
-1.4271
 30
0.0
 10
1.442
 20
-1.4271
 30
0.0
 10
1.442
 20
-1.4271
 30
0.0
 10
1.7313
 20
-1.4271
 30
0.0
 10
1.7313
 20
-1.4271
 30
0.0
 10
1.7313
 20
-1.4271
 30
0.0
 10
1.7313
 20
-1.4271
 30
0.0
 10
1.9291
 20
-1.4117
 30
0.0
 10
1.9291
 20
-1.4117
 30
0.0
 10
1.9291
 20
-1.4117
 30
0.0
 10
1.9291
 20
-1.4117
 30
0.0
 10
2.1118
 20
-1.3965
 30
0.0
 10
2.1118
 20
-1.3965
 30
0.0
 10
2.1118
 20
-1.3965
 30
0.0
 10
2.1118
 20
-1.3965
 30
0.0
 10
2.2184
 20
-1.1982
 30
0.0
 10
2.2184
 20
-1.1982
 30
0.0
 10
2.2184
 20
-1.1982
 30
0.0
 10
2.2184
 20
-1.1982
 30
0.0
 10
2.2945
 20
-0.9539
 30
0.0
 10
2.2945
 20
-0.9539
 30
0.0
 10
2.2945
 20
-0.9539
 30
0.0
 10
2.2945
 20
-0.9539
 30
0.0
 10
2.4468
 20
0.3981
 30
0.0
 10
2.4468
 20
0.3981
 30
0.0
  0
SPLINE
  5
10F
330
1F
100
AcDbEntity
  8
DEFAULT_1
 62
   250
100
AcDbSpline
210
0.0
220
0.0
230
1.0
 70
     8
 71
     3
 72
    40
 73
    36
 74
     0
 42
0.0000000001
 43
0.0000000001
 40
0.0
 40
0.0
 40
0.0
 40
0.0
 40
0.1
 40
0.1
 40
0.1
 40
0.1
 40
0.2
 40
0.2
 40
0.2
 40
0.2
 40
0.3
 40
0.3
 40
0.3
 40
0.3
 40
0.4
 40
0.4
 40
0.4
 40
0.4
 40
0.5
 40
0.5
 40
0.5
 40
0.5
 40
0.6
 40
0.6
 40
0.6
 40
0.6
 40
0.7
 40
0.7
 40
0.7
 40
0.7
 40
0.8
 40
0.8
 40
0.8
 40
0.8
 40
1.0
 40
1.0
 40
1.0
 40
1.0
 10
2.4662
 20
0.3654
 30
0.0
 10
2.4662
 20
0.3654
 30
0.0
 10
2.6629
 20
-1.2208
 30
0.0
 10
2.6629
 20
-1.2208
 30
0.0
 10
2.6629
 20
-1.2208
 30
0.0
 10
2.6629
 20
-1.2208
 30
0.0
 10
2.7935
 20
-1.3881
 30
0.0
 10
2.7935
 20
-1.3881
 30
0.0
 10
2.7935
 20
-1.3881
 30
0.0
 10
2.7935
 20
-1.3881
 30
0.0
 10
3.0068
 20
-1.4341
 30
0.0
 10
3.0068
 20
-1.4341
 30
0.0
 10
3.0068
 20
-1.4341
 30
0.0
 10
3.0068
 20
-1.4341
 30
0.0
 10
3.2961
 20
-1.4341
 30
0.0
 10
3.2961
 20
-1.4341
 30
0.0
 10
3.2961
 20
-1.4341
 30
0.0
 10
3.2961
 20
-1.4341
 30
0.0
 10
3.4939
 20
-1.4187
 30
0.0
 10
3.4939
 20
-1.4187
 30
0.0
 10
3.4939
 20
-1.4187
 30
0.0
 10
3.4939
 20
-1.4187
 30
0.0
 10
3.6766
 20
-1.4035
 30
0.0
 10
3.6766
 20
-1.4035
 30
0.0
 10
3.6766
 20
-1.4035
 30
0.0
 10
3.6766
 20
-1.4035
 30
0.0
 10
3.7832
 20
-1.2052
 30
0.0
 10
3.7832
 20
-1.2052
 30
0.0
 10
3.7832
 20
-1.2052
 30
0.0
 10
3.7832
 20
-1.2052
 30
0.0
 10
3.8593
 20
-0.9609
 30
0.0
 10
3.8593
 20
-0.9609
 30
0.0
 10
3.8593
 20
-0.9609
 30
0.0
 10
3.8593
 20
-0.9609
 30
0.0
 10
4.0116
 20
0.4051
 30
0.0
 10
4.0116
 20
0.4051
 30
0.0
  0
SPLINE
  5
110
330
1F
100
AcDbEntity
  8
DEFAULT_1
 62
   250
100
AcDbSpline
210
0.0
220
0.0
230
1.0
 70
     8
 71
     3
 72
    40
 73
    36
 74
     0
 42
0.0000000001
 43
0.0000000001
 40
0.0
 40
0.0
 40
0.0
 40
0.0
 40
0.1
 40
0.1
 40
0.1
 40
0.1
 40
0.2
 40
0.2
 40
0.2
 40
0.2
 40
0.3
 40
0.3
 40
0.3
 40
0.3
 40
0.4
 40
0.4
 40
0.4
 40
0.4
 40
0.5
 40
0.5
 40
0.5
 40
0.5
 40
0.6
 40
0.6
 40
0.6
 40
0.6
 40
0.7
 40
0.7
 40
0.7
 40
0.7
 40
0.8
 40
0.8
 40
0.8
 40
0.8
 40
1.0
 40
1.0
 40
1.0
 40
1.0
 10
4.0097
 20
0.3491
 30
0.0
 10
4.0097
 20
0.3491
 30
0.0
 10
4.2064
 20
-1.2372
 30
0.0
 10
4.2064
 20
-1.2372
 30
0.0
 10
4.2064
 20
-1.2372
 30
0.0
 10
4.2064
 20
-1.2372
 30
0.0
 10
4.3371
 20
-1.4044
 30
0.0
 10
4.3371
 20
-1.4044
 30
0.0
 10
4.3371
 20
-1.4044
 30
0.0
 10
4.3371
 20
-1.4044
 30
0.0
 10
4.5503
 20
-1.4504
 30
0.0
 10
4.5503
 20
-1.4504
 30
0.0
 10
4.5503
 20
-1.4504
 30
0.0
 10
4.5503
 20
-1.4504
 30
0.0
 10
4.8396
 20
-1.4504
 30
0.0
 10
4.8396
 20
-1.4504
 30
0.0
 10
4.8396
 20
-1.4504
 30
0.0
 10
4.8396
 20
-1.4504
 30
0.0
 10
5.0375
 20
-1.435
 30
0.0
 10
5.0375
 20
-1.435
 30
0.0
 10
5.0375
 20
-1.435
 30
0.0
 10
5.0375
 20
-1.435
 30
0.0
 10
5.2201
 20
-1.4198
 30
0.0
 10
5.2201
 20
-1.4198
 30
0.0
 10
5.2201
 20
-1.4198
 30
0.0
 10
5.2201
 20
-1.4198
 30
0.0
 10
5.3268
 20
-1.2215
 30
0.0
 10
5.3268
 20
-1.2215
 30
0.0
 10
5.3268
 20
-1.2215
 30
0.0
 10
5.3268
 20
-1.2215
 30
0.0
 10
5.4028
 20
-0.9773
 30
0.0
 10
5.4028
 20
-0.9773
 30
0.0
 10
5.4028
 20
-0.9773
 30
0.0
 10
5.4028
 20
-0.9773
 30
0.0
 10
5.5552
 20
0.3747
 30
0.0
 10
5.5552
 20
0.3747
 30
0.0
  0
SPLINE
  5
111
330
1F
100
AcDbEntity
  8
DEFAULT_1
 62
   250
100
AcDbSpline
210
0.0
220
0.0
230
1.0
 70
     8
 71
     3
 72
    40
 73
    36
 74
     0
 42
0.0000000001
 43
0.0000000001
 40
0.0
 40
0.0
 40
0.0
 40
0.0
 40
0.1
 40
0.1
 40
0.1
 40
0.1
 40
0.2
 40
0.2
 40
0.2
 40
0.2
 40
0.3
 40
0.3
 40
0.3
 40
0.3
 40
0.4
 40
0.4
 40
0.4
 40
0.4
 40
0.5
 40
0.5
 40
0.5
 40
0.5
 40
0.6
 40
0.6
 40
0.6
 40
0.6
 40
0.7
 40
0.7
 40
0.7
 40
0.7
 40
0.8
 40
0.8
 40
0.8
 40
0.8
 40
1.0
 40
1.0
 40
1.0
 40
1.0
 10
5.5745
 20
0.3421
 30
0.0
 10
5.5745
 20
0.3421
 30
0.0
 10
5.7712
 20
-1.2442
 30
0.0
 10
5.7712
 20
-1.2442
 30
0.0
 10
5.7712
 20
-1.2442
 30
0.0
 10
5.7712
 20
-1.2442
 30
0.0
 10
5.9019
 20
-1.4114
 30
0.0
 10
5.9019
 20
-1.4114
 30
0.0
 10
5.9019
 20
-1.4114
 30
0.0
 10
5.9019
 20
-1.4114
 30
0.0
 10
6.1151
 20
-1.4574
 30
0.0
 10
6.1151
 20
-1.4574
 30
0.0
 10
6.1151
 20
-1.4574
 30
0.0
 10
6.1151
 20
-1.4574
 30
0.0
 10
6.4044
 20
-1.4574
 30
0.0
 10
6.4044
 20
-1.4574
 30
0.0
 10
6.4044
 20
-1.4574
 30
0.0
 10
6.4044
 20
-1.4574
 30
0.0
 10
6.6022
 20
-1.442
 30
0.0
 10
6.6022
 20
-1.442
 30
0.0
 10
6.6022
 20
-1.442
 30
0.0
 10
6.6022
 20
-1.442
 30
0.0
 10
6.7849
 20
-1.4268
 30
0.0
 10
6.7849
 20
-1.4268
 30
0.0
 10
6.7849
 20
-1.4268
 30
0.0
 10
6.7849
 20
-1.4268
 30
0.0
 10
6.8915
 20
-1.2285
 30
0.0
 10
6.8915
 20
-1.2285
 30
0.0
 10
6.8915
 20
-1.2285
 30
0.0
 10
6.8915
 20
-1.2285
 30
0.0
 10
6.9676
 20
-0.9843
 30
0.0
 10
6.9676
 20
-0.9843
 30
0.0
 10
6.9676
 20
-0.9843
 30
0.0
 10
6.9676
 20
-0.9843
 30
0.0
 10
7.1199
 20
0.3817
 30
0.0
 10
7.1199
 20
0.3817
 30
0.0
  0
SPLINE
  5
112
330
1F
100
AcDbEntity
  8
DEFAULT_1
 62
   250
100
AcDbSpline
210
0.0
220
0.0
230
1.0
 70
     8
 71
     3
 72
    40
 73
    36
 74
     0
 42
0.0000000001
 43
0.0000000001
 40
0.0
 40
0.0
 40
0.0
 40
0.0
 40
0.1
 40
0.1
 40
0.1
 40
0.1
 40
0.2
 40
0.2
 40
0.2
 40
0.2
 40
0.3
 40
0.3
 40
0.3
 40
0.3
 40
0.4
 40
0.4
 40
0.4
 40
0.4
 40
0.5
 40
0.5
 40
0.5
 40
0.5
 40
0.6
 40
0.6
 40
0.6
 40
0.6
 40
0.7
 40
0.7
 40
0.7
 40
0.7
 40
0.8
 40
0.8
 40
0.8
 40
0.8
 40
1.0
 40
1.0
 40
1.0
 40
1.0
 10
7.1283
 20
0.3724
 30
0.0
 10
7.1283
 20
0.3724
 30
0.0
 10
7.325
 20
-1.2138
 30
0.0
 10
7.325
 20
-1.2138
 30
0.0
 10
7.325
 20
-1.2138
 30
0.0
 10
7.325
 20
-1.2138
 30
0.0
 10
7.4557
 20
-1.3811
 30
0.0
 10
7.4557
 20
-1.3811
 30
0.0
 10
7.4557
 20
-1.3811
 30
0.0
 10
7.4557
 20
-1.3811
 30
0.0
 10
7.6689
 20
-1.4271
 30
0.0
 10
7.6689
 20
-1.4271
 30
0.0
 10
7.6689
 20
-1.4271
 30
0.0
 10
7.6689
 20
-1.4271
 30
0.0
 10
7.9582
 20
-1.4271
 30
0.0
 10
7.9582
 20
-1.4271
 30
0.0
 10
7.9582
 20
-1.4271
 30
0.0
 10
7.9582
 20
-1.4271
 30
0.0
 10
8.1561
 20
-1.4117
 30
0.0
 10
8.1561
 20
-1.4117
 30
0.0
 10
8.1561
 20
-1.4117
 30
0.0
 10
8.1561
 20
-1.4117
 30
0.0
 10
8.3387
 20
-1.3965
 30
0.0
 10
8.3387
 20
-1.3965
 30
0.0
 10
8.3387
 20
-1.3965
 30
0.0
 10
8.3387
 20
-1.3965
 30
0.0
 10
8.4454
 20
-1.1982
 30
0.0
 10
8.4454
 20
-1.1982
 30
0.0
 10
8.4454
 20
-1.1982
 30
0.0
 10
8.4454
 20
-1.1982
 30
0.0
 10
8.5214
 20
-0.9539
 30
0.0
 10
8.5214
 20
-0.9539
 30
0.0
 10
8.5214
 20
-0.9539
 30
0.0
 10
8.5214
 20
-0.9539
 30
0.0
 10
8.6738
 20
0.3981
 30
0.0
 10
8.6738
 20
0.3981
 30
0.0
  0
SPLINE
  5
113
330
1F
100
AcDbEntity
  8
DEFAULT_1
 62
   250
100
AcDbSpline
210
0.0
220
0.0
230
1.0
 70
     8
 71
     3
 72
    40
 73
    36
 74
     0
 42
0.0000000001
 43
0.0000000001
 40
0.0
 40
0.0
 40
0.0
 40
0.0
 40
0.1
 40
0.1
 40
0.1
 40
0.1
 40
0.2
 40
0.2
 40
0.2
 40
0.2
 40
0.3
 40
0.3
 40
0.3
 40
0.3
 40
0.4
 40
0.4
 40
0.4
 40
0.4
 40
0.5
 40
0.5
 40
0.5
 40
0.5
 40
0.6
 40
0.6
 40
0.6
 40
0.6
 40
0.7
 40
0.7
 40
0.7
 40
0.7
 40
0.8
 40
0.8
 40
0.8
 40
0.8
 40
1.0
 40
1.0
 40
1.0
 40
1.0
 10
8.6931
 20
0.3654
 30
0.0
 10
8.6931
 20
0.3654
 30
0.0
 10
8.8898
 20
-1.2208
 30
0.0
 10
8.8898
 20
-1.2208
 30
0.0
 10
8.8898
 20
-1.2208
 30
0.0
 10
8.8898
 20
-1.2208
 30
0.0
 10
9.0205
 20
-1.3881
 30
0.0
 10
9.0205
 20
-1.3881
 30
0.0
 10
9.0205
 20
-1.3881
 30
0.0
 10
9.0205
 20
-1.3881
 30
0.0
 10
9.2337
 20
-1.4341
 30
0.0
 10
9.2337
 20
-1.4341
 30
0.0
 10
9.2337
 20
-1.4341
 30
0.0
 10
9.2337
 20
-1.4341
 30
0.0
 10
9.523
 20
-1.4341
 30
0.0
 10
9.523
 20
-1.4341
 30
0.0
 10
9.523
 20
-1.4341
 30
0.0
 10
9.523
 20
-1.4341
 30
0.0
 10
9.7208
 20
-1.4187
 30
0.0
 10
9.7208
 20
-1.4187
 30
0.0
 10
9.7208
 20
-1.4187
 30
0.0
 10
9.7208
 20
-1.4187
 30
0.0
 10
9.9035
 20
-1.4035
 30
0.0
 10
9.9035
 20
-1.4035
 30
0.0
 10
9.9035
 20
-1.4035
 30
0.0
 10
9.9035
 20
-1.4035
 30
0.0
 10
10.0101
 20
-1.2052
 30
0.0
 10
10.0101
 20
-1.2052
 30
0.0
 10
10.0101
 20
-1.2052
 30
0.0
 10
10.0101
 20
-1.2052
 30
0.0
 10
10.0862
 20
-0.9609
 30
0.0
 10
10.0862
 20
-0.9609
 30
0.0
 10
10.0862
 20
-0.9609
 30
0.0
 10
10.0862
 20
-0.9609
 30
0.0
 10
10.2385
 20
0.4051
 30
0.0
 10
10.2385
 20
0.4051
 30
0.0
  0
SPLINE
  5
114
330
1F
100
AcDbEntity
  8
DEFAULT_1
 62
   250
100
AcDbSpline
210
0.0
220
0.0
230
1.0
 70
     8
 71
     3
 72
    40
 73
    36
 74
     0
 42
0.0000000001
 43
0.0000000001
 40
0.0
 40
0.0
 40
0.0
 40
0.0
 40
0.1
 40
0.1
 40
0.1
 40
0.1
 40
0.2
 40
0.2
 40
0.2
 40
0.2
 40
0.3
 40
0.3
 40
0.3
 40
0.3
 40
0.4
 40
0.4
 40
0.4
 40
0.4
 40
0.5
 40
0.5
 40
0.5
 40
0.5
 40
0.6
 40
0.6
 40
0.6
 40
0.6
 40
0.7
 40
0.7
 40
0.7
 40
0.7
 40
0.8
 40
0.8
 40
0.8
 40
0.8
 40
1.0
 40
1.0
 40
1.0
 40
1.0
 10
10.2658
 20
0.3724
 30
0.0
 10
10.2658
 20
0.3724
 30
0.0
 10
10.4625
 20
-1.2138
 30
0.0
 10
10.4625
 20
-1.2138
 30
0.0
 10
10.4625
 20
-1.2138
 30
0.0
 10
10.4625
 20
-1.2138
 30
0.0
 10
10.5932
 20
-1.3811
 30
0.0
 10
10.5932
 20
-1.3811
 30
0.0
 10
10.5932
 20
-1.3811
 30
0.0
 10
10.5932
 20
-1.3811
 30
0.0
 10
10.8064
 20
-1.4271
 30
0.0
 10
10.8064
 20
-1.4271
 30
0.0
 10
10.8064
 20
-1.4271
 30
0.0
 10
10.8064
 20
-1.4271
 30
0.0
 10
11.0957
 20
-1.4271
 30
0.0
 10
11.0957
 20
-1.4271
 30
0.0
 10
11.0957
 20
-1.4271
 30
0.0
 10
11.0957
 20
-1.4271
 30
0.0
 10
11.2936
 20
-1.4117
 30
0.0
 10
11.2936
 20
-1.4117
 30
0.0
 10
11.2936
 20
-1.4117
 30
0.0
 10
11.2936
 20
-1.4117
 30
0.0
 10
11.4762
 20
-1.3965
 30
0.0
 10
11.4762
 20
-1.3965
 30
0.0
 10
11.4762
 20
-1.3965
 30
0.0
 10
11.4762
 20
-1.3965
 30
0.0
 10
11.5829
 20
-1.1982
 30
0.0
 10
11.5829
 20
-1.1982
 30
0.0
 10
11.5829
 20
-1.1982
 30
0.0
 10
11.5829
 20
-1.1982
 30
0.0
 10
11.6589
 20
-0.9539
 30
0.0
 10
11.6589
 20
-0.9539
 30
0.0
 10
11.6589
 20
-0.9539
 30
0.0
 10
11.6589
 20
-0.9539
 30
0.0
 10
11.8113
 20
0.3981
 30
0.0
 10
11.8113
 20
0.3981
 30
0.0
  0
SPLINE
  5
115
330
1F
100
AcDbEntity
  8
DEFAULT_1
 62
   250
100
AcDbSpline
210
0.0
220
0.0
230
1.0
 70
     8
 71
     3
 72
    40
 73
    36
 74
     0
 42
0.0000000001
 43
0.0000000001
 40
0.0
 40
0.0
 40
0.0
 40
0.0
 40
0.1
 40
0.1
 40
0.1
 40
0.1
 40
0.2
 40
0.2
 40
0.2
 40
0.2
 40
0.3
 40
0.3
 40
0.3
 40
0.3
 40
0.4
 40
0.4
 40
0.4
 40
0.4
 40
0.5
 40
0.5
 40
0.5
 40
0.5
 40
0.6
 40
0.6
 40
0.6
 40
0.6
 40
0.7
 40
0.7
 40
0.7
 40
0.7
 40
0.8
 40
0.8
 40
0.8
 40
0.8
 40
1.0
 40
1.0
 40
1.0
 40
1.0
 10
11.8306
 20
0.3654
 30
0.0
 10
11.8306
 20
0.3654
 30
0.0
 10
12.0273
 20
-1.2208
 30
0.0
 10
12.0273
 20
-1.2208
 30
0.0
 10
12.0273
 20
-1.2208
 30
0.0
 10
12.0273
 20
-1.2208
 30
0.0
 10
12.1579
 20
-1.3881
 30
0.0
 10
12.1579
 20
-1.3881
 30
0.0
 10
12.1579
 20
-1.3881
 30
0.0
 10
12.1579
 20
-1.3881
 30
0.0
 10
12.3712
 20
-1.4341
 30
0.0
 10
12.3712
 20
-1.4341
 30
0.0
 10
12.3712
 20
-1.4341
 30
0.0
 10
12.3712
 20
-1.4341
 30
0.0
 10
12.6605
 20
-1.4341
 30
0.0
 10
12.6605
 20
-1.4341
 30
0.0
 10
12.6605
 20
-1.4341
 30
0.0
 10
12.6605
 20
-1.4341
 30
0.0
 10
12.8583
 20
-1.4187
 30
0.0
 10
12.8583
 20
-1.4187
 30
0.0
 10
12.8583
 20
-1.4187
 30
0.0
 10
12.8583
 20
-1.4187
 30
0.0
 10
13.041
 20
-1.4035
 30
0.0
 10
13.041
 20
-1.4035
 30
0.0
 10
13.041
 20
-1.4035
 30
0.0
 10
13.041
 20
-1.4035
 30
0.0
 10
13.1476
 20
-1.2052
 30
0.0
 10
13.1476
 20
-1.2052
 30
0.0
 10
13.1476
 20
-1.2052
 30
0.0
 10
13.1476
 20
-1.2052
 30
0.0
 10
13.2237
 20
-0.9609
 30
0.0
 10
13.2237
 20
-0.9609
 30
0.0
 10
13.2237
 20
-0.9609
 30
0.0
 10
13.2237
 20
-0.9609
 30
0.0
 10
13.376
 20
0.4051
 30
0.0
 10
13.376
 20
0.4051
 30
0.0
  0
SPLINE
  5
116
330
1F
100
AcDbEntity
  8
DEFAULT_1
 62
   250
100
AcDbSpline
210
0.0
220
0.0
230
1.0
 70
    24
 71
     3
 72
     8
 73
     4
 74
     0
 42
0.0000000001
 43
0.0000000001
 40
0.0
 40
0.0
 40
0.0
 40
0.0
 40
1.0
 40
1.0
 40
1.0
 40
1.0
 10
13.3821
 20
-0.1166
 30
0.0
 10
13.3821
 20
-0.1166
 30
0.0
 10
13.3821
 20
12.8792
 30
0.0
 10
13.3821
 20
12.8792
 30
0.0
  0
ENDSEC
  0
SECTION
  2
OBJECTS
  0
DICTIONARY
  5
C
330
0
100
AcDbDictionary
  3
ACAD_GROUP
350
D
  3
ACAD_LAYOUT
350
1A
  3
ACAD_MATERIAL
350
3B
  3
ACAD_MLEADERSTYLE
350
139
  3
ACAD_MLINESTYLE
350
17
  3
ACAD_PLOTSETTINGS
350
19
  3
ACAD_VISUALSTYLE
350
2A
  3
ACDBHEADERROUNDTRIPXREC
350
117
  3
ACDBVARIABLEDICTIONARY
350
137
  0
DICTIONARY
  5
D
102
{ACAD_REACTORS
330
C
102
}
330
C
100
AcDbDictionary
  0
DICTIONARY
  5
1A
102
{ACAD_REACTORS
330
C
102
}
330
C
100
AcDbDictionary
  0
DICTIONARY
  5
3B
102
{ACAD_REACTORS
330
C
102
}
330
C
100
AcDbDictionary
  3
BYBLOCK
350
3D
  3
BYLAYER
350
3C
  3
GLOBAL
350
3E
  0
DICTIONARY
  5
139
102
{ACAD_REACTORS
330
C
102
}
330
C
100
AcDbDictionary
  0
DICTIONARY
  5
17
102
{ACAD_REACTORS
330
C
102
}
330
C
100
AcDbDictionary
  3
STANDARD
350
18
  0
DICTIONARY
  5
19
102
{ACAD_REACTORS
330
C
102
}
330
C
100
AcDbDictionary
  0
DICTIONARY
  5
2A
102
{ACAD_REACTORS
330
C
102
}
330
C
100
AcDbDictionary
  3
2DWIREFRAME
350
2F
  3
3D_HIDDEN
350
31
  3
3DWIREFRAME
350
30
  3
BASIC
350
32
  3
BRIGHTEN
350
36
  3
COLORCHANGE
350
3A
  3
CONCEPTUAL
350
34
  3
DIM
350
35
  3
FACEPATTERN
350
39
  3
FLAT
350
2B
  3
FLATWITHEDGES
350
2C
  3
GOURAUD
350
2D
  3
GOURAUDWITHEDGES
350
2E
  3
LINEPATTERN
350
38
  3
REALISTIC
350
33
  3
THICKEN
350
37
  0
DICTIONARY
  5
117
102
{ACAD_REACTORS
330
C
102
}
330
C
100
AcDbDictionary
  3
CEPSNTYPE
350
120
  3
DIMSTYLEDATA
350
136
  3
FINGERPRINTGUID
350
121
  3
HYPERLINKBASE
350
11A
  3
INSUNITS
350
11F
  3
LAYOUTDICT
350
11C
  3
LWETCUNION
350
11E
  3
PLOTSETDICT
350
11D
  3
PSVPSCALE
350
123
  3
PUCSBASE
350
126
  3
PUCSORGBACK
350
12C
  3
PUCSORGBOTTOM
350
128
  3
PUCSORGFRONT
350
12B
  3
PUCSORGLEFT
350
129
  3
PUCSORGRIGHT
350
12A
  3
PUCSORGTOP
350
127
  3
PUCSORTHOREF
350
124
  3
PUCSORTHOVIEW
350
125
  3
STYLESHEET
350
11B
  3
TSTACKALIGN
350
118
  3
TSTACKSIZE
350
119
  3
UCSBASE
350
12F
  3
UCSORGBACK
350
135
  3
UCSORGBOTTOM
350
131
  3
UCSORGFRONT
350
134
  3
UCSORGLEFT
350
132
  3
UCSORGRIGHT
350
133
  3
UCSORGTOP
350
130
  3
UCSORTHOREF
350
12D
  3
UCSORTHOVIEW
350
12E
  3
VERSIONGUID
350
122
  0
DICTIONARY
  5
137
102
{ACAD_REACTORS
330
C
102
}
330
C
100
AcDbDictionary
  3
DIMASSOC
350
13A
  3
HIDETEXT
350
13B
  0
MATERIAL
  5
3D
102
{ACAD_REACTORS
330
3B
102
}
102
{ACAD_XDICTIONARY
360
13E
102
}
330
3B
100
AcDbMaterial
  1
ByBlock
  0
MATERIAL
  5
3C
102
{ACAD_REACTORS
330
3B
102
}
102
{ACAD_XDICTIONARY
360
13C
102
}
330
3B
100
AcDbMaterial
  1
ByLayer
  0
MATERIAL
  5
3E
102
{ACAD_REACTORS
330
3B
102
}
102
{ACAD_XDICTIONARY
360
140
102
}
330
3B
100
AcDbMaterial
  1
Global
  0
MLINESTYLE
  5
18
102
{ACAD_REACTORS
330
17
102
}
330
17
100
AcDbMlineStyle
  2
Standard
 70
     0
  3

 62
   256
 51
90.0
 52
90.0
 71
     2
 49
0.5
 62
   256
  6
BYLAYER
 49
-0.5
 62
   256
  6
BYLAYER
  0
ACAD_PROXY_OBJECT
  5
2F
102
{ACAD_REACTORS
330
2A
102
}
330
2A
100
AcDbProxyObject
 90
      499
 91
      501
 93
      436
310
42CC9915DA5C99599C985B595049028333333333333E3BF0000000000000FB0107901411070040501600405405064090741402480A0340
1001
ACAD
1000
AcDbSavedByObjectVersion
1070
     0
  0
ACAD_PROXY_OBJECT
  5
31
102
{ACAD_REACTORS
330
2A
102
}
330
2A
100
AcDbProxyObject
 90
      499
 91
      501
 93
      500
310
424CD108121A5919195B90640502408333333333333E3BF0000000000000FB01079024090700405020000000000001110200405405064090740C02480A0340
1001
ACAD
1000
AcDbSavedByObjectVersion
1070
     0
  0
ACAD_PROXY_OBJECT
  5
30
102
{ACAD_REACTORS
330
2A
102
}
330
2A
100
AcDbProxyObject
 90
      499
 91
      501
 93
      436
310
42CCD915DA5C99599C985B595059028333333333333E3BF0000000000000FB0107901411070040501600405405064090741402480A0340
1001
ACAD
1000
AcDbSavedByObjectVersion
1070
     0
  0
ACAD_PROXY_OBJECT
  5
32
102
{ACAD_REACTORS
330
2A
102
}
330
2A
100
AcDbProxyObject
 90
      499
 91
      501
 93
      388
310
4150985CDA58D07406404333333333333E3BF0000000000000FB0107A41107004050150841D405064090741402480A0350
1001
ACAD
1000
AcDbSavedByObjectVersion
1070
     0
  0
ACAD_PROXY_OBJECT
  5
36
102
{ACAD_REACTORS
330
2A
102
}
330
2A
100
AcDbProxyObject
 90
      499
 91
      501
 93
      428
310
42109C9A59DA1D195B90C409028333333333333E3BF0000000000000FB010790141107004050150841D405064090741402480A029950
1001
ACAD
1000
AcDbSavedByObjectVersion
1070
     0
  0
ACAD_PROXY_OBJECT
  5
3A
102
{ACAD_REACTORS
330
2A
102
}
330
2A
100
AcDbProxyObject
 90
      499
 91
      501
 93
      452
310
42D0DBDB1BDC90DA185B99D95104090240C333333333333E3BF0000000000000FB0108901411070040501508421405064090741402480A0350
1001
ACAD
1000
AcDbSavedByObjectVersion
1070
     0
  0
ACAD_PROXY_OBJECT
  5
34
102
{ACAD_REACTORS
330
2A
102
}
330
2A
100
AcDbProxyObject
 90
      499
 91
      501
 93
      500
310
4290DBDB98D95C1D1D585B10940D028333333333333E3BF0000000000000FB0107902409070040501000000000000111010841D405064090740C02480A0340
1001
ACAD
1000
AcDbSavedByObjectVersion
1070
     0
  0
ACAD_PROXY_OBJECT
  5
35
102
{ACAD_REACTORS
330
2A
102
}
330
2A
100
AcDbProxyObject
 90
      499
 91
      501
 93
      412
310
40D11A5B50B409028333333333333E3BF0000000000000FB010790141107004050150841D405064090741402480A02677FFFFFD0
1001
ACAD
1000
AcDbSavedByObjectVersion
1070
     0
  0
ACAD_PROXY_OBJECT
  5
39
102
{ACAD_REACTORS
330
2A
102
}
330
2A
100
AcDbProxyObject
 90
      499
 91
      501
 93
      444
310
42D19858D95C185D1D195C9B90F409028333333333333E3BF0000000000000FB010790141107004050150841D405064090741402480A0350
1001
ACAD
1000
AcDbSavedByObjectVersion
1070
     0
  0
ACAD_PROXY_OBJECT
  5
2B
102
{ACAD_REACTORS
330
2A
102
}
330
2A
100
AcDbProxyObject
 90
      499
 91
      501
 93
      388
310
41119B185D240901404333333333333E3BF0000000000000F9010740A41107004050150841D405064090741402480A1B50
1001
ACAD
1000
AcDbSavedByObjectVersion
1070
     0
  0
ACAD_PROXY_OBJECT
  5
2C
102
{ACAD_REACTORS
330
2A
102
}
330
2A
100
AcDbProxyObject
 90
      499
 91
      501
 93
      476
310
43519B185D15DA5D1A115919D95CD0140901404333333333333E3BF0000000000000F9010740901411070040501600405405064090741402480A1B50
1001
ACAD
1000
AcDbSavedByObjectVersion
1070
     0
  0
ACAD_PROXY_OBJECT
  5
2D
102
{ACAD_REACTORS
330
2A
102
}
330
2A
100
AcDbProxyObject
 90
      499
 91
      501
 93
      412
310
41D1DBDD5C985D5910240902404333333333333E3BF0000000000000F9010740A411070040501641D405064090741402480A1B50
1001
ACAD
1000
AcDbSavedByObjectVersion
1070
     0
  0
ACAD_PROXY_OBJECT
  5
2E
102
{ACAD_REACTORS
330
2A
102
}
330
2A
100
AcDbProxyObject
 90
      499
 91
      501
 93
      500
310
4411DBDD5C985D5915DA5D1A115919D95CD0340902404333333333333E3BF0000000000000F9010740901411070040501600405405064090741402480A1B50
1001
ACAD
1000
AcDbSavedByObjectVersion
1070
     0
  0
ACAD_PROXY_OBJECT
  5
38
102
{ACAD_REACTORS
330
2A
102
}
330
2A
100
AcDbProxyObject
 90
      499
 91
      501
 93
      444
310
42D31A5B995C185D1D195C9B90E409028333333333333E3BF0000000000000FB010790141107004050750841D405064090741402483A0350
1001
ACAD
1000
AcDbSavedByObjectVersion
1070
     0
  0
ACAD_PROXY_OBJECT
  5
33
102
{ACAD_REACTORS
330
2A
102
}
330
2A
100
AcDbProxyObject
 90
      499
 91
      501
 93
      420
310
425499585B1A5CDD1A58D08409028333333333333E3BF0000000000000FB01079019070040501508421405064090741402480A1B40
1001
ACAD
1000
AcDbSavedByObjectVersion
1070
     0
  0
ACAD_PROXY_OBJECT
  5
37
102
{ACAD_REACTORS
330
2A
102
}
330
2A
100
AcDbProxyObject
 90
      499
 91
      501
 93
      412
310
41D51A1A58DAD95B90D409028333333333333E3BF0000000000000FB010790141107004050150C41D405064090741402480A0350
1001
ACAD
1000
AcDbSavedByObjectVersion
1070
     0
  0
XRECORD
  5
120
102
{ACAD_REACTORS
330
117
102
}
330
117
100
AcDbXrecord
 90
        0
  0
XRECORD
  5
136
102
{ACAD_REACTORS
330
117
102
}
330
117
100
AcDbXrecord
1000
DSTYLE
1002
{
1070
   340
340
11
1002
}
  0
XRECORD
  5
121
102
{ACAD_REACTORS
330
117
102
}
330
117
100
AcDbXrecord
  1
{344FB6C3-59EB-4301-A008-1400D1EF80CF}
  0
XRECORD
  5
11A
102
{ACAD_REACTORS
330
117
102
}
330
117
100
AcDbXrecord
  1

  0
XRECORD
  5
11F
102
{ACAD_REACTORS
330
117
102
}
330
117
100
AcDbXrecord
 90
        4
  0
XRECORD
  5
11C
102
{ACAD_REACTORS
330
117
102
}
330
117
100
AcDbXrecord
340
1A
  0
XRECORD
  5
11E
102
{ACAD_REACTORS
330
117
102
}
330
117
100
AcDbXrecord
 90
    10781
  0
XRECORD
  5
11D
102
{ACAD_REACTORS
330
117
102
}
330
117
100
AcDbXrecord
340
19
  0
XRECORD
  5
123
102
{ACAD_REACTORS
330
117
102
}
330
117
100
AcDbXrecord
 40
0.0
  0
XRECORD
  5
126
102
{ACAD_REACTORS
330
117
102
}
330
117
100
AcDbXrecord
340
0
  0
XRECORD
  5
12C
102
{ACAD_REACTORS
330
117
102
}
330
117
100
AcDbXrecord
 10
0.0
 20
0.0
 30
0.0
  0
XRECORD
  5
128
102
{ACAD_REACTORS
330
117
102
}
330
117
100
AcDbXrecord
 10
0.0
 20
0.0
 30
0.0
  0
XRECORD
  5
12B
102
{ACAD_REACTORS
330
117
102
}
330
117
100
AcDbXrecord
 10
0.0
 20
0.0
 30
0.0
  0
XRECORD
  5
129
102
{ACAD_REACTORS
330
117
102
}
330
117
100
AcDbXrecord
 10
0.0
 20
0.0
 30
0.0
  0
XRECORD
  5
12A
102
{ACAD_REACTORS
330
117
102
}
330
117
100
AcDbXrecord
 10
0.0
 20
0.0
 30
0.0
  0
XRECORD
  5
127
102
{ACAD_REACTORS
330
117
102
}
330
117
100
AcDbXrecord
 10
0.0
 20
0.0
 30
0.0
  0
XRECORD
  5
124
102
{ACAD_REACTORS
330
117
102
}
330
117
100
AcDbXrecord
340
0
  0
XRECORD
  5
125
102
{ACAD_REACTORS
330
117
102
}
330
117
100
AcDbXrecord
 70
     0
  0
XRECORD
  5
11B
102
{ACAD_REACTORS
330
117
102
}
330
117
100
AcDbXrecord
  1

  0
XRECORD
  5
118
102
{ACAD_REACTORS
330
117
102
}
330
117
100
AcDbXrecord
 90
        1
  0
XRECORD
  5
119
102
{ACAD_REACTORS
330
117
102
}
330
117
100
AcDbXrecord
 90
       70
  0
XRECORD
  5
12F
102
{ACAD_REACTORS
330
117
102
}
330
117
100
AcDbXrecord
340
0
  0
XRECORD
  5
135
102
{ACAD_REACTORS
330
117
102
}
330
117
100
AcDbXrecord
 10
0.0
 20
0.0
 30
0.0
  0
XRECORD
  5
131
102
{ACAD_REACTORS
330
117
102
}
330
117
100
AcDbXrecord
 10
0.0
 20
0.0
 30
0.0
  0
XRECORD
  5
134
102
{ACAD_REACTORS
330
117
102
}
330
117
100
AcDbXrecord
 10
0.0
 20
0.0
 30
0.0
  0
XRECORD
  5
132
102
{ACAD_REACTORS
330
117
102
}
330
117
100
AcDbXrecord
 10
0.0
 20
0.0
 30
0.0
  0
XRECORD
  5
133
102
{ACAD_REACTORS
330
117
102
}
330
117
100
AcDbXrecord
 10
0.0
 20
0.0
 30
0.0
  0
XRECORD
  5
130
102
{ACAD_REACTORS
330
117
102
}
330
117
100
AcDbXrecord
 10
0.0
 20
0.0
 30
0.0
  0
XRECORD
  5
12D
102
{ACAD_REACTORS
330
117
102
}
330
117
100
AcDbXrecord
340
0
  0
XRECORD
  5
12E
102
{ACAD_REACTORS
330
117
102
}
330
117
100
AcDbXrecord
 70
     0
  0
XRECORD
  5
122
102
{ACAD_REACTORS
330
117
102
}
330
117
100
AcDbXrecord
  1
{FAEB1C32-E019-11D5-929B-00C0DF256EC4}
  0
DICTIONARYVAR
  5
13A
102
{ACAD_REACTORS
330
137
102
}
330
137
100
DictionaryVariables
280
     0
  1
2
  0
DICTIONARYVAR
  5
13B
102
{ACAD_REACTORS
330
137
102
}
330
137
100
DictionaryVariables
280
     0
  1
1
  0
DICTIONARY
  5
13E
330
3D
100
AcDbDictionary
280
     1
  3
ACAD_XREC_ROUNDTRIP
360
13F
  0
DICTIONARY
  5
13C
330
3C
100
AcDbDictionary
280
     1
  3
ACAD_XREC_ROUNDTRIP
360
13D
  0
DICTIONARY
  5
140
330
3E
100
AcDbDictionary
280
     1
  3
ACAD_XREC_ROUNDTRIP
360
141
  0
XRECORD
  5
13F
102
{ACAD_REACTORS
330
13E
102
}
330
13E
100
AcDbXrecord
102
MATERIAL
148
0.0
149
0.0
149
0.0
 93
        0
 94
      127
282
     0
 72
     1
 77
     1
171
     1
175
     1
179
     1
273
     0
  0
XRECORD
  5
13D
102
{ACAD_REACTORS
330
13C
102
}
330
13C
100
AcDbXrecord
102
MATERIAL
148
0.0
149
0.0
149
0.0
 93
        0
 94
      127
282
     0
 72
     1
 77
     1
171
     1
175
     1
179
     1
273
     0
  0
XRECORD
  5
141
102
{ACAD_REACTORS
330
140
102
}
330
140
100
AcDbXrecord
102
MATERIAL
148
0.0
149
0.0
149
0.0
 93
        0
 94
      127
282
     0
 72
     1
 77
     1
171
     1
175
     1
179
     1
273
     0
  0
ENDSEC
  0
EOF
