  0
SECTION
  2
HEADER
  9
$ACADVER
  1
AC1014
  9
$ACADMAINTVER
 70
     9
  9
$DWGCODEPAGE
  3
ANSI_1250
  9
$INSBASE
 10
0.0
 20
0.0
 30
0.0
  9
$EXTMIN
 10
-37.3621
 20
-40.3262
 30
0.0
  9
$EXTMAX
 10
38.7961
 20
40.2558
 30
0.0
  9
$LIMMIN
 10
0.0
 20
0.0
  9
$LIMMAX
 10
12.0
 20
9.0
  9
$ORTHOMODE
 70
     0
  9
$REGENMODE
 70
     1
  9
$FILLMODE
 70
     1
  9
$QTEXTMODE
 70
     0
  9
$MIRRTEXT
 70
     1
  9
$DRAGMODE
 70
     2
  9
$LTSCALE
 40
1.0
  9
$OSMODE
 70
    37
  9
$ATTMODE
 70
     1
  9
$TEXTSIZE
 40
0.2
  9
$TRACEWID
 40
0.05
  9
$TEXTSTYLE
  7
STANDARD
  9
$CLAYER
  8
0
  9
$CELTYPE
  6
BYLAYER
  9
$CECOLOR
 62
   256
  9
$CELTSCALE
 40
1.0
  9
$DELOBJ
 70
     1
  9
$DISPSILH
 70
     0
  9
$DIMSCALE
 40
1.0
  9
$DIMASZ
 40
0.18
  9
$DIMEXO
 40
0.0625
  9
$DIMDLI
 40
0.38
  9
$DIMRND
 40
0.0
  9
$DIMDLE
 40
0.0
  9
$DIMEXE
 40
0.18
  9
$DIMTP
 40
0.0
  9
$DIMTM
 40
0.0
  9
$DIMTXT
 40
0.18
  9
$DIMCEN
 40
0.09
  9
$DIMTSZ
 40
0.0
  9
$DIMTOL
 70
     0
  9
$DIMLIM
 70
     0
  9
$DIMTIH
 70
     1
  9
$DIMTOH
 70
     1
  9
$DIMSE1
 70
     0
  9
$DIMSE2
 70
     0
  9
$DIMTAD
 70
     0
  9
$DIMZIN
 70
     0
  9
$DIMBLK
  1

  9
$DIMASO
 70
     1
  9
$DIMSHO
 70
     1
  9
$DIMPOST
  1

  9
$DIMAPOST
  1

  9
$DIMALT
 70
     0
  9
$DIMALTD
 70
     2
  9
$DIMALTF
 40
25.4
  9
$DIMLFAC
 40
1.0
  9
$DIMTOFL
 70
     0
  9
$DIMTVP
 40
0.0
  9
$DIMTIX
 70
     0
  9
$DIMSOXD
 70
     0
  9
$DIMSAH
 70
     0
  9
$DIMBLK1
  1

  9
$DIMBLK2
  1

  9
$DIMSTYLE
  2
STANDARD
  9
$DIMCLRD
 70
     0
  9
$DIMCLRE
 70
     0
  9
$DIMCLRT
 70
     0
  9
$DIMTFAC
 40
1.0
  9
$DIMGAP
 40
0.09
  9
$DIMJUST
 70
     0
  9
$DIMSD1
 70
     0
  9
$DIMSD2
 70
     0
  9
$DIMTOLJ
 70
     1
  9
$DIMTZIN
 70
     0
  9
$DIMALTZ
 70
     0
  9
$DIMALTTZ
 70
     0
  9
$DIMFIT
 70
     3
  9
$DIMUPT
 70
     0
  9
$DIMUNIT
 70
     2
  9
$DIMDEC
 70
     4
  9
$DIMTDEC
 70
     4
  9
$DIMALTU
 70
     2
  9
$DIMALTTD
 70
     2
  9
$DIMTXSTY
  7
STANDARD
  9
$DIMAUNIT
 70
     0
  9
$LUNITS
 70
     2
  9
$LUPREC
 70
     4
  9
$SKETCHINC
 40
0.1
  9
$FILLETRAD
 40
0.5
  9
$AUNITS
 70
     0
  9
$AUPREC
 70
     0
  9
$MENU
  1
.
  9
$ELEVATION
 40
0.0
  9
$PELEVATION
 40
0.0
  9
$THICKNESS
 40
0.0
  9
$LIMCHECK
 70
     0
  9
$CHAMFERA
 40
0.5
  9
$CHAMFERB
 40
0.5
  9
$CHAMFERC
 40
1.0
  9
$CHAMFERD
 40
0.0
  9
$SKPOLY
 70
     0
  9
$TDCREATE
 40
2456233.308717153
  9
$TDUPDATE
 40
2456233.308717164
  9
$TDINDWG
 40
0.0000000116
  9
$TDUSRTIMER
 40
0.0000000116
  9
$USRTIMER
 70
     1
  9
$ANGBASE
 50
0.0
  9
$ANGDIR
 70
     0
  9
$PDMODE
 70
     0
  9
$PDSIZE
 40
0.0
  9
$PLINEWID
 40
0.0
  9
$COORDS
 70
     1
  9
$SPLFRAME
 70
     0
  9
$SPLINETYPE
 70
     6
  9
$SPLINESEGS
 70
     8
  9
$ATTDIA
 70
     0
  9
$ATTREQ
 70
     1
  9
$HANDLING
 70
     1
  9
$HANDSEED
  5
133
  9
$SURFTAB1
 70
     6
  9
$SURFTAB2
 70
     6
  9
$SURFTYPE
 70
     6
  9
$SURFU
 70
     6
  9
$SURFV
 70
     6
  9
$UCSNAME
  2

  9
$UCSORG
 10
0.0
 20
0.0
 30
0.0
  9
$UCSXDIR
 10
1.0
 20
0.0
 30
0.0
  9
$UCSYDIR
 10
0.0
 20
1.0
 30
0.0
  9
$PUCSNAME
  2

  9
$PUCSORG
 10
0.0
 20
0.0
 30
0.0
  9
$PUCSXDIR
 10
1.0
 20
0.0
 30
0.0
  9
$PUCSYDIR
 10
0.0
 20
1.0
 30
0.0
  9
$USERI1
 70
     0
  9
$USERI2
 70
     0
  9
$USERI3
 70
     0
  9
$USERI4
 70
     0
  9
$USERI5
 70
     0
  9
$USERR1
 40
0.0
  9
$USERR2
 40
0.0
  9
$USERR3
 40
0.0
  9
$USERR4
 40
0.0
  9
$USERR5
 40
0.0
  9
$WORLDVIEW
 70
     1
  9
$SHADEDGE
 70
     3
  9
$SHADEDIF
 70
    70
  9
$TILEMODE
 70
     1
  9
$MAXACTVP
 70
    64
  9
$PINSBASE
 10
0.0
 20
0.0
 30
0.0
  9
$PLIMCHECK
 70
     0
  9
$PEXTMIN
 10
1.000000000000000E+20
 20
1.000000000000000E+20
 30
1.000000000000000E+20
  9
$PEXTMAX
 10
-1.000000000000000E+20
 20
-1.000000000000000E+20
 30
-1.000000000000000E+20
  9
$PLIMMIN
 10
0.0
 20
0.0
  9
$PLIMMAX
 10
12.0
 20
9.0
  9
$UNITMODE
 70
     0
  9
$VISRETAIN
 70
     1
  9
$PLINEGEN
 70
     0
  9
$PSLTSCALE
 70
     1
  9
$TREEDEPTH
 70
  3020
  9
$PICKSTYLE
 70
     1
  9
$CMLSTYLE
  2
STANDARD
  9
$CMLJUST
 70
     0
  9
$CMLSCALE
 40
1.0
  9
$PROXYGRAPHICS
 70
     1
  9
$MEASUREMENT
 70
     0
  0
ENDSEC
  0
SECTION
  2
CLASSES
  0
CLASS
  1
ACDBDICTIONARYWDFLT
  2
AcDbDictionaryWithDefault
  3
ObjectDBX Classes
 90
        0
280
     0
281
     0
  0
CLASS
  1
VISUALSTYLE
  2
AcDbVisualStyle
  3
ObjectDBX Classes
 90
     4095
280
     0
281
     0
  0
CLASS
  1
MATERIAL
  2
AcDbMaterial
  3
ObjectDBX Classes
 90
     1153
280
     0
281
     0
  0
CLASS
  1
DICTIONARYVAR
  2
AcDbDictionaryVar
  3
ObjectDBX Classes
 90
        0
280
     0
281
     0
  0
CLASS
  1
XRECORD
  2
AcDbXrecord
  3
AutoCAD 2000
 90
        0
280
     0
281
     0
  0
CLASS
  1
LWPOLYLINE
  2
AcDbPolyline
  3
AutoCAD 2000
 90
        0
280
     0
281
     1
  0
CLASS
  1
HATCH
  2
AcDbHatch
  3
AutoCAD 2000
 90
        0
280
     0
281
     1
  0
CLASS
  1
ACDBPLACEHOLDER
  2
AcDbPlaceHolder
  3
ObjectDBX Classes
 90
        0
280
     0
281
     0
  0
CLASS
  1
LAYOUT
  2
AcDbLayout
  3
ObjectDBX Classes
 90
        0
280
     0
281
     0
  0
ENDSEC
  0
SECTION
  2
TABLES
  0
TABLE
  2
VPORT
  5
8
330
0
100
AcDbSymbolTable
 70
     1
  0
VPORT
  5
29
330
8
100
AcDbSymbolTableRecord
100
AcDbViewportTableRecord
  2
*ACTIVE
 70
     0
 10
0.0
 20
0.0
 11
1.0
 21
1.0
 12
10.42990654205607
 22
4.5
 13
0.0
 23
0.0
 14
0.5
 24
0.5
 15
0.5
 25
0.5
 16
0.0
 26
0.0
 36
1.0
 17
0.0
 27
0.0
 37
0.0
 40
9.0
 41
1.972972972850329
 42
50.0
 43
0.0
 44
0.0
 50
0.0
 51
0.0
 71
     0
 72
   100
 73
     1
 74
     3
 75
     0
 76
     0
 77
     0
 78
     0
  0
ENDTAB
  0
TABLE
  2
LTYPE
  5
5
330
0
100
AcDbSymbolTable
 70
    10
  0
LTYPE
  5
14
330
5
100
AcDbSymbolTableRecord
100
AcDbLinetypeTableRecord
  2
BYBLOCK
 70
     0
  3

 72
    65
 73
     0
 40
0.0
  0
LTYPE
  5
15
330
5
100
AcDbSymbolTableRecord
100
AcDbLinetypeTableRecord
  2
BYLAYER
 70
     0
  3

 72
    65
 73
     0
 40
0.0
  0
LTYPE
  5
16
330
5
100
AcDbSymbolTableRecord
100
AcDbLinetypeTableRecord
  2
CONTINUOUS
 70
     0
  3
Solid line
 72
    65
 73
     0
 40
0.0
  0
LTYPE
  5
6B
330
5
100
AcDbSymbolTableRecord
100
AcDbLinetypeTableRecord
  2
NEW_LINE1
 70
     0
  3

 72
    65
 73
     4
 40
1.2
 49
0.5
 74
     4
 75
     0
340
0
 46
1.0
 50
0.0
 44
0.0
 45
0.0
 49
-0.3
 74
     4
 75
     0
340
0
 46
1.0
 50
0.0
 44
0.0
 45
0.0
 49
0.1
 74
     4
 75
     0
340
0
 46
1.0
 50
0.0
 44
0.0
 45
0.0
 49
-0.3
 74
     4
 75
     0
340
0
 46
1.0
 50
0.0
 44
0.0
 45
0.0
  0
LTYPE
  5
6D
330
5
100
AcDbSymbolTableRecord
100
AcDbLinetypeTableRecord
  2
NEW_LINE2
 70
     0
  3

 72
    65
 73
     4
 40
1.2
 49
0.5
 74
     4
 75
     0
340
0
 46
1.0
 50
0.0
 44
0.0
 45
0.0
 49
-0.3
 74
     4
 75
     0
340
0
 46
1.0
 50
0.0
 44
0.0
 45
0.0
 49
0.1
 74
     4
 75
     0
340
0
 46
1.0
 50
0.0
 44
0.0
 45
0.0
 49
-0.3
 74
     4
 75
     0
340
0
 46
1.0
 50
0.0
 44
0.0
 45
0.0
  0
LTYPE
  5
8D
330
5
100
AcDbSymbolTableRecord
100
AcDbLinetypeTableRecord
  2
NEW_LINE3
 70
     0
  3

 72
    65
 73
     4
 40
1.2
 49
0.5
 74
     4
 75
     0
340
0
 46
1.0
 50
0.0
 44
0.0
 45
0.0
 49
-0.3
 74
     4
 75
     0
340
0
 46
1.0
 50
0.0
 44
0.0
 45
0.0
 49
0.1
 74
     4
 75
     0
340
0
 46
1.0
 50
0.0
 44
0.0
 45
0.0
 49
-0.3
 74
     4
 75
     0
340
0
 46
1.0
 50
0.0
 44
0.0
 45
0.0
  0
LTYPE
  5
C2
330
5
100
AcDbSymbolTableRecord
100
AcDbLinetypeTableRecord
  2
NEW_LINE4
 70
     0
  3

 72
    65
 73
     4
 40
1.2
 49
0.5
 74
     4
 75
     0
340
0
 46
1.0
 50
0.0
 44
0.0
 45
0.0
 49
-0.3
 74
     4
 75
     0
340
0
 46
1.0
 50
0.0
 44
0.0
 45
0.0
 49
0.1
 74
     4
 75
     0
340
0
 46
1.0
 50
0.0
 44
0.0
 45
0.0
 49
-0.3
 74
     4
 75
     0
340
0
 46
1.0
 50
0.0
 44
0.0
 45
0.0
  0
LTYPE
  5
D6
330
5
100
AcDbSymbolTableRecord
100
AcDbLinetypeTableRecord
  2
NEW_LINE5
 70
     0
  3

 72
    65
 73
     4
 40
1.2
 49
0.5
 74
     4
 75
     0
340
0
 46
1.0
 50
0.0
 44
0.0
 45
0.0
 49
-0.3
 74
     4
 75
     0
340
0
 46
1.0
 50
0.0
 44
0.0
 45
0.0
 49
0.1
 74
     4
 75
     0
340
0
 46
1.0
 50
0.0
 44
0.0
 45
0.0
 49
-0.3
 74
     4
 75
     0
340
0
 46
1.0
 50
0.0
 44
0.0
 45
0.0
  0
LTYPE
  5
D8
330
5
100
AcDbSymbolTableRecord
100
AcDbLinetypeTableRecord
  2
NEW_LINE6
 70
     0
  3

 72
    65
 73
     4
 40
1.2
 49
0.5
 74
     4
 75
     0
340
0
 46
1.0
 50
0.0
 44
0.0
 45
0.0
 49
-0.3
 74
     4
 75
     0
340
0
 46
1.0
 50
0.0
 44
0.0
 45
0.0
 49
0.1
 74
     4
 75
     0
340
0
 46
1.0
 50
0.0
 44
0.0
 45
0.0
 49
-0.3
 74
     4
 75
     0
340
0
 46
1.0
 50
0.0
 44
0.0
 45
0.0
  0
LTYPE
  5
DB
330
5
100
AcDbSymbolTableRecord
100
AcDbLinetypeTableRecord
  2
NEW_LINE7
 70
     0
  3

 72
    65
 73
     4
 40
1.2
 49
0.5
 74
     4
 75
     0
340
0
 46
1.0
 50
0.0
 44
0.0
 45
0.0
 49
-0.3
 74
     4
 75
     0
340
0
 46
1.0
 50
0.0
 44
0.0
 45
0.0
 49
0.1
 74
     4
 75
     0
340
0
 46
1.0
 50
0.0
 44
0.0
 45
0.0
 49
-0.3
 74
     4
 75
     0
340
0
 46
1.0
 50
0.0
 44
0.0
 45
0.0
  0
LTYPE
  5
DD
330
5
100
AcDbSymbolTableRecord
100
AcDbLinetypeTableRecord
  2
NEW_LINE8
 70
     0
  3

 72
    65
 73
     4
 40
1.2
 49
0.5
 74
     4
 75
     0
340
0
 46
1.0
 50
0.0
 44
0.0
 45
0.0
 49
-0.3
 74
     4
 75
     0
340
0
 46
1.0
 50
0.0
 44
0.0
 45
0.0
 49
0.1
 74
     4
 75
     0
340
0
 46
1.0
 50
0.0
 44
0.0
 45
0.0
 49
-0.3
 74
     4
 75
     0
340
0
 46
1.0
 50
0.0
 44
0.0
 45
0.0
  0
LTYPE
  5
107
330
5
100
AcDbSymbolTableRecord
100
AcDbLinetypeTableRecord
  2
NEW_LINE9
 70
     0
  3

 72
    65
 73
     4
 40
1.2
 49
0.5
 74
     4
 75
     0
340
0
 46
1.0
 50
0.0
 44
0.0
 45
0.0
 49
-0.3
 74
     4
 75
     0
340
0
 46
1.0
 50
0.0
 44
0.0
 45
0.0
 49
0.1
 74
     4
 75
     0
340
0
 46
1.0
 50
0.0
 44
0.0
 45
0.0
 49
-0.3
 74
     4
 75
     0
340
0
 46
1.0
 50
0.0
 44
0.0
 45
0.0
  0
ENDTAB
  0
TABLE
  2
LAYER
  5
2
330
0
100
AcDbSymbolTable
 70
     2
  0
LAYER
  5
10
330
2
100
AcDbSymbolTableRecord
100
AcDbLayerTableRecord
  2
0
 70
     0
 62
     7
  6
CONTINUOUS
  0
LAYER
  5
40
330
2
100
AcDbSymbolTableRecord
100
AcDbLayerTableRecord
  2
AXIS
 70
     0
 62
     7
  6
CONTINUOUS
  0
ENDTAB
  0
TABLE
  2
STYLE
  5
3
330
0
100
AcDbSymbolTable
 70
     1
  0
STYLE
  5
11
330
3
100
AcDbSymbolTableRecord
100
AcDbTextStyleTableRecord
  2
STANDARD
 70
     0
 40
0.0
 41
1.0
 50
0.0
 71
     0
 42
0.2
  3
txt
  4

  0
ENDTAB
  0
TABLE
  2
VIEW
  5
6
330
0
100
AcDbSymbolTable
 70
     0
  0
ENDTAB
  0
TABLE
  2
UCS
  5
7
330
0
100
AcDbSymbolTable
 70
     0
  0
ENDTAB
  0
TABLE
  2
APPID
  5
9
330
0
100
AcDbSymbolTable
 70
     2
  0
APPID
  5
12
330
9
100
AcDbSymbolTableRecord
100
AcDbRegAppTableRecord
  2
ACAD
 70
     0
  0
APPID
  5
3F
330
9
100
AcDbSymbolTableRecord
100
AcDbRegAppTableRecord
  2
ODA
 70
     0
  0
ENDTAB
  0
TABLE
  2
DIMSTYLE
  5
A
330
0
100
AcDbSymbolTable
 70
     1
  0
DIMSTYLE
105
27
330
A
100
AcDbSymbolTableRecord
100
AcDbDimStyleTableRecord
  2
STANDARD
 70
     0
  3

  4

  5

  6

  7

 40
1.0
 41
0.18
 42
0.0625
 43
0.38
 44
0.18
 45
0.0
 46
0.0
 47
0.0
 48
0.0
140
0.18
141
0.09
142
0.0
143
25.4
144
1.0
145
0.0
146
1.0
147
0.09
 71
     0
 72
     0
 73
     1
 74
     1
 75
     0
 76
     0
 77
     0
 78
     0
170
     0
171
     2
172
     0
173
     0
174
     0
175
     0
176
     0
177
     0
178
     0
270
     2
271
     4
272
     4
273
     2
274
     2
340
11
275
     0
280
     0
281
     0
282
     0
283
     1
284
     0
285
     0
286
     0
287
     3
288
     0
  0
ENDTAB
  0
TABLE
  2
BLOCK_RECORD
  5
1
330
0
100
AcDbSymbolTable
 70
     1
  0
BLOCK_RECORD
  5
1F
330
1
100
AcDbSymbolTableRecord
100
AcDbBlockTableRecord
  2
*MODEL_SPACE
  0
BLOCK_RECORD
  5
1B
330
1
100
AcDbSymbolTableRecord
100
AcDbBlockTableRecord
  2
*PAPER_SPACE
  0
ENDTAB
  0
ENDSEC
  0
SECTION
  2
BLOCKS
  0
BLOCK
  5
20
330
1F
100
AcDbEntity
  8
0
100
AcDbBlockBegin
  2
*MODEL_SPACE
 70
     0
 10
0.0
 20
0.0
 30
0.0
  3
*MODEL_SPACE
  1

  0
ENDBLK
  5
21
330
1F
100
AcDbEntity
  8
0
100
AcDbBlockEnd
  0
BLOCK
  5
1C
330
1B
100
AcDbEntity
 67
     1
  8
0
100
AcDbBlockBegin
  2
*PAPER_SPACE
 70
     0
 10
0.0
 20
0.0
 30
0.0
  3
*PAPER_SPACE
  1

  0
ENDBLK
  5
1D
330
1B
100
AcDbEntity
 67
     1
  8
0
100
AcDbBlockEnd
  0
ENDSEC
  0
SECTION
  2
ENTITIES
  0
SPLINE
  5
41
330
1F
100
AcDbEntity
  8
AXIS
 62
   250
100
AcDbSpline
210
0.0
220
0.0
230
1.0
 70
    24
 71
     3
 72
     8
 73
     4
 74
     0
 42
0.0000000001
 43
0.0000000001
 40
0.0
 40
0.0
 40
0.0
 40
0.0
 40
1.0
 40
1.0
 40
1.0
 40
1.0
 10
-33.089
 20
-39.8983
 30
0.0
 10
-33.089
 20
-39.8983
 30
0.0
 10
-34.8652
 20
-19.6006
 30
0.0
 10
-34.8652
 20
-19.6006
 30
0.0
  0
SPLINE
  5
42
330
1F
100
AcDbEntity
  8
AXIS
 62
   250
100
AcDbSpline
210
0.0
220
0.0
230
1.0
 70
    24
 71
     3
 72
     8
 73
     4
 74
     0
 42
0.0000000001
 43
0.0000000001
 40
0.0
 40
0.0
 40
0.0
 40
0.0
 40
1.0
 40
1.0
 40
1.0
 40
1.0
 10
-28.9721
 20
-19.7519
 30
0.0
 10
-28.9721
 20
-19.7519
 30
0.0
 10
-27.4688
 20
-36.9342
 30
0.0
 10
-27.4688
 20
-36.9342
 30
0.0
  0
SPLINE
  5
43
330
1F
100
AcDbEntity
  8
AXIS
 62
   250
100
AcDbSpline
210
0.0
220
0.0
230
1.0
 70
    24
 71
     3
 72
     8
 73
     4
 74
     0
 42
0.0000000001
 43
0.0000000001
 40
0.0
 40
0.0
 40
0.0
 40
0.0
 40
1.0
 40
1.0
 40
1.0
 40
1.0
 10
-18.6433
 20
-40.2556
 30
0.0
 10
-18.6433
 20
-40.2556
 30
0.0
 10
-22.0546
 20
-40.2556
 30
0.0
 10
-22.0546
 20
-40.2556
 30
0.0
  0
SPLINE
  5
44
330
1F
100
AcDbEntity
  8
AXIS
 62
   250
100
AcDbSpline
210
0.0
220
0.0
230
1.0
 70
    24
 71
     3
 72
     8
 73
     4
 74
     0
 42
0.0000000001
 43
0.0000000001
 40
0.0
 40
0.0
 40
0.0
 40
0.0
 40
1.0
 40
1.0
 40
1.0
 40
1.0
 10
-8.5896
 20
-22.6035
 30
0.0
 10
-8.5896
 20
-22.6035
 30
0.0
 10
-22.3716
 20
-22.6035
 30
0.0
 10
-22.3716
 20
-22.6035
 30
0.0
  0
SPLINE
  5
45
330
1F
100
AcDbEntity
  8
AXIS
 62
   250
100
AcDbSpline
210
0.0
220
0.0
230
1.0
 70
    24
 71
     3
 72
     8
 73
     4
 74
     0
 42
0.0000000001
 43
0.0000000001
 40
0.0
 40
0.0
 40
0.0
 40
0.0
 40
1.0
 40
1.0
 40
1.0
 40
1.0
 10
-21.8549
 20
-40.2556
 30
0.0
 10
-21.8549
 20
-40.2556
 30
0.0
 10
-21.8549
 20
-23.9789
 30
0.0
 10
-21.8549
 20
-23.9789
 30
0.0
  0
SPLINE
  5
46
330
1F
100
AcDbEntity
  8
AXIS
 62
   250
100
AcDbSpline
210
0.0
220
0.0
230
1.0
 70
    24
 71
     3
 72
     8
 73
     4
 74
     0
 42
0.0000000001
 43
0.0000000001
 40
0.0
 40
0.0
 40
0.0
 40
0.0
 40
1.0
 40
1.0
 40
1.0
 40
1.0
 10
13.4099
 20
26.9867
 30
0.0
 10
13.4099
 20
26.9867
 30
0.0
 10
-22.1671
 20
26.9867
 30
0.0
 10
-22.1671
 20
26.9867
 30
0.0
  0
SPLINE
  5
47
330
1F
100
AcDbEntity
  8
AXIS
 62
   250
100
AcDbSpline
210
0.0
220
0.0
230
1.0
 70
    24
 71
     3
 72
     8
 73
     4
 74
     0
 42
0.0000000001
 43
0.0000000001
 40
0.0
 40
0.0
 40
0.0
 40
0.0
 40
1.0
 40
1.0
 40
1.0
 40
1.0
 10
-21.8162
 20
-22.7219
 30
0.0
 10
-21.8162
 20
-22.7219
 30
0.0
 10
-21.8162
 20
26.2849
 30
0.0
 10
-21.8162
 20
26.2849
 30
0.0
  0
SPLINE
  5
48
330
1F
100
AcDbEntity
  8
AXIS
 62
   250
100
AcDbSpline
210
0.0
220
0.0
230
1.0
 70
    24
 71
     3
 72
     8
 73
     4
 74
     0
 42
0.0000000001
 43
0.0000000001
 40
0.0
 40
0.0
 40
0.0
 40
0.0
 40
1.0
 40
1.0
 40
1.0
 40
1.0
 10
26.2434
 20
32.9591
 30
0.0
 10
26.2434
 20
32.9591
 30
0.0
 10
18.2068
 20
33.8534
 30
0.0
 10
18.2068
 20
33.8534
 30
0.0
  0
SPLINE
  5
49
330
1F
100
AcDbEntity
  8
AXIS
 62
   250
100
AcDbSpline
210
0.0
220
0.0
230
1.0
 70
    24
 71
     3
 72
     8
 73
     4
 74
     0
 42
0.0000000001
 43
0.0000000001
 40
0.0
 40
0.0
 40
0.0
 40
0.0
 40
1.0
 40
1.0
 40
1.0
 40
1.0
 10
25.0455
 20
22.1955
 30
0.0
 10
25.0455
 20
22.1955
 30
0.0
 10
17.0883
 20
23.081
 30
0.0
 10
17.0883
 20
23.081
 30
0.0
  0
SPLINE
  5
4A
330
1F
100
AcDbEntity
  8
AXIS
 62
   250
100
AcDbSpline
210
0.0
220
0.0
230
1.0
 70
    24
 71
     3
 72
     8
 73
     4
 74
     0
 42
0.0000000001
 43
0.0000000001
 40
0.0
 40
0.0
 40
0.0
 40
0.0
 40
1.0
 40
1.0
 40
1.0
 40
1.0
 10
18.6376
 20
33.6907
 30
0.0
 10
18.6376
 20
33.6907
 30
0.0
 10
17.4711
 20
23.2091
 30
0.0
 10
17.4711
 20
23.2091
 30
0.0
  0
SPLINE
  5
4B
330
1F
100
AcDbEntity
  8
AXIS
 62
   250
100
AcDbSpline
210
0.0
220
0.0
230
1.0
 70
    24
 71
     3
 72
     8
 73
     4
 74
     0
 42
0.0000000001
 43
0.0000000001
 40
0.0
 40
0.0
 40
0.0
 40
0.0
 40
1.0
 40
1.0
 40
1.0
 40
1.0
 10
-0.3495
 20
-10.1362
 30
0.0
 10
-0.3495
 20
-10.1362
 30
0.0
 10
-0.3495
 20
-7.194
 30
0.0
 10
-0.3495
 20
-7.194
 30
0.0
  0
SPLINE
  5
4C
330
1F
100
AcDbEntity
  8
AXIS
 62
   250
100
AcDbSpline
210
0.0
220
0.0
230
1.0
 70
    24
 71
     3
 72
     8
 73
     4
 74
     0
 42
0.0000000001
 43
0.0000000001
 40
0.0
 40
0.0
 40
0.0
 40
0.0
 40
1.0
 40
1.0
 40
1.0
 40
1.0
 10
-6.6422
 20
-10.1362
 30
0.0
 10
-6.6422
 20
-10.1362
 30
0.0
 10
-6.6422
 20
-7.194
 30
0.0
 10
-6.6422
 20
-7.194
 30
0.0
  0
SPLINE
  5
4D
330
1F
100
AcDbEntity
  8
AXIS
 62
   250
100
AcDbSpline
210
0.0
220
0.0
230
1.0
 70
    24
 71
     3
 72
     8
 73
     4
 74
     0
 42
0.0000000001
 43
0.0000000001
 40
0.0
 40
0.0
 40
0.0
 40
0.0
 40
1.0
 40
1.0
 40
1.0
 40
1.0
 10
-11.0341
 20
-7.3938
 30
0.0
 10
-11.0341
 20
-7.3938
 30
0.0
 10
3.1762
 20
-7.3938
 30
0.0
 10
3.1762
 20
-7.3938
 30
0.0
  0
SPLINE
  5
4E
330
1F
100
AcDbEntity
  8
AXIS
 62
   250
100
AcDbSpline
210
0.0
220
0.0
230
1.0
 70
    24
 71
     3
 72
     8
 73
     4
 74
     0
 42
0.0000000001
 43
0.0000000001
 40
0.0
 40
0.0
 40
0.0
 40
0.0
 40
1.0
 40
1.0
 40
1.0
 40
1.0
 10
-8.3903
 20
-2.1607
 30
0.0
 10
-8.3903
 20
-2.1607
 30
0.0
 10
-8.3903
 20
-6.2666
 30
0.0
 10
-8.3903
 20
-6.2666
 30
0.0
  0
SPLINE
  5
4F
330
1F
100
AcDbEntity
  8
AXIS
 62
   250
100
AcDbSpline
210
0.0
220
0.0
230
1.0
 70
    24
 71
     3
 72
     8
 73
     4
 74
     0
 42
0.0000000001
 43
0.0000000001
 40
0.0
 40
0.0
 40
0.0
 40
0.0
 40
1.0
 40
1.0
 40
1.0
 40
1.0
 10
1.3984
 20
-2.1329
 30
0.0
 10
1.3984
 20
-2.1329
 30
0.0
 10
1.3984
 20
-6.5096
 30
0.0
 10
1.3984
 20
-6.5096
 30
0.0
  0
SPLINE
  5
50
330
1F
100
AcDbEntity
  8
AXIS
 62
   250
100
AcDbSpline
210
0.0
220
0.0
230
1.0
 70
    24
 71
     3
 72
     8
 73
     4
 74
     0
 42
0.0000000001
 43
0.0000000001
 40
0.0
 40
0.0
 40
0.0
 40
0.0
 40
1.0
 40
1.0
 40
1.0
 40
1.0
 10
-12.1359
 20
-2.6759
 30
0.0
 10
-12.1359
 20
-2.6759
 30
0.0
 10
5.4045
 20
-2.6759
 30
0.0
 10
5.4045
 20
-2.6759
 30
0.0
  0
SPLINE
  5
51
330
1F
100
AcDbEntity
  8
AXIS
 62
   250
100
AcDbSpline
210
0.0
220
0.0
230
1.0
 70
    11
 71
     3
 72
    84
 73
    80
 74
     0
 42
0.0000000001
 43
0.0000000001
 40
0.0
 40
0.0
 40
0.0
 40
0.0
 40
0.0476190476190476
 40
0.0476190476190476
 40
0.0476190476190476
 40
0.0476190476190476
 40
0.0952380952380952
 40
0.0952380952380952
 40
0.0952380952380952
 40
0.0952380952380952
 40
0.1428571428571428
 40
0.1428571428571428
 40
0.1428571428571428
 40
0.1428571428571428
 40
0.1904761904761905
 40
0.1904761904761905
 40
0.1904761904761905
 40
0.1904761904761905
 40
0.2380952380952381
 40
0.2380952380952381
 40
0.2380952380952381
 40
0.2380952380952381
 40
0.2857142857142857
 40
0.2857142857142857
 40
0.2857142857142857
 40
0.2857142857142857
 40
0.3333333333333333
 40
0.3333333333333333
 40
0.3333333333333333
 40
0.3333333333333333
 40
0.3809523809523809
 40
0.3809523809523809
 40
0.3809523809523809
 40
0.3809523809523809
 40
0.4285714285714285
 40
0.4285714285714285
 40
0.4285714285714285
 40
0.4285714285714285
 40
0.4761904761904762
 40
0.4761904761904762
 40
0.4761904761904762
 40
0.4761904761904762
 40
0.5238095238095238
 40
0.5238095238095238
 40
0.5238095238095238
 40
0.5238095238095238
 40
0.5714285714285714
 40
0.5714285714285714
 40
0.5714285714285714
 40
0.5714285714285714
 40
0.6190476190476191
 40
0.6190476190476191
 40
0.6190476190476191
 40
0.6190476190476191
 40
0.6666666666666666
 40
0.6666666666666666
 40
0.6666666666666666
 40
0.6666666666666666
 40
0.7142857142857143
 40
0.7142857142857143
 40
0.7142857142857143
 40
0.7142857142857143
 40
0.7619047619047619
 40
0.7619047619047619
 40
0.7619047619047619
 40
0.7619047619047619
 40
0.8095238095238095
 40
0.8095238095238095
 40
0.8095238095238095
 40
0.8095238095238095
 40
0.8571428571428571
 40
0.8571428571428571
 40
0.8571428571428571
 40
0.8571428571428571
 40
0.9047619047619048
 40
0.9047619047619048
 40
0.9047619047619048
 40
0.9047619047619048
 40
1.0
 40
1.0
 40
1.0
 40
1.0
 10
-31.4568
 20
-23.3367
 30
0.0
 10
-31.4568
 20
-23.3367
 30
0.0
 10
-31.7356
 20
-23.1294
 30
0.0
 10
-31.7356
 20
-23.1294
 30
0.0
 10
-31.7356
 20
-23.1294
 30
0.0
 10
-31.7356
 20
-23.1294
 30
0.0
 10
-31.6325
 20
-22.9832
 30
0.0
 10
-31.6325
 20
-22.9832
 30
0.0
 10
-31.6325
 20
-22.9832
 30
0.0
 10
-31.6325
 20
-22.9832
 30
0.0
 10
-31.3391
 20
-23.2
 30
0.0
 10
-31.3391
 20
-23.2
 30
0.0
 10
-31.3391
 20
-23.2
 30
0.0
 10
-31.2291
 20
-23.1108
 30
0.0
 10
-31.1313
 20
-23.0487
 30
0.0
 10
-31.0462
 20
-23.0131
 30
0.0
 10
-31.0462
 20
-23.0131
 30
0.0
 10
-30.9341
 20
-22.9662
 30
0.0
 10
-30.8065
 20
-22.9363
 30
0.0
 10
-30.6641
 20
-22.9235
 30
0.0
 10
-30.6641
 20
-22.9235
 30
0.0
 10
-30.458
 20
-22.905
 30
0.0
 10
-30.2706
 20
-22.9301
 30
0.0
 10
-30.1025
 20
-22.9991
 30
0.0
 10
-30.1025
 20
-22.9991
 30
0.0
 10
-29.9337
 20
-23.068
 30
0.0
 10
-29.8015
 20
-23.1737
 30
0.0
 10
-29.7055
 20
-23.3167
 30
0.0
 10
-29.7055
 20
-23.3167
 30
0.0
 10
-29.61
 20
-23.4602
 30
0.0
 10
-29.5544
 20
-23.6161
 30
0.0
 10
-29.5392
 20
-23.7853
 30
0.0
 10
-29.5392
 20
-23.7853
 30
0.0
 10
-29.5278
 20
-23.9118
 30
0.0
 10
-29.5353
 20
-24.0277
 30
0.0
 10
-29.5617
 20
-24.1335
 30
0.0
 10
-29.5617
 20
-24.1335
 30
0.0
 10
-29.5822
 20
-24.2146
 30
0.0
 10
-29.6265
 20
-24.3112
 30
0.0
 10
-29.6948
 20
-24.4237
 30
0.0
 10
-29.6948
 20
-24.4237
 30
0.0
 10
-29.6948
 20
-24.4237
 30
0.0
 10
-29.4159
 20
-24.6309
 30
0.0
 10
-29.4159
 20
-24.6309
 30
0.0
 10
-29.4159
 20
-24.6309
 30
0.0
 10
-29.4159
 20
-24.6309
 30
0.0
 10
-29.5189
 20
-24.7771
 30
0.0
 10
-29.5189
 20
-24.7771
 30
0.0
 10
-29.5189
 20
-24.7771
 30
0.0
 10
-29.5189
 20
-24.7771
 30
0.0
 10
-29.8109
 20
-24.5597
 30
0.0
 10
-29.8109
 20
-24.5597
 30
0.0
 10
-29.8109
 20
-24.5597
 30
0.0
 10
-29.9392
 20
-24.6619
 30
0.0
 10
-30.0504
 20
-24.7324
 30
0.0
 10
-30.1443
 20
-24.771
 30
0.0
 10
-30.1443
 20
-24.771
 30
0.0
 10
-30.2381
 20
-24.8097
 30
0.0
 10
-30.3529
 20
-24.8356
 30
0.0
 10
-30.4883
 20
-24.8477
 30
0.0
 10
-30.4883
 20
-24.8477
 30
0.0
 10
-30.6948
 20
-24.8663
 30
0.0
 10
-30.8827
 20
-24.8416
 30
0.0
 10
-31.0518
 20
-24.7738
 30
0.0
 10
-31.0518
 20
-24.7738
 30
0.0
 10
-31.2208
 20
-24.7058
 30
0.0
 10
-31.3534
 20
-24.6016
 30
0.0
 10
-31.4501
 20
-24.4601
 30
0.0
 10
-31.4501
 20
-24.4601
 30
0.0
 10
-31.5465
 20
-24.3191
 30
0.0
 10
-31.6031
 20
-24.1574
 30
0.0
 10
-31.6194
 20
-23.9752
 30
0.0
 10
-31.6194
 20
-23.9752
 30
0.0
 10
-31.6305
 20
-23.8524
 30
0.0
 10
-31.6242
 20
-23.7437
 30
0.0
 10
-31.5996
 20
-23.6489
 30
0.0
 10
-31.5996
 20
-23.6489
 30
0.0
 10
-31.5756
 20
-23.5542
 30
0.0
 10
-31.5278
 20
-23.4498
 30
0.0
 10
-31.4568
 20
-23.3367
 30
0.0
  0
SPLINE
  5
52
330
1F
100
AcDbEntity
  8
AXIS
 62
   250
100
AcDbSpline
210
0.0
220
0.0
230
1.0
 70
    11
 71
     3
 72
    32
 73
    28
 74
     0
 42
0.0000000001
 43
0.0000000001
 40
0.0
 40
0.0
 40
0.0
 40
0.0
 40
0.125
 40
0.125
 40
0.125
 40
0.125
 40
0.25
 40
0.25
 40
0.25
 40
0.25
 40
0.375
 40
0.375
 40
0.375
 40
0.375
 40
0.5
 40
0.5
 40
0.5
 40
0.5
 40
0.625
 40
0.625
 40
0.625
 40
0.625
 40
0.75
 40
0.75
 40
0.75
 40
0.75
 40
1.0
 40
1.0
 40
1.0
 40
1.0
 10
-31.2569
 20
-23.4845
 30
0.0
 10
-31.3166
 20
-23.5768
 30
0.0
 10
-31.3562
 20
-23.6564
 30
0.0
 10
-31.3753
 20
-23.7227
 30
0.0
 10
-31.3753
 20
-23.7227
 30
0.0
 10
-31.3939
 20
-23.7896
 30
0.0
 10
-31.3997
 20
-23.8666
 30
0.0
 10
-31.3919
 20
-23.9533
 30
0.0
 10
-31.3919
 20
-23.9533
 30
0.0
 10
-31.3739
 20
-24.1538
 30
0.0
 10
-31.2911
 20
-24.3131
 30
0.0
 10
-31.1434
 20
-24.432
 30
0.0
 10
-31.1434
 20
-24.432
 30
0.0
 10
-30.9957
 20
-24.5506
 30
0.0
 10
-30.787
 20
-24.5979
 30
0.0
 10
-30.5167
 20
-24.5736
 30
0.0
 10
-30.5167
 20
-24.5736
 30
0.0
 10
-30.4109
 20
-24.564
 30
0.0
 10
-30.3176
 20
-24.5453
 30
0.0
 10
-30.2369
 20
-24.5177
 30
0.0
 10
-30.2369
 20
-24.5177
 30
0.0
 10
-30.1769
 20
-24.4976
 30
0.0
 10
-30.1042
 20
-24.4605
 30
0.0
 10
-30.019
 20
-24.4055
 30
0.0
 10
-30.019
 20
-24.4055
 30
0.0
 10
-30.019
 20
-24.4055
 30
0.0
 10
-31.2569
 20
-23.4845
 30
0.0
 10
-31.2569
 20
-23.4845
 30
0.0
  0
SPLINE
  5
53
330
1F
100
AcDbEntity
  8
AXIS
 62
   250
100
AcDbSpline
210
0.0
220
0.0
230
1.0
 70
    11
 71
     3
 72
    28
 73
    24
 74
     0
 42
0.0000000001
 43
0.0000000001
 40
0.0
 40
0.0
 40
0.0
 40
0.0
 40
0.1428571428571428
 40
0.1428571428571428
 40
0.1428571428571428
 40
0.1428571428571428
 40
0.2857142857142857
 40
0.2857142857142857
 40
0.2857142857142857
 40
0.2857142857142857
 40
0.4285714285714285
 40
0.4285714285714285
 40
0.4285714285714285
 40
0.4285714285714285
 40
0.5714285714285714
 40
0.5714285714285714
 40
0.5714285714285714
 40
0.5714285714285714
 40
0.7142857142857143
 40
0.7142857142857143
 40
0.7142857142857143
 40
0.7142857142857143
 40
1.0
 40
1.0
 40
1.0
 40
1.0
 10
-31.1255
 20
-23.3593
 30
0.0
 10
-31.1255
 20
-23.3593
 30
0.0
 10
-29.8921
 20
-24.2765
 30
0.0
 10
-29.8921
 20
-24.2765
 30
0.0
 10
-29.8921
 20
-24.2765
 30
0.0
 10
-29.8409
 20
-24.2011
 30
0.0
 10
-29.8064
 20
-24.1324
 30
0.0
 10
-29.7888
 20
-24.0708
 30
0.0
 10
-29.7888
 20
-24.0708
 30
0.0
 10
-29.7653
 20
-23.9903
 30
0.0
 10
-29.758
 20
-23.9046
 30
0.0
 10
-29.7661
 20
-23.8142
 30
0.0
 10
-29.7661
 20
-23.8142
 30
0.0
 10
-29.7841
 20
-23.6146
 30
0.0
 10
-29.8691
 20
-23.4565
 30
0.0
 10
-30.0218
 20
-23.339
 30
0.0
 10
-30.0218
 20
-23.339
 30
0.0
 10
-30.1745
 20
-23.2219
 30
0.0
 10
-30.3781
 20
-23.1745
 30
0.0
 10
-30.6324
 20
-23.1974
 30
0.0
 10
-30.6324
 20
-23.1974
 30
0.0
 10
-30.8226
 20
-23.2145
 30
0.0
 10
-30.9873
 20
-23.2685
 30
0.0
 10
-31.1255
 20
-23.3593
 30
0.0
  0
SPLINE
  5
54
330
1F
100
AcDbEntity
  8
AXIS
 62
   250
100
AcDbSpline
210
0.0
220
0.0
230
1.0
 70
    11
 71
     3
 72
    48
 73
    44
 74
     0
 42
0.0000000001
 43
0.0000000001
 40
0.0
 40
0.0
 40
0.0
 40
0.0
 40
0.0833333333333333
 40
0.0833333333333333
 40
0.0833333333333333
 40
0.0833333333333333
 40
0.1666666666666667
 40
0.1666666666666667
 40
0.1666666666666667
 40
0.1666666666666667
 40
0.25
 40
0.25
 40
0.25
 40
0.25
 40
0.3333333333333333
 40
0.3333333333333333
 40
0.3333333333333333
 40
0.3333333333333333
 40
0.4166666666666667
 40
0.4166666666666667
 40
0.4166666666666667
 40
0.4166666666666667
 40
0.5
 40
0.5
 40
0.5
 40
0.5
 40
0.5833333333333334
 40
0.5833333333333334
 40
0.5833333333333334
 40
0.5833333333333334
 40
0.6666666666666666
 40
0.6666666666666666
 40
0.6666666666666666
 40
0.6666666666666666
 40
0.75
 40
0.75
 40
0.75
 40
0.75
 40
0.8333333333333334
 40
0.8333333333333334
 40
0.8333333333333334
 40
0.8333333333333334
 40
1.0
 40
1.0
 40
1.0
 40
1.0
 10
-29.7527
 20
-21.7932
 30
0.0
 10
-29.7527
 20
-21.7932
 30
0.0
 10
-30.2343
 20
-21.8365
 30
0.0
 10
-30.2343
 20
-21.8365
 30
0.0
 10
-30.2343
 20
-21.8365
 30
0.0
 10
-30.2343
 20
-21.8365
 30
0.0
 10
-30.1558
 20
-22.7093
 30
0.0
 10
-30.1558
 20
-22.7093
 30
0.0
 10
-30.1558
 20
-22.7093
 30
0.0
 10
-30.1558
 20
-22.7093
 30
0.0
 10
-30.3826
 20
-22.7297
 30
0.0
 10
-30.3826
 20
-22.7297
 30
0.0
 10
-30.3826
 20
-22.7297
 30
0.0
 10
-30.3826
 20
-22.7297
 30
0.0
 10
-31.7689
 20
-21.9286
 30
0.0
 10
-31.7689
 20
-21.9286
 30
0.0
 10
-31.7689
 20
-21.9286
 30
0.0
 10
-31.7689
 20
-21.9286
 30
0.0
 10
-31.7871
 20
-21.7267
 30
0.0
 10
-31.7871
 20
-21.7267
 30
0.0
 10
-31.7871
 20
-21.7267
 30
0.0
 10
-31.7871
 20
-21.7267
 30
0.0
 10
-30.4833
 20
-21.6095
 30
0.0
 10
-30.4833
 20
-21.6095
 30
0.0
 10
-30.4833
 20
-21.6095
 30
0.0
 10
-30.4833
 20
-21.6095
 30
0.0
 10
-30.5078
 20
-21.3378
 30
0.0
 10
-30.5078
 20
-21.3378
 30
0.0
 10
-30.5078
 20
-21.3378
 30
0.0
 10
-30.5078
 20
-21.3378
 30
0.0
 10
-30.281
 20
-21.3174
 30
0.0
 10
-30.281
 20
-21.3174
 30
0.0
 10
-30.281
 20
-21.3174
 30
0.0
 10
-30.281
 20
-21.3174
 30
0.0
 10
-30.2565
 20
-21.5891
 30
0.0
 10
-30.2565
 20
-21.5891
 30
0.0
 10
-30.2565
 20
-21.5891
 30
0.0
 10
-30.2565
 20
-21.5891
 30
0.0
 10
-29.775
 20
-21.5458
 30
0.0
 10
-29.775
 20
-21.5458
 30
0.0
 10
-29.775
 20
-21.5458
 30
0.0
 10
-29.775
 20
-21.5458
 30
0.0
 10
-29.7527
 20
-21.7932
 30
0.0
 10
-29.7527
 20
-21.7932
 30
0.0
  0
SPLINE
  5
55
330
1F
100
AcDbEntity
  8
AXIS
 62
   250
100
AcDbSpline
210
0.0
220
0.0
230
1.0
 70
    11
 71
     3
 72
    16
 73
    12
 74
     0
 42
0.0000000001
 43
0.0000000001
 40
0.0
 40
0.0
 40
0.0
 40
0.0
 40
0.25
 40
0.25
 40
0.25
 40
0.25
 40
0.5
 40
0.5
 40
0.5
 40
0.5
 40
1.0
 40
1.0
 40
1.0
 40
1.0
 10
-30.4611
 20
-21.8569
 30
0.0
 10
-30.4611
 20
-21.8569
 30
0.0
 10
-31.368
 20
-21.9384
 30
0.0
 10
-31.368
 20
-21.9384
 30
0.0
 10
-31.368
 20
-21.9384
 30
0.0
 10
-31.368
 20
-21.9384
 30
0.0
 10
-30.4045
 20
-22.4864
 30
0.0
 10
-30.4045
 20
-22.4864
 30
0.0
 10
-30.4045
 20
-22.4864
 30
0.0
 10
-30.4045
 20
-22.4864
 30
0.0
 10
-30.4611
 20
-21.8569
 30
0.0
 10
-30.4611
 20
-21.8569
 30
0.0
  0
SPLINE
  5
56
330
1F
100
AcDbEntity
  8
AXIS
 62
   250
100
AcDbSpline
210
0.0
220
0.0
230
1.0
 70
    11
 71
     3
 72
    52
 73
    48
 74
     0
 42
0.0000000001
 43
0.0000000001
 40
0.0
 40
0.0
 40
0.0
 40
0.0
 40
0.0769230769230769
 40
0.0769230769230769
 40
0.0769230769230769
 40
0.0769230769230769
 40
0.1538461538461539
 40
0.1538461538461539
 40
0.1538461538461539
 40
0.1538461538461539
 40
0.2307692307692308
 40
0.2307692307692308
 40
0.2307692307692308
 40
0.2307692307692308
 40
0.3076923076923077
 40
0.3076923076923077
 40
0.3076923076923077
 40
0.3076923076923077
 40
0.3846153846153846
 40
0.3846153846153846
 40
0.3846153846153846
 40
0.3846153846153846
 40
0.4615384615384616
 40
0.4615384615384616
 40
0.4615384615384616
 40
0.4615384615384616
 40
0.5384615384615384
 40
0.5384615384615384
 40
0.5384615384615384
 40
0.5384615384615384
 40
0.6153846153846154
 40
0.6153846153846154
 40
0.6153846153846154
 40
0.6153846153846154
 40
0.6923076923076923
 40
0.6923076923076923
 40
0.6923076923076923
 40
0.6923076923076923
 40
0.7692307692307693
 40
0.7692307692307693
 40
0.7692307692307693
 40
0.7692307692307693
 40
0.8461538461538461
 40
0.8461538461538461
 40
0.8461538461538461
 40
0.8461538461538461
 40
1.0
 40
1.0
 40
1.0
 40
1.0
 10
-30.8143
 20
-21.1108
 30
0.0
 10
-31.0524
 20
-21.1322
 30
0.0
 10
-31.2462
 20
-21.125
 30
0.0
 10
-31.3953
 20
-21.0888
 30
0.0
 10
-31.3953
 20
-21.0888
 30
0.0
 10
-31.5449
 20
-21.0532
 30
0.0
 10
-31.6634
 20
-20.9902
 30
0.0
 10
-31.7509
 20
-20.9007
 30
0.0
 10
-31.7509
 20
-20.9007
 30
0.0
 10
-31.8382
 20
-20.8113
 30
0.0
 10
-31.8885
 20
-20.6935
 30
0.0
 10
-31.9016
 20
-20.5474
 30
0.0
 10
-31.9016
 20
-20.5474
 30
0.0
 10
-31.9114
 20
-20.4391
 30
0.0
 10
-31.8979
 20
-20.3425
 30
0.0
 10
-31.8616
 20
-20.2572
 30
0.0
 10
-31.8616
 20
-20.2572
 30
0.0
 10
-31.8259
 20
-20.1717
 30
0.0
 10
-31.7691
 20
-20.099
 30
0.0
 10
-31.6919
 20
-20.0383
 30
0.0
 10
-31.6919
 20
-20.0383
 30
0.0
 10
-31.6147
 20
-19.978
 30
0.0
 10
-31.5186
 20
-19.9273
 30
0.0
 10
-31.4038
 20
-19.8868
 30
0.0
 10
-31.4038
 20
-19.8868
 30
0.0
 10
-31.2889
 20
-19.8457
 30
0.0
 10
-31.1319
 20
-19.8165
 30
0.0
 10
-30.9323
 20
-19.7986
 30
0.0
 10
-30.9323
 20
-19.7986
 30
0.0
 10
-30.6962
 20
-19.7774
 30
0.0
 10
-30.5038
 20
-19.7846
 30
0.0
 10
-30.3543
 20
-19.8198
 30
0.0
 10
-30.3543
 20
-19.8198
 30
0.0
 10
-30.2047
 20
-19.8555
 30
0.0
 10
-30.0862
 20
-19.918
 30
0.0
 10
-29.9983
 20
-20.0074
 30
0.0
 10
-29.9983
 20
-20.0074
 30
0.0
 10
-29.9105
 20
-20.0968
 30
0.0
 10
-29.8602
 20
-20.2151
 30
0.0
 10
-29.8469
 20
-20.3627
 30
0.0
 10
-29.8469
 20
-20.3627
 30
0.0
 10
-29.8295
 20
-20.5566
 30
0.0
 10
-29.8851
 20
-20.7151
 30
0.0
 10
-30.0143
 20
-20.8382
 30
0.0
 10
-30.0143
 20
-20.8382
 30
0.0
 10
-30.1696
 20
-20.9858
 30
0.0
 10
-30.4367
 20
-21.0769
 30
0.0
 10
-30.8143
 20
-21.1108
 30
0.0
  0
SPLINE
  5
57
330
1F
100
AcDbEntity
  8
AXIS
 62
   250
100
AcDbSpline
210
0.0
220
0.0
230
1.0
 70
    11
 71
     3
 72
    36
 73
    32
 74
     0
 42
0.0000000001
 43
0.0000000001
 40
0.0
 40
0.0
 40
0.0
 40
0.0
 40
0.1111111111111111
 40
0.1111111111111111
 40
0.1111111111111111
 40
0.1111111111111111
 40
0.2222222222222222
 40
0.2222222222222222
 40
0.2222222222222222
 40
0.2222222222222222
 40
0.3333333333333333
 40
0.3333333333333333
 40
0.3333333333333333
 40
0.3333333333333333
 40
0.4444444444444444
 40
0.4444444444444444
 40
0.4444444444444444
 40
0.4444444444444444
 40
0.5555555555555556
 40
0.5555555555555556
 40
0.5555555555555556
 40
0.5555555555555556
 40
0.6666666666666666
 40
0.6666666666666666
 40
0.6666666666666666
 40
0.6666666666666666
 40
0.7777777777777778
 40
0.7777777777777778
 40
0.7777777777777778
 40
0.7777777777777778
 40
1.0
 40
1.0
 40
1.0
 40
1.0
 10
-30.8372
 20
-20.8568
 30
0.0
 10
-30.5069
 20
-20.8271
 30
0.0
 10
-30.2907
 20
-20.7685
 30
0.0
 10
-30.1881
 20
-20.6814
 30
0.0
 10
-30.1881
 20
-20.6814
 30
0.0
 10
-30.0858
 20
-20.5943
 30
0.0
 10
-30.0395
 20
-20.4942
 30
0.0
 10
-30.0497
 20
-20.3809
 30
0.0
 10
-30.0497
 20
-20.3809
 30
0.0
 10
-30.0599
 20
-20.2671
 30
0.0
 10
-30.1238
 20
-20.1769
 30
0.0
 10
-30.2404
 20
-20.1095
 30
0.0
 10
-30.2404
 20
-20.1095
 30
0.0
 10
-30.357
 20
-20.0421
 30
0.0
 10
-30.5802
 20
-20.0229
 30
0.0
 10
-30.9095
 20
-20.0525
 30
0.0
 10
-30.9095
 20
-20.0525
 30
0.0
 10
-31.2407
 20
-20.0823
 30
0.0
 10
-31.4574
 20
-20.141
 30
0.0
 10
-31.5592
 20
-20.2281
 30
0.0
 10
-31.5592
 20
-20.2281
 30
0.0
 10
-31.6614
 20
-20.3152
 30
0.0
 10
-31.707
 20
-20.4161
 30
0.0
 10
-31.6967
 20
-20.5313
 30
0.0
 10
-31.6967
 20
-20.5313
 30
0.0
 10
-31.6864
 20
-20.6451
 30
0.0
 10
-31.6301
 20
-20.7312
 30
0.0
 10
-31.528
 20
-20.7905
 30
0.0
 10
-31.528
 20
-20.7905
 30
0.0
 10
-31.398
 20
-20.8643
 30
0.0
 10
-31.1674
 20
-20.8865
 30
0.0
 10
-30.8372
 20
-20.8568
 30
0.0
  0
SPLINE
  5
58
330
1F
100
AcDbEntity
  8
AXIS
 62
   250
100
AcDbSpline
210
0.0
220
0.0
230
1.0
 70
    11
 71
     3
 72
    84
 73
    80
 74
     0
 42
0.0000000001
 43
0.0000000001
 40
0.0
 40
0.0
 40
0.0
 40
0.0
 40
0.0476190476190476
 40
0.0476190476190476
 40
0.0476190476190476
 40
0.0476190476190476
 40
0.0952380952380952
 40
0.0952380952380952
 40
0.0952380952380952
 40
0.0952380952380952
 40
0.1428571428571428
 40
0.1428571428571428
 40
0.1428571428571428
 40
0.1428571428571428
 40
0.1904761904761905
 40
0.1904761904761905
 40
0.1904761904761905
 40
0.1904761904761905
 40
0.2380952380952381
 40
0.2380952380952381
 40
0.2380952380952381
 40
0.2380952380952381
 40
0.2857142857142857
 40
0.2857142857142857
 40
0.2857142857142857
 40
0.2857142857142857
 40
0.3333333333333333
 40
0.3333333333333333
 40
0.3333333333333333
 40
0.3333333333333333
 40
0.3809523809523809
 40
0.3809523809523809
 40
0.3809523809523809
 40
0.3809523809523809
 40
0.4285714285714285
 40
0.4285714285714285
 40
0.4285714285714285
 40
0.4285714285714285
 40
0.4761904761904762
 40
0.4761904761904762
 40
0.4761904761904762
 40
0.4761904761904762
 40
0.5238095238095238
 40
0.5238095238095238
 40
0.5238095238095238
 40
0.5238095238095238
 40
0.5714285714285714
 40
0.5714285714285714
 40
0.5714285714285714
 40
0.5714285714285714
 40
0.6190476190476191
 40
0.6190476190476191
 40
0.6190476190476191
 40
0.6190476190476191
 40
0.6666666666666666
 40
0.6666666666666666
 40
0.6666666666666666
 40
0.6666666666666666
 40
0.7142857142857143
 40
0.7142857142857143
 40
0.7142857142857143
 40
0.7142857142857143
 40
0.7619047619047619
 40
0.7619047619047619
 40
0.7619047619047619
 40
0.7619047619047619
 40
0.8095238095238095
 40
0.8095238095238095
 40
0.8095238095238095
 40
0.8095238095238095
 40
0.8571428571428571
 40
0.8571428571428571
 40
0.8571428571428571
 40
0.8571428571428571
 40
0.9047619047619048
 40
0.9047619047619048
 40
0.9047619047619048
 40
0.9047619047619048
 40
1.0
 40
1.0
 40
1.0
 40
1.0
 10
-36.9142
 20
-23.3921
 30
0.0
 10
-36.9142
 20
-23.3921
 30
0.0
 10
-37.193
 20
-23.1848
 30
0.0
 10
-37.193
 20
-23.1848
 30
0.0
 10
-37.193
 20
-23.1848
 30
0.0
 10
-37.193
 20
-23.1848
 30
0.0
 10
-37.0899
 20
-23.0386
 30
0.0
 10
-37.0899
 20
-23.0386
 30
0.0
 10
-37.0899
 20
-23.0386
 30
0.0
 10
-37.0899
 20
-23.0386
 30
0.0
 10
-36.7965
 20
-23.2554
 30
0.0
 10
-36.7965
 20
-23.2554
 30
0.0
 10
-36.7965
 20
-23.2554
 30
0.0
 10
-36.6865
 20
-23.1662
 30
0.0
 10
-36.5887
 20
-23.1041
 30
0.0
 10
-36.5036
 20
-23.0685
 30
0.0
 10
-36.5036
 20
-23.0685
 30
0.0
 10
-36.3915
 20
-23.0216
 30
0.0
 10
-36.2639
 20
-22.9917
 30
0.0
 10
-36.1215
 20
-22.9789
 30
0.0
 10
-36.1215
 20
-22.9789
 30
0.0
 10
-35.9154
 20
-22.9604
 30
0.0
 10
-35.728
 20
-22.9855
 30
0.0
 10
-35.5599
 20
-23.0545
 30
0.0
 10
-35.5599
 20
-23.0545
 30
0.0
 10
-35.3911
 20
-23.1234
 30
0.0
 10
-35.2589
 20
-23.2291
 30
0.0
 10
-35.1629
 20
-23.3721
 30
0.0
 10
-35.1629
 20
-23.3721
 30
0.0
 10
-35.0674
 20
-23.5156
 30
0.0
 10
-35.0118
 20
-23.6715
 30
0.0
 10
-34.9966
 20
-23.8407
 30
0.0
 10
-34.9966
 20
-23.8407
 30
0.0
 10
-34.9852
 20
-23.9672
 30
0.0
 10
-34.9927
 20
-24.0831
 30
0.0
 10
-35.0191
 20
-24.1889
 30
0.0
 10
-35.0191
 20
-24.1889
 30
0.0
 10
-35.0396
 20
-24.27
 30
0.0
 10
-35.0839
 20
-24.3666
 30
0.0
 10
-35.1522
 20
-24.4791
 30
0.0
 10
-35.1522
 20
-24.4791
 30
0.0
 10
-35.1522
 20
-24.4791
 30
0.0
 10
-34.8733
 20
-24.6863
 30
0.0
 10
-34.8733
 20
-24.6863
 30
0.0
 10
-34.8733
 20
-24.6863
 30
0.0
 10
-34.8733
 20
-24.6863
 30
0.0
 10
-34.9763
 20
-24.8325
 30
0.0
 10
-34.9763
 20
-24.8325
 30
0.0
 10
-34.9763
 20
-24.8325
 30
0.0
 10
-34.9763
 20
-24.8325
 30
0.0
 10
-35.2683
 20
-24.6151
 30
0.0
 10
-35.2683
 20
-24.6151
 30
0.0
 10
-35.2683
 20
-24.6151
 30
0.0
 10
-35.3966
 20
-24.7173
 30
0.0
 10
-35.5078
 20
-24.7878
 30
0.0
 10
-35.6017
 20
-24.8264
 30
0.0
 10
-35.6017
 20
-24.8264
 30
0.0
 10
-35.6955
 20
-24.8651
 30
0.0
 10
-35.8103
 20
-24.891
 30
0.0
 10
-35.9457
 20
-24.9031
 30
0.0
 10
-35.9457
 20
-24.9031
 30
0.0
 10
-36.1522
 20
-24.9217
 30
0.0
 10
-36.3401
 20
-24.897
 30
0.0
 10
-36.5092
 20
-24.8292
 30
0.0
 10
-36.5092
 20
-24.8292
 30
0.0
 10
-36.6782
 20
-24.7612
 30
0.0
 10
-36.8108
 20
-24.657
 30
0.0
 10
-36.9075
 20
-24.5155
 30
0.0
 10
-36.9075
 20
-24.5155
 30
0.0
 10
-37.0039
 20
-24.3745
 30
0.0
 10
-37.0605
 20
-24.2128
 30
0.0
 10
-37.0768
 20
-24.0306
 30
0.0
 10
-37.0768
 20
-24.0306
 30
0.0
 10
-37.0879
 20
-23.9078
 30
0.0
 10
-37.0816
 20
-23.7991
 30
0.0
 10
-37.057
 20
-23.7043
 30
0.0
 10
-37.057
 20
-23.7043
 30
0.0
 10
-37.033
 20
-23.6096
 30
0.0
 10
-36.9852
 20
-23.5052
 30
0.0
 10
-36.9142
 20
-23.3921
 30
0.0
  0
SPLINE
  5
59
330
1F
100
AcDbEntity
  8
AXIS
 62
   250
100
AcDbSpline
210
0.0
220
0.0
230
1.0
 70
    11
 71
     3
 72
    32
 73
    28
 74
     0
 42
0.0000000001
 43
0.0000000001
 40
0.0
 40
0.0
 40
0.0
 40
0.0
 40
0.125
 40
0.125
 40
0.125
 40
0.125
 40
0.25
 40
0.25
 40
0.25
 40
0.25
 40
0.375
 40
0.375
 40
0.375
 40
0.375
 40
0.5
 40
0.5
 40
0.5
 40
0.5
 40
0.625
 40
0.625
 40
0.625
 40
0.625
 40
0.75
 40
0.75
 40
0.75
 40
0.75
 40
1.0
 40
1.0
 40
1.0
 40
1.0
 10
-36.7143
 20
-23.5399
 30
0.0
 10
-36.774
 20
-23.6322
 30
0.0
 10
-36.8136
 20
-23.7118
 30
0.0
 10
-36.8327
 20
-23.7781
 30
0.0
 10
-36.8327
 20
-23.7781
 30
0.0
 10
-36.8513
 20
-23.845
 30
0.0
 10
-36.8571
 20
-23.922
 30
0.0
 10
-36.8493
 20
-24.0087
 30
0.0
 10
-36.8493
 20
-24.0087
 30
0.0
 10
-36.8313
 20
-24.2092
 30
0.0
 10
-36.7485
 20
-24.3685
 30
0.0
 10
-36.6008
 20
-24.4874
 30
0.0
 10
-36.6008
 20
-24.4874
 30
0.0
 10
-36.4531
 20
-24.606
 30
0.0
 10
-36.2444
 20
-24.6533
 30
0.0
 10
-35.9741
 20
-24.629
 30
0.0
 10
-35.9741
 20
-24.629
 30
0.0
 10
-35.8683
 20
-24.6194
 30
0.0
 10
-35.775
 20
-24.6007
 30
0.0
 10
-35.6943
 20
-24.5731
 30
0.0
 10
-35.6943
 20
-24.5731
 30
0.0
 10
-35.6343
 20
-24.553
 30
0.0
 10
-35.5616
 20
-24.5159
 30
0.0
 10
-35.4764
 20
-24.4609
 30
0.0
 10
-35.4764
 20
-24.4609
 30
0.0
 10
-35.4764
 20
-24.4609
 30
0.0
 10
-36.7143
 20
-23.5399
 30
0.0
 10
-36.7143
 20
-23.5399
 30
0.0
  0
SPLINE
  5
5A
330
1F
100
AcDbEntity
  8
AXIS
 62
   250
100
AcDbSpline
210
0.0
220
0.0
230
1.0
 70
    11
 71
     3
 72
    28
 73
    24
 74
     0
 42
0.0000000001
 43
0.0000000001
 40
0.0
 40
0.0
 40
0.0
 40
0.0
 40
0.1428571428571428
 40
0.1428571428571428
 40
0.1428571428571428
 40
0.1428571428571428
 40
0.2857142857142857
 40
0.2857142857142857
 40
0.2857142857142857
 40
0.2857142857142857
 40
0.4285714285714285
 40
0.4285714285714285
 40
0.4285714285714285
 40
0.4285714285714285
 40
0.5714285714285714
 40
0.5714285714285714
 40
0.5714285714285714
 40
0.5714285714285714
 40
0.7142857142857143
 40
0.7142857142857143
 40
0.7142857142857143
 40
0.7142857142857143
 40
1.0
 40
1.0
 40
1.0
 40
1.0
 10
-36.5829
 20
-23.4147
 30
0.0
 10
-36.5829
 20
-23.4147
 30
0.0
 10
-35.3495
 20
-24.3319
 30
0.0
 10
-35.3495
 20
-24.3319
 30
0.0
 10
-35.3495
 20
-24.3319
 30
0.0
 10
-35.2983
 20
-24.2565
 30
0.0
 10
-35.2638
 20
-24.1878
 30
0.0
 10
-35.2462
 20
-24.1262
 30
0.0
 10
-35.2462
 20
-24.1262
 30
0.0
 10
-35.2227
 20
-24.0457
 30
0.0
 10
-35.2154
 20
-23.96
 30
0.0
 10
-35.2235
 20
-23.8696
 30
0.0
 10
-35.2235
 20
-23.8696
 30
0.0
 10
-35.2415
 20
-23.67
 30
0.0
 10
-35.3265
 20
-23.5119
 30
0.0
 10
-35.4792
 20
-23.3944
 30
0.0
 10
-35.4792
 20
-23.3944
 30
0.0
 10
-35.6319
 20
-23.2773
 30
0.0
 10
-35.8355
 20
-23.2299
 30
0.0
 10
-36.0898
 20
-23.2528
 30
0.0
 10
-36.0898
 20
-23.2528
 30
0.0
 10
-36.28
 20
-23.2699
 30
0.0
 10
-36.4447
 20
-23.3239
 30
0.0
 10
-36.5829
 20
-23.4147
 30
0.0
  0
SPLINE
  5
5B
330
1F
100
AcDbEntity
  8
AXIS
 62
   250
100
AcDbSpline
210
0.0
220
0.0
230
1.0
 70
    11
 71
     3
 72
    92
 73
    88
 74
     0
 42
0.0000000001
 43
0.0000000001
 40
0.0
 40
0.0
 40
0.0
 40
0.0
 40
0.0434782608695652
 40
0.0434782608695652
 40
0.0434782608695652
 40
0.0434782608695652
 40
0.0869565217391304
 40
0.0869565217391304
 40
0.0869565217391304
 40
0.0869565217391304
 40
0.1304347826086956
 40
0.1304347826086956
 40
0.1304347826086956
 40
0.1304347826086956
 40
0.1739130434782609
 40
0.1739130434782609
 40
0.1739130434782609
 40
0.1739130434782609
 40
0.2173913043478261
 40
0.2173913043478261
 40
0.2173913043478261
 40
0.2173913043478261
 40
0.2608695652173913
 40
0.2608695652173913
 40
0.2608695652173913
 40
0.2608695652173913
 40
0.3043478260869565
 40
0.3043478260869565
 40
0.3043478260869565
 40
0.3043478260869565
 40
0.3478260869565217
 40
0.3478260869565217
 40
0.3478260869565217
 40
0.3478260869565217
 40
0.391304347826087
 40
0.391304347826087
 40
0.391304347826087
 40
0.391304347826087
 40
0.4347826086956522
 40
0.4347826086956522
 40
0.4347826086956522
 40
0.4347826086956522
 40
0.4782608695652174
 40
0.4782608695652174
 40
0.4782608695652174
 40
0.4782608695652174
 40
0.5217391304347826
 40
0.5217391304347826
 40
0.5217391304347826
 40
0.5217391304347826
 40
0.5652173913043478
 40
0.5652173913043478
 40
0.5652173913043478
 40
0.5652173913043478
 40
0.6086956521739131
 40
0.6086956521739131
 40
0.6086956521739131
 40
0.6086956521739131
 40
0.6521739130434783
 40
0.6521739130434783
 40
0.6521739130434783
 40
0.6521739130434783
 40
0.6956521739130435
 40
0.6956521739130435
 40
0.6956521739130435
 40
0.6956521739130435
 40
0.7391304347826086
 40
0.7391304347826086
 40
0.7391304347826086
 40
0.7391304347826086
 40
0.782608695652174
 40
0.782608695652174
 40
0.782608695652174
 40
0.782608695652174
 40
0.8260869565217391
 40
0.8260869565217391
 40
0.8260869565217391
 40
0.8260869565217391
 40
0.8695652173913043
 40
0.8695652173913043
 40
0.8695652173913043
 40
0.8695652173913043
 40
0.9130434782608695
 40
0.9130434782608695
 40
0.9130434782608695
 40
0.9130434782608695
 40
1.0
 40
1.0
 40
1.0
 40
1.0
 10
-35.666
 20
-22.6877
 30
0.0
 10
-35.666
 20
-22.6877
 30
0.0
 10
-35.7114
 20
-22.4301
 30
0.0
 10
-35.7114
 20
-22.4301
 30
0.0
 10
-35.7114
 20
-22.4301
 30
0.0
 10
-35.5866
 20
-22.3995
 30
0.0
 10
-35.496
 20
-22.3465
 30
0.0
 10
-35.4385
 20
-22.2709
 30
0.0
 10
-35.4385
 20
-22.2709
 30
0.0
 10
-35.3811
 20
-22.195
 30
0.0
 10
-35.3568
 20
-22.1078
 30
0.0
 10
-35.3657
 20
-22.009
 30
0.0
 10
-35.3657
 20
-22.009
 30
0.0
 10
-35.3764
 20
-21.8899
 30
0.0
 10
-35.4305
 20
-21.7933
 30
0.0
 10
-35.5273
 20
-21.7194
 30
0.0
 10
-35.5273
 20
-21.7194
 30
0.0
 10
-35.6246
 20
-21.645
 30
0.0
 10
-35.7474
 20
-21.6145
 30
0.0
 10
-35.8954
 20
-21.6278
 30
0.0
 10
-35.8954
 20
-21.6278
 30
0.0
 10
-36.0364
 20
-21.6404
 30
0.0
 10
-36.1439
 20
-21.6898
 30
0.0
 10
-36.2183
 20
-21.7763
 30
0.0
 10
-36.2183
 20
-21.7763
 30
0.0
 10
-36.2927
 20
-21.8628
 30
0.0
 10
-36.3242
 20
-21.9699
 30
0.0
 10
-36.3126
 20
-22.0983
 30
0.0
 10
-36.3126
 20
-22.0983
 30
0.0
 10
-36.3054
 20
-22.178
 30
0.0
 10
-36.2808
 20
-22.248
 30
0.0
 10
-36.239
 20
-22.309
 30
0.0
 10
-36.239
 20
-22.309
 30
0.0
 10
-36.197
 20
-22.3699
 30
0.0
 10
-36.1457
 20
-22.4157
 30
0.0
 10
-36.0848
 20
-22.4471
 30
0.0
 10
-36.0848
 20
-22.4471
 30
0.0
 10
-36.0848
 20
-22.4471
 30
0.0
 10
-36.0939
 20
-22.6818
 30
0.0
 10
-36.0939
 20
-22.6818
 30
0.0
 10
-36.0939
 20
-22.6818
 30
0.0
 10
-36.0939
 20
-22.6818
 30
0.0
 10
-37.1449
 20
-22.5798
 30
0.0
 10
-37.1449
 20
-22.5798
 30
0.0
 10
-37.1449
 20
-22.5798
 30
0.0
 10
-37.1449
 20
-22.5798
 30
0.0
 10
-37.2349
 20
-21.5791
 30
0.0
 10
-37.2349
 20
-21.5791
 30
0.0
 10
-37.2349
 20
-21.5791
 30
0.0
 10
-37.2349
 20
-21.5791
 30
0.0
 10
-36.9988
 20
-21.5579
 30
0.0
 10
-36.9988
 20
-21.5579
 30
0.0
 10
-36.9988
 20
-21.5579
 30
0.0
 10
-36.9988
 20
-21.5579
 30
0.0
 10
-36.9266
 20
-22.3608
 30
0.0
 10
-36.9266
 20
-22.3608
 30
0.0
 10
-36.9266
 20
-22.3608
 30
0.0
 10
-36.9266
 20
-22.3608
 30
0.0
 10
-36.3762
 20
-22.4209
 30
0.0
 10
-36.3762
 20
-22.4209
 30
0.0
 10
-36.3762
 20
-22.4209
 30
0.0
 10
-36.4714
 20
-22.3077
 30
0.0
 10
-36.5249
 20
-22.1845
 30
0.0
 10
-36.5369
 20
-22.0519
 30
0.0
 10
-36.5369
 20
-22.0519
 30
0.0
 10
-36.5527
 20
-21.8762
 30
0.0
 10
-36.5051
 20
-21.7227
 30
0.0
 10
-36.3942
 20
-21.5909
 30
0.0
 10
-36.3942
 20
-21.5909
 30
0.0
 10
-36.2832
 20
-21.4591
 30
0.0
 10
-36.1322
 20
-21.3846
 30
0.0
 10
-35.9411
 20
-21.3674
 30
0.0
 10
-35.9411
 20
-21.3674
 30
0.0
 10
-35.7588
 20
-21.351
 30
0.0
 10
-35.5965
 20
-21.3902
 30
0.0
 10
-35.4545
 20
-21.4842
 30
0.0
 10
-35.4545
 20
-21.4842
 30
0.0
 10
-35.2803
 20
-21.5989
 30
0.0
 10
-35.183
 20
-21.7677
 30
0.0
 10
-35.1629
 20
-21.9907
 30
0.0
 10
-35.1629
 20
-21.9907
 30
0.0
 10
-35.1465
 20
-22.1739
 30
0.0
 10
-35.184
 20
-22.3279
 30
0.0
 10
-35.2762
 20
-22.4528
 30
0.0
 10
-35.2762
 20
-22.4528
 30
0.0
 10
-35.3685
 20
-22.5778
 30
0.0
 10
-35.4984
 20
-22.656
 30
0.0
 10
-35.666
 20
-22.6877
 30
0.0
  0
SPLINE
  5
5C
330
1F
100
AcDbEntity
  8
AXIS
 62
   250
100
AcDbSpline
210
0.0
220
0.0
230
1.0
 70
    11
 71
     3
 72
    52
 73
    48
 74
     0
 42
0.0000000001
 43
0.0000000001
 40
0.0
 40
0.0
 40
0.0
 40
0.0
 40
0.0769230769230769
 40
0.0769230769230769
 40
0.0769230769230769
 40
0.0769230769230769
 40
0.1538461538461539
 40
0.1538461538461539
 40
0.1538461538461539
 40
0.1538461538461539
 40
0.2307692307692308
 40
0.2307692307692308
 40
0.2307692307692308
 40
0.2307692307692308
 40
0.3076923076923077
 40
0.3076923076923077
 40
0.3076923076923077
 40
0.3076923076923077
 40
0.3846153846153846
 40
0.3846153846153846
 40
0.3846153846153846
 40
0.3846153846153846
 40
0.4615384615384616
 40
0.4615384615384616
 40
0.4615384615384616
 40
0.4615384615384616
 40
0.5384615384615384
 40
0.5384615384615384
 40
0.5384615384615384
 40
0.5384615384615384
 40
0.6153846153846154
 40
0.6153846153846154
 40
0.6153846153846154
 40
0.6153846153846154
 40
0.6923076923076923
 40
0.6923076923076923
 40
0.6923076923076923
 40
0.6923076923076923
 40
0.7692307692307693
 40
0.7692307692307693
 40
0.7692307692307693
 40
0.7692307692307693
 40
0.8461538461538461
 40
0.8461538461538461
 40
0.8461538461538461
 40
0.8461538461538461
 40
1.0
 40
1.0
 40
1.0
 40
1.0
 10
-36.2717
 20
-21.1662
 30
0.0
 10
-36.5098
 20
-21.1876
 30
0.0
 10
-36.7036
 20
-21.1804
 30
0.0
 10
-36.8527
 20
-21.1442
 30
0.0
 10
-36.8527
 20
-21.1442
 30
0.0
 10
-37.0023
 20
-21.1086
 30
0.0
 10
-37.1208
 20
-21.0456
 30
0.0
 10
-37.2083
 20
-20.9561
 30
0.0
 10
-37.2083
 20
-20.9561
 30
0.0
 10
-37.2956
 20
-20.8667
 30
0.0
 10
-37.3459
 20
-20.7489
 30
0.0
 10
-37.359
 20
-20.6028
 30
0.0
 10
-37.359
 20
-20.6028
 30
0.0
 10
-37.3688
 20
-20.4945
 30
0.0
 10
-37.3553
 20
-20.3979
 30
0.0
 10
-37.319
 20
-20.3126
 30
0.0
 10
-37.319
 20
-20.3126
 30
0.0
 10
-37.2833
 20
-20.2271
 30
0.0
 10
-37.2265
 20
-20.1544
 30
0.0
 10
-37.1493
 20
-20.0937
 30
0.0
 10
-37.1493
 20
-20.0937
 30
0.0
 10
-37.0721
 20
-20.0334
 30
0.0
 10
-36.976
 20
-19.9827
 30
0.0
 10
-36.8612
 20
-19.9422
 30
0.0
 10
-36.8612
 20
-19.9422
 30
0.0
 10
-36.7463
 20
-19.9011
 30
0.0
 10
-36.5893
 20
-19.8719
 30
0.0
 10
-36.3897
 20
-19.854
 30
0.0
 10
-36.3897
 20
-19.854
 30
0.0
 10
-36.1536
 20
-19.8328
 30
0.0
 10
-35.9612
 20
-19.84
 30
0.0
 10
-35.8117
 20
-19.8752
 30
0.0
 10
-35.8117
 20
-19.8752
 30
0.0
 10
-35.6621
 20
-19.9109
 30
0.0
 10
-35.5436
 20
-19.9734
 30
0.0
 10
-35.4557
 20
-20.0628
 30
0.0
 10
-35.4557
 20
-20.0628
 30
0.0
 10
-35.3679
 20
-20.1522
 30
0.0
 10
-35.3176
 20
-20.2705
 30
0.0
 10
-35.3043
 20
-20.4181
 30
0.0
 10
-35.3043
 20
-20.4181
 30
0.0
 10
-35.2869
 20
-20.612
 30
0.0
 10
-35.3425
 20
-20.7705
 30
0.0
 10
-35.4717
 20
-20.8936
 30
0.0
 10
-35.4717
 20
-20.8936
 30
0.0
 10
-35.627
 20
-21.0412
 30
0.0
 10
-35.8941
 20
-21.1323
 30
0.0
 10
-36.2717
 20
-21.1662
 30
0.0
  0
SPLINE
  5
5D
330
1F
100
AcDbEntity
  8
AXIS
 62
   250
100
AcDbSpline
210
0.0
220
0.0
230
1.0
 70
    11
 71
     3
 72
    36
 73
    32
 74
     0
 42
0.0000000001
 43
0.0000000001
 40
0.0
 40
0.0
 40
0.0
 40
0.0
 40
0.1111111111111111
 40
0.1111111111111111
 40
0.1111111111111111
 40
0.1111111111111111
 40
0.2222222222222222
 40
0.2222222222222222
 40
0.2222222222222222
 40
0.2222222222222222
 40
0.3333333333333333
 40
0.3333333333333333
 40
0.3333333333333333
 40
0.3333333333333333
 40
0.4444444444444444
 40
0.4444444444444444
 40
0.4444444444444444
 40
0.4444444444444444
 40
0.5555555555555556
 40
0.5555555555555556
 40
0.5555555555555556
 40
0.5555555555555556
 40
0.6666666666666666
 40
0.6666666666666666
 40
0.6666666666666666
 40
0.6666666666666666
 40
0.7777777777777778
 40
0.7777777777777778
 40
0.7777777777777778
 40
0.7777777777777778
 40
1.0
 40
1.0
 40
1.0
 40
1.0
 10
-36.2946
 20
-20.9122
 30
0.0
 10
-35.9643
 20
-20.8825
 30
0.0
 10
-35.7481
 20
-20.8239
 30
0.0
 10
-35.6455
 20
-20.7368
 30
0.0
 10
-35.6455
 20
-20.7368
 30
0.0
 10
-35.5432
 20
-20.6497
 30
0.0
 10
-35.4969
 20
-20.5496
 30
0.0
 10
-35.5071
 20
-20.4363
 30
0.0
 10
-35.5071
 20
-20.4363
 30
0.0
 10
-35.5173
 20
-20.3225
 30
0.0
 10
-35.5812
 20
-20.2323
 30
0.0
 10
-35.6978
 20
-20.1649
 30
0.0
 10
-35.6978
 20
-20.1649
 30
0.0
 10
-35.8144
 20
-20.0975
 30
0.0
 10
-36.0376
 20
-20.0783
 30
0.0
 10
-36.3669
 20
-20.1079
 30
0.0
 10
-36.3669
 20
-20.1079
 30
0.0
 10
-36.6981
 20
-20.1377
 30
0.0
 10
-36.9148
 20
-20.1964
 30
0.0
 10
-37.0166
 20
-20.2835
 30
0.0
 10
-37.0166
 20
-20.2835
 30
0.0
 10
-37.1188
 20
-20.3706
 30
0.0
 10
-37.1644
 20
-20.4715
 30
0.0
 10
-37.1541
 20
-20.5867
 30
0.0
 10
-37.1541
 20
-20.5867
 30
0.0
 10
-37.1438
 20
-20.7005
 30
0.0
 10
-37.0875
 20
-20.7866
 30
0.0
 10
-36.9854
 20
-20.8459
 30
0.0
 10
-36.9854
 20
-20.8459
 30
0.0
 10
-36.8554
 20
-20.9197
 30
0.0
 10
-36.6248
 20
-20.9419
 30
0.0
 10
-36.2946
 20
-20.9122
 30
0.0
  0
SPLINE
  5
5E
330
1F
100
AcDbEntity
  8
AXIS
 62
   250
100
AcDbSpline
210
0.0
220
0.0
230
1.0
 70
    11
 71
     3
 72
    84
 73
    80
 74
     0
 42
0.0000000001
 43
0.0000000001
 40
0.0
 40
0.0
 40
0.0
 40
0.0
 40
0.0476190476190476
 40
0.0476190476190476
 40
0.0476190476190476
 40
0.0476190476190476
 40
0.0952380952380952
 40
0.0952380952380952
 40
0.0952380952380952
 40
0.0952380952380952
 40
0.1428571428571428
 40
0.1428571428571428
 40
0.1428571428571428
 40
0.1428571428571428
 40
0.1904761904761905
 40
0.1904761904761905
 40
0.1904761904761905
 40
0.1904761904761905
 40
0.2380952380952381
 40
0.2380952380952381
 40
0.2380952380952381
 40
0.2380952380952381
 40
0.2857142857142857
 40
0.2857142857142857
 40
0.2857142857142857
 40
0.2857142857142857
 40
0.3333333333333333
 40
0.3333333333333333
 40
0.3333333333333333
 40
0.3333333333333333
 40
0.3809523809523809
 40
0.3809523809523809
 40
0.3809523809523809
 40
0.3809523809523809
 40
0.4285714285714285
 40
0.4285714285714285
 40
0.4285714285714285
 40
0.4285714285714285
 40
0.4761904761904762
 40
0.4761904761904762
 40
0.4761904761904762
 40
0.4761904761904762
 40
0.5238095238095238
 40
0.5238095238095238
 40
0.5238095238095238
 40
0.5238095238095238
 40
0.5714285714285714
 40
0.5714285714285714
 40
0.5714285714285714
 40
0.5714285714285714
 40
0.6190476190476191
 40
0.6190476190476191
 40
0.6190476190476191
 40
0.6190476190476191
 40
0.6666666666666666
 40
0.6666666666666666
 40
0.6666666666666666
 40
0.6666666666666666
 40
0.7142857142857143
 40
0.7142857142857143
 40
0.7142857142857143
 40
0.7142857142857143
 40
0.7619047619047619
 40
0.7619047619047619
 40
0.7619047619047619
 40
0.7619047619047619
 40
0.8095238095238095
 40
0.8095238095238095
 40
0.8095238095238095
 40
0.8095238095238095
 40
0.8571428571428571
 40
0.8571428571428571
 40
0.8571428571428571
 40
0.8571428571428571
 40
0.9047619047619048
 40
0.9047619047619048
 40
0.9047619047619048
 40
0.9047619047619048
 40
1.0
 40
1.0
 40
1.0
 40
1.0
 10
-4.0957
 20
-0.3992
 30
0.0
 10
-4.0957
 20
-0.3992
 30
0.0
 10
-3.8643
 20
-0.1401
 30
0.0
 10
-3.8643
 20
-0.1401
 30
0.0
 10
-3.8643
 20
-0.1401
 30
0.0
 10
-3.8643
 20
-0.1401
 30
0.0
 10
-3.7279
 20
-0.2558
 30
0.0
 10
-3.7279
 20
-0.2558
 30
0.0
 10
-3.7279
 20
-0.2558
 30
0.0
 10
-3.7279
 20
-0.2558
 30
0.0
 10
-3.9701
 20
-0.5286
 30
0.0
 10
-3.9701
 20
-0.5286
 30
0.0
 10
-3.9701
 20
-0.5286
 30
0.0
 10
-3.8911
 20
-0.6462
 30
0.0
 10
-3.838
 20
-0.7492
 30
0.0
 10
-3.8102
 20
-0.8371
 30
0.0
 10
-3.8102
 20
-0.8371
 30
0.0
 10
-3.7735
 20
-0.9529
 30
0.0
 10
-3.7552
 20
-1.0827
 30
0.0
 10
-3.7552
 20
-1.2257
 30
0.0
 10
-3.7552
 20
-1.2257
 30
0.0
 10
-3.7552
 20
-1.4326
 30
0.0
 10
-3.797
 20
-1.617
 30
0.0
 10
-3.8808
 20
-1.7783
 30
0.0
 10
-3.8808
 20
-1.7783
 30
0.0
 10
-3.9645
 20
-1.9402
 30
0.0
 10
-4.0816
 20
-2.0624
 30
0.0
 10
-4.2326
 20
-2.1452
 30
0.0
 10
-4.2326
 20
-2.1452
 30
0.0
 10
-4.3841
 20
-2.2275
 30
0.0
 10
-4.5444
 20
-2.2689
 30
0.0
 10
-4.7142
 20
-2.2689
 30
0.0
 10
-4.7142
 20
-2.2689
 30
0.0
 10
-4.8412
 20
-2.2689
 30
0.0
 10
-4.956
 20
-2.2511
 30
0.0
 10
-5.059
 20
-2.2153
 30
0.0
 10
-5.059
 20
-2.2153
 30
0.0
 10
-5.138
 20
-2.1876
 30
0.0
 10
-5.2302
 20
-2.1349
 30
0.0
 10
-5.3361
 20
-2.0568
 30
0.0
 10
-5.3361
 20
-2.0568
 30
0.0
 10
-5.3361
 20
-2.0568
 30
0.0
 10
-5.5675
 20
-2.316
 30
0.0
 10
-5.5675
 20
-2.316
 30
0.0
 10
-5.5675
 20
-2.316
 30
0.0
 10
-5.5675
 20
-2.316
 30
0.0
 10
-5.7039
 20
-2.2003
 30
0.0
 10
-5.7039
 20
-2.2003
 30
0.0
 10
-5.7039
 20
-2.2003
 30
0.0
 10
-5.7039
 20
-2.2003
 30
0.0
 10
-5.4612
 20
-1.9289
 30
0.0
 10
-5.4612
 20
-1.9289
 30
0.0
 10
-5.4612
 20
-1.9289
 30
0.0
 10
-5.5515
 20
-1.792
 30
0.0
 10
-5.6117
 20
-1.6749
 30
0.0
 10
-5.6418
 20
-1.578
 30
0.0
 10
-5.6418
 20
-1.578
 30
0.0
 10
-5.6719
 20
-1.4811
 30
0.0
 10
-5.6874
 20
-1.3644
 30
0.0
 10
-5.6874
 20
-1.2285
 30
0.0
 10
-5.6874
 20
-1.2285
 30
0.0
 10
-5.6874
 20
-1.0211
 30
0.0
 10
-5.646
 20
-0.8362
 30
0.0
 10
-5.5633
 20
-0.6739
 30
0.0
 10
-5.5633
 20
-0.6739
 30
0.0
 10
-5.4805
 20
-0.5116
 30
0.0
 10
-5.3648
 20
-0.3889
 30
0.0
 10
-5.2152
 20
-0.3052
 30
0.0
 10
-5.2152
 20
-0.3052
 30
0.0
 10
-5.0661
 20
-0.2219
 30
0.0
 10
-4.9
 20
-0.18
 30
0.0
 10
-4.7171
 20
-0.18
 30
0.0
 10
-4.7171
 20
-0.18
 30
0.0
 10
-4.5938
 20
-0.18
 30
0.0
 10
-4.4861
 20
-0.196
 30
0.0
 10
-4.3939
 20
-0.229
 30
0.0
 10
-4.3939
 20
-0.229
 30
0.0
 10
-4.3017
 20
-0.2614
 30
0.0
 10
-4.202
 20
-0.3183
 30
0.0
 10
-4.0957
 20
-0.3992
 30
0.0
  0
SPLINE
  5
5F
330
1F
100
AcDbEntity
  8
AXIS
 62
   250
100
AcDbSpline
210
0.0
220
0.0
230
1.0
 70
    11
 71
     3
 72
    32
 73
    28
 74
     0
 42
0.0000000001
 43
0.0000000001
 40
0.0
 40
0.0
 40
0.0
 40
0.0
 40
0.125
 40
0.125
 40
0.125
 40
0.125
 40
0.25
 40
0.25
 40
0.25
 40
0.25
 40
0.375
 40
0.375
 40
0.375
 40
0.375
 40
0.5
 40
0.5
 40
0.5
 40
0.5
 40
0.625
 40
0.625
 40
0.625
 40
0.625
 40
0.75
 40
0.75
 40
0.75
 40
0.75
 40
1.0
 40
1.0
 40
1.0
 40
1.0
 10
-4.2608
 20
-0.585
 30
0.0
 10
-4.3474
 20
-0.5173
 30
0.0
 10
-4.4231
 20
-0.4707
 30
0.0
 10
-4.4875
 20
-0.4458
 30
0.0
 10
-4.4875
 20
-0.4458
 30
0.0
 10
-4.5524
 20
-0.4213
 30
0.0
 10
-4.6286
 20
-0.4086
 30
0.0
 10
-4.7157
 20
-0.4086
 30
0.0
 10
-4.7157
 20
-0.4086
 30
0.0
 10
-4.917
 20
-0.4086
 30
0.0
 10
-5.083
 20
-0.4768
 30
0.0
 10
-5.2147
 20
-0.6132
 30
0.0
 10
-5.2147
 20
-0.6132
 30
0.0
 10
-5.346
 20
-0.7497
 30
0.0
 10
-5.4118
 20
-0.9533
 30
0.0
 10
-5.4118
 20
-1.2247
 30
0.0
 10
-5.4118
 20
-1.2247
 30
0.0
 10
-5.4118
 20
-1.331
 30
0.0
 10
-5.4015
 20
-1.4256
 30
0.0
 10
-5.3812
 20
-1.5084
 30
0.0
 10
-5.3812
 20
-1.5084
 30
0.0
 10
-5.3666
 20
-1.57
 30
0.0
 10
-5.3361
 20
-1.6457
 30
0.0
 10
-5.289
 20
-1.7355
 30
0.0
 10
-5.289
 20
-1.7355
 30
0.0
 10
-5.289
 20
-1.7355
 30
0.0
 10
-4.2608
 20
-0.585
 30
0.0
 10
-4.2608
 20
-0.585
 30
0.0
  0
SPLINE
  5
60
330
1F
100
AcDbEntity
  8
AXIS
 62
   250
100
AcDbSpline
210
0.0
220
0.0
230
1.0
 70
    11
 71
     3
 72
    28
 73
    24
 74
     0
 42
0.0000000001
 43
0.0000000001
 40
0.0
 40
0.0
 40
0.0
 40
0.0
 40
0.1428571428571428
 40
0.1428571428571428
 40
0.1428571428571428
 40
0.1428571428571428
 40
0.2857142857142857
 40
0.2857142857142857
 40
0.2857142857142857
 40
0.2857142857142857
 40
0.4285714285714285
 40
0.4285714285714285
 40
0.4285714285714285
 40
0.4285714285714285
 40
0.5714285714285714
 40
0.5714285714285714
 40
0.5714285714285714
 40
0.5714285714285714
 40
0.7142857142857143
 40
0.7142857142857143
 40
0.7142857142857143
 40
0.7142857142857143
 40
1.0
 40
1.0
 40
1.0
 40
1.0
 10
-4.1479
 20
-0.7271
 30
0.0
 10
-4.1479
 20
-0.7271
 30
0.0
 10
-5.1719
 20
-1.8734
 30
0.0
 10
-5.1719
 20
-1.8734
 30
0.0
 10
-5.1719
 20
-1.8734
 30
0.0
 10
-5.1014
 20
-1.9312
 30
0.0
 10
-5.036
 20
-1.9717
 30
0.0
 10
-4.9762
 20
-1.9947
 30
0.0
 10
-4.9762
 20
-1.9947
 30
0.0
 10
-4.8982
 20
-2.0253
 30
0.0
 10
-4.8135
 20
-2.0403
 30
0.0
 10
-4.7227
 20
-2.0403
 30
0.0
 10
-4.7227
 20
-2.0403
 30
0.0
 10
-4.5223
 20
-2.0403
 30
0.0
 10
-4.3572
 20
-1.9698
 30
0.0
 10
-4.2265
 20
-1.8282
 30
0.0
 10
-4.2265
 20
-1.8282
 30
0.0
 10
-4.0962
 20
-1.6866
 30
0.0
 10
-4.0308
 20
-1.4881
 30
0.0
 10
-4.0308
 20
-1.2327
 30
0.0
 10
-4.0308
 20
-1.2327
 30
0.0
 10
-4.0308
 20
-1.0418
 30
0.0
 10
-4.0698
 20
-0.8729
 30
0.0
 10
-4.1479
 20
-0.7271
 30
0.0
  0
SPLINE
  5
61
330
1F
100
AcDbEntity
  8
AXIS
 62
   250
100
AcDbSpline
210
0.0
220
0.0
230
1.0
 70
    11
 71
     3
 72
    48
 73
    44
 74
     0
 42
0.0000000001
 43
0.0000000001
 40
0.0
 40
0.0
 40
0.0
 40
0.0
 40
0.0833333333333333
 40
0.0833333333333333
 40
0.0833333333333333
 40
0.0833333333333333
 40
0.1666666666666667
 40
0.1666666666666667
 40
0.1666666666666667
 40
0.1666666666666667
 40
0.25
 40
0.25
 40
0.25
 40
0.25
 40
0.3333333333333333
 40
0.3333333333333333
 40
0.3333333333333333
 40
0.3333333333333333
 40
0.4166666666666667
 40
0.4166666666666667
 40
0.4166666666666667
 40
0.4166666666666667
 40
0.5
 40
0.5
 40
0.5
 40
0.5
 40
0.5833333333333334
 40
0.5833333333333334
 40
0.5833333333333334
 40
0.5833333333333334
 40
0.6666666666666666
 40
0.6666666666666666
 40
0.6666666666666666
 40
0.6666666666666666
 40
0.75
 40
0.75
 40
0.75
 40
0.75
 40
0.8333333333333334
 40
0.8333333333333334
 40
0.8333333333333334
 40
0.8333333333333334
 40
1.0
 40
1.0
 40
1.0
 40
1.0
 10
-3.4894
 20
-0.4792
 30
0.0
 10
-3.4894
 20
-0.4792
 30
0.0
 10
-3.4894
 20
-0.2407
 30
0.0
 10
-3.4894
 20
-0.2407
 30
0.0
 10
-3.4894
 20
-0.2407
 30
0.0
 10
-3.4894
 20
-0.2407
 30
0.0
 10
-2.1818
 20
-0.2407
 30
0.0
 10
-2.1818
 20
-0.2407
 30
0.0
 10
-2.1818
 20
-0.2407
 30
0.0
 10
-2.1818
 20
-0.2407
 30
0.0
 10
-2.1818
 20
-0.4336
 30
0.0
 10
-2.1818
 20
-0.4336
 30
0.0
 10
-2.1818
 20
-0.4336
 30
0.0
 10
-2.3102
 20
-0.5704
 30
0.0
 10
-2.4377
 20
-0.7525
 30
0.0
 10
-2.5642
 20
-0.9792
 30
0.0
 10
-2.5642
 20
-0.9792
 30
0.0
 10
-2.6903
 20
-1.2059
 30
0.0
 10
-2.7881
 20
-1.4397
 30
0.0
 10
-2.8568
 20
-1.6791
 30
0.0
 10
-2.8568
 20
-1.6791
 30
0.0
 10
-2.9066
 20
-1.8484
 30
0.0
 10
-2.9381
 20
-2.0333
 30
0.0
 10
-2.9518
 20
-2.2346
 30
0.0
 10
-2.9518
 20
-2.2346
 30
0.0
 10
-2.9518
 20
-2.2346
 30
0.0
 10
-3.2067
 20
-2.2346
 30
0.0
 10
-3.2067
 20
-2.2346
 30
0.0
 10
-3.2067
 20
-2.2346
 30
0.0
 10
-3.2039
 20
-2.0756
 30
0.0
 10
-3.1729
 20
-1.8837
 30
0.0
 10
-3.1131
 20
-1.6584
 30
0.0
 10
-3.1131
 20
-1.6584
 30
0.0
 10
-3.0534
 20
-1.4336
 30
0.0
 10
-2.9678
 20
-1.2163
 30
0.0
 10
-2.8563
 20
-1.0074
 30
0.0
 10
-2.8563
 20
-1.0074
 30
0.0
 10
-2.7444
 20
-0.7986
 30
0.0
 10
-2.6258
 20
-0.6222
 30
0.0
 10
-2.4998
 20
-0.4792
 30
0.0
 10
-2.4998
 20
-0.4792
 30
0.0
 10
-2.4998
 20
-0.4792
 30
0.0
 10
-3.4894
 20
-0.4792
 30
0.0
 10
-3.4894
 20
-0.4792
 30
0.0
  0
SPLINE
  5
62
330
1F
100
AcDbEntity
  8
AXIS
 62
   250
100
AcDbSpline
210
0.0
220
0.0
230
1.0
 70
    11
 71
     3
 72
    52
 73
    48
 74
     0
 42
0.0000000001
 43
0.0000000001
 40
0.0
 40
0.0
 40
0.0
 40
0.0
 40
0.0769230769230769
 40
0.0769230769230769
 40
0.0769230769230769
 40
0.0769230769230769
 40
0.1538461538461539
 40
0.1538461538461539
 40
0.1538461538461539
 40
0.1538461538461539
 40
0.2307692307692308
 40
0.2307692307692308
 40
0.2307692307692308
 40
0.2307692307692308
 40
0.3076923076923077
 40
0.3076923076923077
 40
0.3076923076923077
 40
0.3076923076923077
 40
0.3846153846153846
 40
0.3846153846153846
 40
0.3846153846153846
 40
0.3846153846153846
 40
0.4615384615384616
 40
0.4615384615384616
 40
0.4615384615384616
 40
0.4615384615384616
 40
0.5384615384615384
 40
0.5384615384615384
 40
0.5384615384615384
 40
0.5384615384615384
 40
0.6153846153846154
 40
0.6153846153846154
 40
0.6153846153846154
 40
0.6153846153846154
 40
0.6923076923076923
 40
0.6923076923076923
 40
0.6923076923076923
 40
0.6923076923076923
 40
0.7692307692307693
 40
0.7692307692307693
 40
0.7692307692307693
 40
0.7692307692307693
 40
0.8461538461538461
 40
0.8461538461538461
 40
0.8461538461538461
 40
0.8461538461538461
 40
1.0
 40
1.0
 40
1.0
 40
1.0
 10
-1.9363
 20
-1.2384
 30
0.0
 10
-1.9363
 20
-0.9994
 30
0.0
 10
-1.9118
 20
-0.807
 30
0.0
 10
-1.8624
 20
-0.6617
 30
0.0
 10
-1.8624
 20
-0.6617
 30
0.0
 10
-1.8135
 20
-0.5159
 30
0.0
 10
-1.7401
 20
-0.4035
 30
0.0
 10
-1.6432
 20
-0.3244
 30
0.0
 10
-1.6432
 20
-0.3244
 30
0.0
 10
-1.5463
 20
-0.2454
 30
0.0
 10
-1.4245
 20
-0.2059
 30
0.0
 10
-1.2778
 20
-0.2059
 30
0.0
 10
-1.2778
 20
-0.2059
 30
0.0
 10
-1.1691
 20
-0.2059
 30
0.0
 10
-1.0741
 20
-0.228
 30
0.0
 10
-0.9923
 20
-0.2718
 30
0.0
 10
-0.9923
 20
-0.2718
 30
0.0
 10
-0.9104
 20
-0.315
 30
0.0
 10
-0.8431
 20
-0.3781
 30
0.0
 10
-0.7895
 20
-0.4604
 30
0.0
 10
-0.7895
 20
-0.4604
 30
0.0
 10
-0.7364
 20
-0.5427
 30
0.0
 10
-0.6945
 20
-0.6429
 30
0.0
 10
-0.6644
 20
-0.7609
 30
0.0
 10
-0.6644
 20
-0.7609
 30
0.0
 10
-0.6338
 20
-0.879
 30
0.0
 10
-0.6188
 20
-1.038
 30
0.0
 10
-0.6188
 20
-1.2384
 30
0.0
 10
-0.6188
 20
-1.2384
 30
0.0
 10
-0.6188
 20
-1.4754
 30
0.0
 10
-0.6432
 20
-1.6664
 30
0.0
 10
-0.6917
 20
-1.8122
 30
0.0
 10
-0.6917
 20
-1.8122
 30
0.0
 10
-0.7406
 20
-1.958
 30
0.0
 10
-0.8135
 20
-2.0704
 30
0.0
 10
-0.9104
 20
-2.1499
 30
0.0
 10
-0.9104
 20
-2.1499
 30
0.0
 10
-1.0073
 20
-2.2294
 30
0.0
 10
-1.1296
 20
-2.2689
 30
0.0
 10
-1.2778
 20
-2.2689
 30
0.0
 10
-1.2778
 20
-2.2689
 30
0.0
 10
-1.4725
 20
-2.2689
 30
0.0
 10
-1.6254
 20
-2.1993
 30
0.0
 10
-1.7364
 20
-2.0596
 30
0.0
 10
-1.7364
 20
-2.0596
 30
0.0
 10
-1.8695
 20
-1.8917
 30
0.0
 10
-1.9363
 20
-1.6175
 30
0.0
 10
-1.9363
 20
-1.2384
 30
0.0
  0
SPLINE
  5
63
330
1F
100
AcDbEntity
  8
AXIS
 62
   250
100
AcDbSpline
210
0.0
220
0.0
230
1.0
 70
    11
 71
     3
 72
    36
 73
    32
 74
     0
 42
0.0000000001
 43
0.0000000001
 40
0.0
 40
0.0
 40
0.0
 40
0.0
 40
0.1111111111111111
 40
0.1111111111111111
 40
0.1111111111111111
 40
0.1111111111111111
 40
0.2222222222222222
 40
0.2222222222222222
 40
0.2222222222222222
 40
0.2222222222222222
 40
0.3333333333333333
 40
0.3333333333333333
 40
0.3333333333333333
 40
0.3333333333333333
 40
0.4444444444444444
 40
0.4444444444444444
 40
0.4444444444444444
 40
0.4444444444444444
 40
0.5555555555555556
 40
0.5555555555555556
 40
0.5555555555555556
 40
0.5555555555555556
 40
0.6666666666666666
 40
0.6666666666666666
 40
0.6666666666666666
 40
0.6666666666666666
 40
0.7777777777777778
 40
0.7777777777777778
 40
0.7777777777777778
 40
0.7777777777777778
 40
1.0
 40
1.0
 40
1.0
 40
1.0
 10
-1.6813
 20
-1.2384
 30
0.0
 10
-1.6813
 20
-1.57
 30
0.0
 10
-1.6423
 20
-1.7906
 30
0.0
 10
-1.5647
 20
-1.9006
 30
0.0
 10
-1.5647
 20
-1.9006
 30
0.0
 10
-1.4871
 20
-2.0102
 30
0.0
 10
-1.3916
 20
-2.0653
 30
0.0
 10
-1.2778
 20
-2.0653
 30
0.0
 10
-1.2778
 20
-2.0653
 30
0.0
 10
-1.1635
 20
-2.0653
 30
0.0
 10
-1.068
 20
-2.0098
 30
0.0
 10
-0.9904
 20
-1.8997
 30
0.0
 10
-0.9904
 20
-1.8997
 30
0.0
 10
-0.9128
 20
-1.7896
 30
0.0
 10
-0.8737
 20
-1.569
 30
0.0
 10
-0.8737
 20
-1.2384
 30
0.0
 10
-0.8737
 20
-1.2384
 30
0.0
 10
-0.8737
 20
-0.9058
 30
0.0
 10
-0.9128
 20
-0.6847
 30
0.0
 10
-0.9904
 20
-0.5756
 30
0.0
 10
-0.9904
 20
-0.5756
 30
0.0
 10
-1.068
 20
-0.466
 30
0.0
 10
-1.1644
 20
-0.4115
 30
0.0
 10
-1.2801
 20
-0.4115
 30
0.0
 10
-1.2801
 20
-0.4115
 30
0.0
 10
-1.3944
 20
-0.4115
 30
0.0
 10
-1.4852
 20
-0.4599
 30
0.0
 10
-1.5534
 20
-0.5563
 30
0.0
 10
-1.5534
 20
-0.5563
 30
0.0
 10
-1.6385
 20
-0.6791
 30
0.0
 10
-1.6813
 20
-0.9068
 30
0.0
 10
-1.6813
 20
-1.2384
 30
0.0
  0
SPLINE
  5
64
330
1F
100
AcDbEntity
  8
AXIS
 62
   250
100
AcDbSpline
210
0.0
220
0.0
230
1.0
 70
     8
 71
     3
 72
    60
 73
    56
 74
     0
 42
0.0000000001
 43
0.0000000001
 40
0.0
 40
0.0
 40
0.0
 40
0.0
 40
0.0666666666666667
 40
0.0666666666666667
 40
0.0666666666666667
 40
0.0666666666666667
 40
0.1333333333333333
 40
0.1333333333333333
 40
0.1333333333333333
 40
0.1333333333333333
 40
0.2
 40
0.2
 40
0.2
 40
0.2
 40
0.2666666666666667
 40
0.2666666666666667
 40
0.2666666666666667
 40
0.2666666666666667
 40
0.3333333333333333
 40
0.3333333333333333
 40
0.3333333333333333
 40
0.3333333333333333
 40
0.4
 40
0.4
 40
0.4
 40
0.4
 40
0.4666666666666667
 40
0.4666666666666667
 40
0.4666666666666667
 40
0.4666666666666667
 40
0.5333333333333333
 40
0.5333333333333333
 40
0.5333333333333333
 40
0.5333333333333333
 40
0.6
 40
0.6
 40
0.6
 40
0.6
 40
0.6666666666666666
 40
0.6666666666666666
 40
0.6666666666666666
 40
0.6666666666666666
 40
0.7333333333333333
 40
0.7333333333333333
 40
0.7333333333333333
 40
0.7333333333333333
 40
0.8
 40
0.8
 40
0.8
 40
0.8
 40
0.8666666666666667
 40
0.8666666666666667
 40
0.8666666666666667
 40
0.8666666666666667
 40
1.0
 40
1.0
 40
1.0
 40
1.0
 10
-6.932
 20
-22.6425
 30
0.0
 10
-6.932
 20
-22.6425
 30
0.0
 10
-6.9091
 20
-21.8541
 30
0.0
 10
-6.9091
 20
-21.8541
 30
0.0
 10
-6.9091
 20
-21.8541
 30
0.0
 10
-6.9091
 20
-21.8541
 30
0.0
 10
-6.9473
 20
-21.7163
 30
0.0
 10
-6.9473
 20
-21.7163
 30
0.0
 10
-6.9473
 20
-21.7163
 30
0.0
 10
-6.9473
 20
-21.7163
 30
0.0
 10
-7.0466
 20
-21.6091
 30
0.0
 10
-7.0466
 20
-21.6091
 30
0.0
 10
-7.0466
 20
-21.6091
 30
0.0
 10
-7.0466
 20
-21.6091
 30
0.0
 10
-7.9632
 20
-21.2418
 30
0.0
 10
-7.9632
 20
-21.2418
 30
0.0
 10
-7.9632
 20
-21.2418
 30
0.0
 10
-7.9632
 20
-21.2418
 30
0.0
 10
-8.0244
 20
-21.0121
 30
0.0
 10
-8.0244
 20
-21.0121
 30
0.0
 10
-8.0244
 20
-21.0121
 30
0.0
 10
-8.0244
 20
-21.0121
 30
0.0
 10
-8.0213
 20
-20.9473
 30
0.0
 10
-8.0213
 20
-20.9473
 30
0.0
 10
-8.0213
 20
-20.9473
 30
0.0
 10
-8.0213
 20
-20.9473
 30
0.0
 10
1.0623
 20
-20.9473
 30
0.0
 10
1.0623
 20
-20.9473
 30
0.0
 10
1.0623
 20
-20.9473
 30
0.0
 10
1.0623
 20
-20.9473
 30
0.0
 10
1.0855
 20
-21.0093
 30
0.0
 10
1.0855
 20
-21.0093
 30
0.0
 10
1.0855
 20
-21.0093
 30
0.0
 10
1.0855
 20
-21.0093
 30
0.0
 10
0.9884
 20
-21.2364
 30
0.0
 10
0.9884
 20
-21.2364
 30
0.0
 10
0.9884
 20
-21.2364
 30
0.0
 10
0.9884
 20
-21.2364
 30
0.0
 10
0.1143
 20
-21.6013
 30
0.0
 10
0.1143
 20
-21.6013
 30
0.0
 10
0.1143
 20
-21.6013
 30
0.0
 10
0.1143
 20
-21.6013
 30
0.0
 10
0.0091
 20
-21.6864
 30
0.0
 10
0.0091
 20
-21.6864
 30
0.0
 10
0.0091
 20
-21.6864
 30
0.0
 10
0.0091
 20
-21.6864
 30
0.0
 10
-0.0193
 20
-21.7432
 30
0.0
 10
-0.0193
 20
-21.7432
 30
0.0
 10
-0.0193
 20
-21.7432
 30
0.0
 10
-0.0193
 20
-21.7432
 30
0.0
 10
-0.0476
 20
-21.8203
 30
0.0
 10
-0.0476
 20
-21.8203
 30
0.0
 10
-0.0476
 20
-21.8203
 30
0.0
 10
-0.0476
 20
-21.8203
 30
0.0
 10
-0.0262
 20
-22.6547
 30
0.0
 10
-0.0262
 20
-22.6547
 30
0.0
  0
SPLINE
  5
65
330
1F
100
AcDbEntity
  8
AXIS
 62
   250
100
AcDbSpline
210
0.0
220
0.0
230
1.0
 70
     8
 71
     3
 72
    24
 73
    20
 74
     0
 42
0.0000000001
 43
0.0000000001
 40
0.0
 40
0.0
 40
0.0
 40
0.0
 40
0.1666666666666667
 40
0.1666666666666667
 40
0.1666666666666667
 40
0.1666666666666667
 40
0.3333333333333333
 40
0.3333333333333333
 40
0.3333333333333333
 40
0.3333333333333333
 40
0.5
 40
0.5
 40
0.5
 40
0.5
 40
0.6666666666666666
 40
0.6666666666666666
 40
0.6666666666666666
 40
0.6666666666666666
 40
1.0
 40
1.0
 40
1.0
 40
1.0
 10
-8.6778
 20
-23.4887
 30
0.0
 10
-8.6778
 20
-23.4887
 30
0.0
 10
-9.078
 20
-23.4887
 30
0.0
 10
-9.078
 20
-23.4887
 30
0.0
 10
-9.078
 20
-23.4887
 30
0.0
 10
-9.078
 20
-23.4887
 30
0.0
 10
-9.0965
 20
-22.6619
 30
0.0
 10
-9.0965
 20
-22.6619
 30
0.0
 10
-9.0965
 20
-22.6619
 30
0.0
 10
-9.0965
 20
-22.6619
 30
0.0
 10
2.1246
 20
-22.6445
 30
0.0
 10
2.1246
 20
-22.6445
 30
0.0
 10
2.1246
 20
-22.6445
 30
0.0
 10
2.1246
 20
-22.6445
 30
0.0
 10
2.1246
 20
-23.4826
 30
0.0
 10
2.1246
 20
-23.4826
 30
0.0
 10
2.1246
 20
-23.4826
 30
0.0
 10
2.1246
 20
-23.4826
 30
0.0
 10
-4.6534
 20
-23.5174
 30
0.0
 10
-4.6534
 20
-23.5174
 30
0.0
  0
SPLINE
  5
66
330
1F
100
AcDbEntity
  8
AXIS
 62
   250
100
AcDbSpline
210
0.0
220
0.0
230
1.0
 70
    24
 71
     3
 72
     8
 73
     4
 74
     0
 42
0.0000000001
 43
0.0000000001
 40
0.0
 40
0.0
 40
0.0
 40
0.0
 40
1.0
 40
1.0
 40
1.0
 40
1.0
 10
-0.0145
 20
-21.7216
 30
0.0
 10
-0.0145
 20
-21.7216
 30
0.0
 10
-6.9496
 20
-21.7216
 30
0.0
 10
-6.9496
 20
-21.7216
 30
0.0
  0
SPLINE
  5
67
330
1F
100
AcDbEntity
  8
AXIS
 62
   250
100
AcDbSpline
210
0.0
220
0.0
230
1.0
 70
    11
 71
     3
 72
    32
 73
    28
 74
     0
 42
0.0000000001
 43
0.0000000001
 40
0.0
 40
0.0
 40
0.0
 40
0.0
 40
0.125
 40
0.125
 40
0.125
 40
0.125
 40
0.25
 40
0.25
 40
0.25
 40
0.25
 40
0.375
 40
0.375
 40
0.375
 40
0.375
 40
0.5
 40
0.5
 40
0.5
 40
0.5
 40
0.625
 40
0.625
 40
0.625
 40
0.625
 40
0.75
 40
0.75
 40
0.75
 40
0.75
 40
1.0
 40
1.0
 40
1.0
 40
1.0
 10
-3.7256
 20
-23.8509
 30
0.0
 10
-3.7256
 20
-23.8509
 30
0.0
 10
-3.741
 20
-29.5063
 30
0.0
 10
-3.741
 20
-29.5063
 30
0.0
 10
-3.741
 20
-29.5063
 30
0.0
 10
-3.741
 20
-29.5063
 30
0.0
 10
-5.688
 20
-30.2789
 30
0.0
 10
-5.688
 20
-30.2789
 30
0.0
 10
-5.688
 20
-30.2789
 30
0.0
 10
-5.688
 20
-30.2789
 30
0.0
 10
-7.0967
 20
-30.2551
 30
0.0
 10
-7.0967
 20
-30.2551
 30
0.0
 10
-7.0967
 20
-30.2551
 30
0.0
 10
-9.0678
 20
-30.2551
 30
0.0
 10
-10.6657
 20
-28.6571
 30
0.0
 10
-10.6657
 20
-26.686
 30
0.0
 10
-10.6657
 20
-26.686
 30
0.0
 10
-10.6657
 20
-24.7149
 30
0.0
 10
-9.0678
 20
-23.117
 30
0.0
 10
-7.0967
 20
-23.117
 30
0.0
 10
-7.0967
 20
-23.117
 30
0.0
 10
-7.0967
 20
-23.117
 30
0.0
 10
-5.6971
 20
-23.117
 30
0.0
 10
-5.6971
 20
-23.117
 30
0.0
 10
-5.6971
 20
-23.117
 30
0.0
 10
-5.6971
 20
-23.117
 30
0.0
 10
-3.7256
 20
-23.8509
 30
0.0
 10
-3.7256
 20
-23.8509
 30
0.0
  0
SPLINE
  5
68
330
1F
100
AcDbEntity
  8
AXIS
 62
   250
100
AcDbSpline
210
0.0
220
0.0
230
1.0
 70
     8
 71
     3
 72
    44
 73
    40
 74
     0
 42
0.0000000001
 43
0.0000000001
 40
0.0
 40
0.0
 40
0.0
 40
0.0
 40
0.0909090909090909
 40
0.0909090909090909
 40
0.0909090909090909
 40
0.0909090909090909
 40
0.1818181818181818
 40
0.1818181818181818
 40
0.1818181818181818
 40
0.1818181818181818
 40
0.2727272727272727
 40
0.2727272727272727
 40
0.2727272727272727
 40
0.2727272727272727
 40
0.3636363636363636
 40
0.3636363636363636
 40
0.3636363636363636
 40
0.3636363636363636
 40
0.4545454545454545
 40
0.4545454545454545
 40
0.4545454545454545
 40
0.4545454545454545
 40
0.5454545454545454
 40
0.5454545454545454
 40
0.5454545454545454
 40
0.5454545454545454
 40
0.6363636363636364
 40
0.6363636363636364
 40
0.6363636363636364
 40
0.6363636363636364
 40
0.7272727272727273
 40
0.7272727272727273
 40
0.7272727272727273
 40
0.7272727272727273
 40
0.8181818181818182
 40
0.8181818181818182
 40
0.8181818181818182
 40
0.8181818181818182
 40
1.0
 40
1.0
 40
1.0
 40
1.0
 10
-7.6748
 20
-29.8395
 30
0.0
 10
-7.4577
 20
-29.8778
 30
0.0
 10
-7.2157
 20
-29.8912
 30
0.0
 10
-6.9954
 20
-29.8842
 30
0.0
 10
-6.9954
 20
-29.8842
 30
0.0
 10
-6.7751
 20
-29.8772
 30
0.0
 10
-6.471
 20
-29.8147
 30
0.0
 10
-6.471
 20
-29.8147
 30
0.0
 10
-6.471
 20
-29.8147
 30
0.0
 10
-6.471
 20
-29.8147
 30
0.0
 10
-6.471
 20
-29.2046
 30
0.0
 10
-6.471
 20
-29.2046
 30
0.0
 10
-6.471
 20
-29.2046
 30
0.0
 10
-6.471
 20
-29.2046
 30
0.0
 10
-7.7371
 20
-29.2018
 30
0.0
 10
-7.7371
 20
-29.2018
 30
0.0
 10
-7.7371
 20
-29.2018
 30
0.0
 10
-7.7371
 20
-29.2018
 30
0.0
 10
-7.7286
 20
-29.8176
 30
0.0
 10
-7.7286
 20
-29.8176
 30
0.0
 10
-7.7286
 20
-29.8176
 30
0.0
 10
-7.7286
 20
-29.8176
 30
0.0
 10
-7.6858
 20
-29.8404
 30
0.0
 10
-7.6858
 20
-29.8404
 30
0.0
 10
-7.6858
 20
-29.8404
 30
0.0
 10
-7.6858
 20
-29.8404
 30
0.0
 10
-7.5891
 20
-30.0599
 30
0.0
 10
-7.5891
 20
-30.0599
 30
0.0
 10
-7.5891
 20
-30.0599
 30
0.0
 10
-7.5891
 20
-30.0599
 30
0.0
 10
-7.2448
 20
-30.1027
 30
0.0
 10
-7.2448
 20
-30.1027
 30
0.0
 10
-7.2448
 20
-30.1027
 30
0.0
 10
-7.2448
 20
-30.1027
 30
0.0
 10
-7.0116
 20
-30.0998
 30
0.0
 10
-7.0116
 20
-30.0998
 30
0.0
 10
-7.0116
 20
-30.0998
 30
0.0
 10
-7.0116
 20
-30.0998
 30
0.0
 10
-7.0039
 20
-29.8932
 30
0.0
 10
-7.0039
 20
-29.8932
 30
0.0
  0
SPLINE
  5
69
330
1F
100
AcDbEntity
  8
AXIS
 62
   250
100
AcDbSpline
210
0.0
220
0.0
230
1.0
 70
     8
 71
     3
 72
    44
 73
    40
 74
     0
 42
0.0000000001
 43
0.0000000001
 40
0.0
 40
0.0
 40
0.0
 40
0.0
 40
0.0909090909090909
 40
0.0909090909090909
 40
0.0909090909090909
 40
0.0909090909090909
 40
0.1818181818181818
 40
0.1818181818181818
 40
0.1818181818181818
 40
0.1818181818181818
 40
0.2727272727272727
 40
0.2727272727272727
 40
0.2727272727272727
 40
0.2727272727272727
 40
0.3636363636363636
 40
0.3636363636363636
 40
0.3636363636363636
 40
0.3636363636363636
 40
0.4545454545454545
 40
0.4545454545454545
 40
0.4545454545454545
 40
0.4545454545454545
 40
0.5454545454545454
 40
0.5454545454545454
 40
0.5454545454545454
 40
0.5454545454545454
 40
0.6363636363636364
 40
0.6363636363636364
 40
0.6363636363636364
 40
0.6363636363636364
 40
0.7272727272727273
 40
0.7272727272727273
 40
0.7272727272727273
 40
0.7272727272727273
 40
0.8181818181818182
 40
0.8181818181818182
 40
0.8181818181818182
 40
0.8181818181818182
 40
1.0
 40
1.0
 40
1.0
 40
1.0
 10
-7.6748
 20
-23.5353
 30
0.0
 10
-7.4577
 20
-23.4971
 30
0.0
 10
-7.2157
 20
-23.4837
 30
0.0
 10
-6.9954
 20
-23.4907
 30
0.0
 10
-6.9954
 20
-23.4907
 30
0.0
 10
-6.7751
 20
-23.4976
 30
0.0
 10
-6.471
 20
-23.5601
 30
0.0
 10
-6.471
 20
-23.5601
 30
0.0
 10
-6.471
 20
-23.5601
 30
0.0
 10
-6.471
 20
-23.5601
 30
0.0
 10
-6.471
 20
-24.1702
 30
0.0
 10
-6.471
 20
-24.1702
 30
0.0
 10
-6.471
 20
-24.1702
 30
0.0
 10
-6.471
 20
-24.1702
 30
0.0
 10
-7.7371
 20
-24.173
 30
0.0
 10
-7.7371
 20
-24.173
 30
0.0
 10
-7.7371
 20
-24.173
 30
0.0
 10
-7.7371
 20
-24.173
 30
0.0
 10
-7.7286
 20
-23.5572
 30
0.0
 10
-7.7286
 20
-23.5572
 30
0.0
 10
-7.7286
 20
-23.5572
 30
0.0
 10
-7.7286
 20
-23.5572
 30
0.0
 10
-7.6858
 20
-23.5344
 30
0.0
 10
-7.6858
 20
-23.5344
 30
0.0
 10
-7.6858
 20
-23.5344
 30
0.0
 10
-7.6858
 20
-23.5344
 30
0.0
 10
-7.5891
 20
-23.315
 30
0.0
 10
-7.5891
 20
-23.315
 30
0.0
 10
-7.5891
 20
-23.315
 30
0.0
 10
-7.5891
 20
-23.315
 30
0.0
 10
-7.2448
 20
-23.2722
 30
0.0
 10
-7.2448
 20
-23.2722
 30
0.0
 10
-7.2448
 20
-23.2722
 30
0.0
 10
-7.2448
 20
-23.2722
 30
0.0
 10
-7.0116
 20
-23.2751
 30
0.0
 10
-7.0116
 20
-23.2751
 30
0.0
 10
-7.0116
 20
-23.2751
 30
0.0
 10
-7.0116
 20
-23.2751
 30
0.0
 10
-7.0039
 20
-23.4816
 30
0.0
 10
-7.0039
 20
-23.4816
 30
0.0
  0
SPLINE
  5
6A
330
1F
100
AcDbEntity
  8
AXIS
  6
NEW_LINE1
 62
   250
100
AcDbSpline
210
0.0
220
0.0
230
1.0
 70
    24
 71
     3
 72
     8
 73
     4
 74
     0
 42
0.0000000001
 43
0.0000000001
 40
0.0
 40
0.0
 40
0.0
 40
0.0
 40
1.0
 40
1.0
 40
1.0
 40
1.0
 10
-37.0418
 20
-31.525
 30
0.0
 10
-37.0418
 20
-31.525
 30
0.0
 10
-15.9247
 20
-29.6775
 30
0.0
 10
-15.9247
 20
-29.6775
 30
0.0
  0
SPLINE
  5
6C
330
1F
100
AcDbEntity
  8
AXIS
  6
NEW_LINE2
 62
   250
100
AcDbSpline
210
0.0
220
0.0
230
1.0
 70
    24
 71
     3
 72
     8
 73
     4
 74
     0
 42
0.0000000001
 43
0.0000000001
 40
0.0
 40
0.0
 40
0.0
 40
0.0
 40
1.0
 40
1.0
 40
1.0
 40
1.0
 10
-16.1288
 20
-29.0626
 30
0.0
 10
-16.1288
 20
-29.0626
 30
0.0
 10
-16.1288
 20
-37.2333
 30
0.0
 10
-16.1288
 20
-37.2333
 30
0.0
  0
SPLINE
  5
6E
330
1F
100
AcDbEntity
  8
AXIS
 62
   250
100
AcDbSpline
210
0.0
220
0.0
230
1.0
 70
     8
 71
     3
 72
    60
 73
    56
 74
     0
 42
0.0000000001
 43
0.0000000001
 40
0.0
 40
0.0
 40
0.0
 40
0.0
 40
0.0666666666666667
 40
0.0666666666666667
 40
0.0666666666666667
 40
0.0666666666666667
 40
0.1333333333333333
 40
0.1333333333333333
 40
0.1333333333333333
 40
0.1333333333333333
 40
0.2
 40
0.2
 40
0.2
 40
0.2
 40
0.2666666666666667
 40
0.2666666666666667
 40
0.2666666666666667
 40
0.2666666666666667
 40
0.3333333333333333
 40
0.3333333333333333
 40
0.3333333333333333
 40
0.3333333333333333
 40
0.4
 40
0.4
 40
0.4
 40
0.4
 40
0.4666666666666667
 40
0.4666666666666667
 40
0.4666666666666667
 40
0.4666666666666667
 40
0.5333333333333333
 40
0.5333333333333333
 40
0.5333333333333333
 40
0.5333333333333333
 40
0.6
 40
0.6
 40
0.6
 40
0.6
 40
0.6666666666666666
 40
0.6666666666666666
 40
0.6666666666666666
 40
0.6666666666666666
 40
0.7333333333333333
 40
0.7333333333333333
 40
0.7333333333333333
 40
0.7333333333333333
 40
0.8
 40
0.8
 40
0.8
 40
0.8
 40
0.8666666666666667
 40
0.8666666666666667
 40
0.8666666666666667
 40
0.8666666666666667
 40
1.0
 40
1.0
 40
1.0
 40
1.0
 10
-3.9767
 20
-33.1088
 30
0.0
 10
-3.9767
 20
-33.1088
 30
0.0
 10
-0.0071
 20
-33.0995
 30
0.0
 10
-0.0071
 20
-33.0995
 30
0.0
 10
-0.0071
 20
-33.0995
 30
0.0
 10
-0.0071
 20
-33.0995
 30
0.0
 10
0.076
 20
-33.0995
 30
0.0
 10
0.076
 20
-33.0995
 30
0.0
 10
0.076
 20
-33.0995
 30
0.0
 10
0.076
 20
-33.0995
 30
0.0
 10
0.1683
 20
-33.0348
 30
0.0
 10
0.1683
 20
-33.0348
 30
0.0
 10
0.1683
 20
-33.0348
 30
0.0
 10
0.1683
 20
-33.0348
 30
0.0
 10
0.2514
 20
-32.9052
 30
0.0
 10
0.2514
 20
-32.9052
 30
0.0
 10
0.2514
 20
-32.9052
 30
0.0
 10
0.2514
 20
-32.9052
 30
0.0
 10
0.242
 20
-32.5352
 30
0.0
 10
0.242
 20
-32.5352
 30
0.0
 10
0.242
 20
-32.5352
 30
0.0
 10
0.242
 20
-32.5352
 30
0.0
 10
0.3437
 20
-32.5445
 30
0.0
 10
0.3437
 20
-32.5445
 30
0.0
 10
0.3437
 20
-32.5445
 30
0.0
 10
0.3437
 20
-32.5445
 30
0.0
 10
0.3437
 20
-30.5186
 30
0.0
 10
0.3437
 20
-30.5186
 30
0.0
 10
0.3437
 20
-30.5186
 30
0.0
 10
0.3437
 20
-30.5186
 30
0.0
 10
-2.4059
 20
-30.5231
 30
0.0
 10
-2.4059
 20
-30.5231
 30
0.0
 10
-2.4059
 20
-30.5231
 30
0.0
 10
-2.4059
 20
-30.5231
 30
0.0
 10
-7.3673
 20
-30.5097
 30
0.0
 10
-7.3673
 20
-30.5097
 30
0.0
 10
-7.3673
 20
-30.5097
 30
0.0
 10
-7.3673
 20
-30.5097
 30
0.0
 10
-7.374
 20
-32.5279
 30
0.0
 10
-7.374
 20
-32.5279
 30
0.0
 10
-7.374
 20
-32.5279
 30
0.0
 10
-7.374
 20
-32.5279
 30
0.0
 10
-7.3069
 20
-32.5211
 30
0.0
 10
-7.3069
 20
-32.5211
 30
0.0
 10
-7.3069
 20
-32.5211
 30
0.0
 10
-7.3069
 20
-32.5211
 30
0.0
 10
-7.2986
 20
-32.8336
 30
0.0
 10
-7.2986
 20
-32.8336
 30
0.0
 10
-7.2986
 20
-32.8336
 30
0.0
 10
-7.2986
 20
-32.9883
 30
0.0
 10
-7.1733
 20
-33.1136
 30
0.0
 10
-7.0187
 20
-33.1136
 30
0.0
 10
-7.0187
 20
-33.1136
 30
0.0
 10
-7.0187
 20
-33.1136
 30
0.0
 10
-3.8939
 20
-33.1055
 30
0.0
 10
-3.8939
 20
-33.1055
 30
0.0
  0
SPLINE
  5
6F
330
1F
100
AcDbEntity
  8
AXIS
 62
   250
100
AcDbSpline
210
0.0
220
0.0
230
1.0
 70
     8
 71
     3
 72
   128
 73
   124
 74
     0
 42
0.0000000001
 43
0.0000000001
 40
0.0
 40
0.0
 40
0.0
 40
0.0
 40
0.03125
 40
0.03125
 40
0.03125
 40
0.03125
 40
0.0625
 40
0.0625
 40
0.0625
 40
0.0625
 40
0.09375
 40
0.09375
 40
0.09375
 40
0.09375
 40
0.125
 40
0.125
 40
0.125
 40
0.125
 40
0.15625
 40
0.15625
 40
0.15625
 40
0.15625
 40
0.1875
 40
0.1875
 40
0.1875
 40
0.1875
 40
0.21875
 40
0.21875
 40
0.21875
 40
0.21875
 40
0.25
 40
0.25
 40
0.25
 40
0.25
 40
0.28125
 40
0.28125
 40
0.28125
 40
0.28125
 40
0.3125
 40
0.3125
 40
0.3125
 40
0.3125
 40
0.34375
 40
0.34375
 40
0.34375
 40
0.34375
 40
0.375
 40
0.375
 40
0.375
 40
0.375
 40
0.40625
 40
0.40625
 40
0.40625
 40
0.40625
 40
0.4375
 40
0.4375
 40
0.4375
 40
0.4375
 40
0.46875
 40
0.46875
 40
0.46875
 40
0.46875
 40
0.5
 40
0.5
 40
0.5
 40
0.5
 40
0.53125
 40
0.53125
 40
0.53125
 40
0.53125
 40
0.5625
 40
0.5625
 40
0.5625
 40
0.5625
 40
0.59375
 40
0.59375
 40
0.59375
 40
0.59375
 40
0.625
 40
0.625
 40
0.625
 40
0.625
 40
0.65625
 40
0.65625
 40
0.65625
 40
0.65625
 40
0.6875
 40
0.6875
 40
0.6875
 40
0.6875
 40
0.71875
 40
0.71875
 40
0.71875
 40
0.71875
 40
0.75
 40
0.75
 40
0.75
 40
0.75
 40
0.78125
 40
0.78125
 40
0.78125
 40
0.78125
 40
0.8125
 40
0.8125
 40
0.8125
 40
0.8125
 40
0.84375
 40
0.84375
 40
0.84375
 40
0.84375
 40
0.875
 40
0.875
 40
0.875
 40
0.875
 40
0.90625
 40
0.90625
 40
0.90625
 40
0.90625
 40
0.9375
 40
0.9375
 40
0.9375
 40
0.9375
 40
1.0
 40
1.0
 40
1.0
 40
1.0
 10
-7.2989
 20
-30.949
 30
0.0
 10
-7.2989
 20
-30.949
 30
0.0
 10
-6.4307
 20
-30.949
 30
0.0
 10
-6.4307
 20
-30.949
 30
0.0
 10
-6.4307
 20
-30.949
 30
0.0
 10
-6.4307
 20
-30.949
 30
0.0
 10
-6.432
 20
-32.2038
 30
0.0
 10
-6.432
 20
-32.2038
 30
0.0
 10
-6.432
 20
-32.2038
 30
0.0
 10
-6.432
 20
-32.2038
 30
0.0
 10
-6.4258
 20
-32.2763
 30
0.0
 10
-6.4258
 20
-32.2763
 30
0.0
 10
-6.4258
 20
-32.2763
 30
0.0
 10
-6.4258
 20
-32.2763
 30
0.0
 10
-6.4073
 20
-32.3437
 30
0.0
 10
-6.4073
 20
-32.3437
 30
0.0
 10
-6.4073
 20
-32.3437
 30
0.0
 10
-6.4073
 20
-32.3437
 30
0.0
 10
-6.3777
 20
-32.4018
 30
0.0
 10
-6.3777
 20
-32.4018
 30
0.0
 10
-6.3777
 20
-32.4018
 30
0.0
 10
-6.3777
 20
-32.4018
 30
0.0
 10
-6.3384
 20
-32.4464
 30
0.0
 10
-6.3384
 20
-32.4464
 30
0.0
 10
-6.3384
 20
-32.4464
 30
0.0
 10
-6.3384
 20
-32.4464
 30
0.0
 10
-6.292
 20
-32.4743
 30
0.0
 10
-6.292
 20
-32.4743
 30
0.0
 10
-6.292
 20
-32.4743
 30
0.0
 10
-6.292
 20
-32.4743
 30
0.0
 10
-6.2413
 20
-32.4837
 30
0.0
 10
-6.2413
 20
-32.4837
 30
0.0
 10
-6.2413
 20
-32.4837
 30
0.0
 10
-6.2413
 20
-32.4837
 30
0.0
 10
-6.1076
 20
-32.4129
 30
0.0
 10
-6.1076
 20
-32.4129
 30
0.0
 10
-6.1076
 20
-32.4129
 30
0.0
 10
-6.1076
 20
-32.4129
 30
0.0
 10
-6.0572
 20
-32.2816
 30
0.0
 10
-6.0572
 20
-32.2816
 30
0.0
 10
-6.0572
 20
-32.2816
 30
0.0
 10
-6.0572
 20
-32.2816
 30
0.0
 10
-6.0269
 20
-32.1605
 30
0.0
 10
-6.0269
 20
-32.1605
 30
0.0
 10
-6.0269
 20
-32.1605
 30
0.0
 10
-6.0269
 20
-32.1605
 30
0.0
 10
-6.0269
 20
-30.9389
 30
0.0
 10
-6.0269
 20
-30.9389
 30
0.0
 10
-6.0269
 20
-30.9389
 30
0.0
 10
-6.0269
 20
-30.9389
 30
0.0
 10
-3.7857
 20
-30.9591
 30
0.0
 10
-3.7857
 20
-30.9591
 30
0.0
 10
-3.7857
 20
-30.9591
 30
0.0
 10
-3.7857
 20
-30.9591
 30
0.0
 10
-3.7857
 20
-32.2412
 30
0.0
 10
-3.7857
 20
-32.2412
 30
0.0
 10
-3.7857
 20
-32.2412
 30
0.0
 10
-3.7857
 20
-32.2412
 30
0.0
 10
-3.7352
 20
-32.3624
 30
0.0
 10
-3.7352
 20
-32.3624
 30
0.0
 10
-3.7352
 20
-32.3624
 30
0.0
 10
-3.7352
 20
-32.3624
 30
0.0
 10
-3.6544
 20
-32.433
 30
0.0
 10
-3.6544
 20
-32.433
 30
0.0
 10
-3.6544
 20
-32.433
 30
0.0
 10
-3.6544
 20
-32.433
 30
0.0
 10
-3.5636
 20
-32.4532
 30
0.0
 10
-3.5636
 20
-32.4532
 30
0.0
 10
-3.5636
 20
-32.4532
 30
0.0
 10
-3.5636
 20
-32.4532
 30
0.0
 10
-3.4424
 20
-32.4532
 30
0.0
 10
-3.4424
 20
-32.4532
 30
0.0
 10
-3.4424
 20
-32.4532
 30
0.0
 10
-3.4424
 20
-32.4532
 30
0.0
 10
-3.3616
 20
-32.4129
 30
0.0
 10
-3.3616
 20
-32.4129
 30
0.0
 10
-3.3616
 20
-32.4129
 30
0.0
 10
-3.3616
 20
-32.4129
 30
0.0
 10
-3.2708
 20
-32.3018
 30
0.0
 10
-3.2708
 20
-32.3018
 30
0.0
 10
-3.2708
 20
-32.3018
 30
0.0
 10
-3.2708
 20
-32.3018
 30
0.0
 10
-3.2405
 20
-32.1605
 30
0.0
 10
-3.2405
 20
-32.1605
 30
0.0
 10
-3.2405
 20
-32.1605
 30
0.0
 10
-3.2405
 20
-32.1605
 30
0.0
 10
-3.2405
 20
-30.949
 30
0.0
 10
-3.2405
 20
-30.949
 30
0.0
 10
-3.2405
 20
-30.949
 30
0.0
 10
-3.2405
 20
-30.949
 30
0.0
 10
-0.9892
 20
-30.949
 30
0.0
 10
-0.9892
 20
-30.949
 30
0.0
 10
-0.9892
 20
-30.949
 30
0.0
 10
-0.9892
 20
-30.949
 30
0.0
 10
-0.9892
 20
-32.2412
 30
0.0
 10
-0.9892
 20
-32.2412
 30
0.0
 10
-0.9892
 20
-32.2412
 30
0.0
 10
-0.9892
 20
-32.2412
 30
0.0
 10
-0.9286
 20
-32.3927
 30
0.0
 10
-0.9286
 20
-32.3927
 30
0.0
 10
-0.9286
 20
-32.3927
 30
0.0
 10
-0.9286
 20
-32.3927
 30
0.0
 10
-0.8276
 20
-32.4431
 30
0.0
 10
-0.8276
 20
-32.4431
 30
0.0
 10
-0.8276
 20
-32.4431
 30
0.0
 10
-0.8276
 20
-32.4431
 30
0.0
 10
-0.7267
 20
-32.4431
 30
0.0
 10
-0.7267
 20
-32.4431
 30
0.0
 10
-0.7267
 20
-32.4431
 30
0.0
 10
-0.7267
 20
-32.4431
 30
0.0
 10
-0.6358
 20
-32.3826
 30
0.0
 10
-0.6358
 20
-32.3826
 30
0.0
 10
-0.6358
 20
-32.3826
 30
0.0
 10
-0.6358
 20
-32.3826
 30
0.0
 10
-0.5853
 20
-32.2311
 30
0.0
 10
-0.5853
 20
-32.2311
 30
0.0
 10
-0.5853
 20
-32.2311
 30
0.0
 10
-0.5853
 20
-32.2311
 30
0.0
 10
-0.6156
 20
-30.8985
 30
0.0
 10
-0.6156
 20
-30.8985
 30
0.0
 10
-0.6156
 20
-30.8985
 30
0.0
 10
-0.6156
 20
-30.8985
 30
0.0
 10
0.293
 20
-30.9288
 30
0.0
 10
0.293
 20
-30.9288
 30
0.0
  0
SPLINE
  5
70
330
1F
100
AcDbEntity
  8
AXIS
 62
   250
100
AcDbSpline
210
0.0
220
0.0
230
1.0
 70
     8
 71
     3
 72
    60
 73
    56
 74
     0
 42
0.0000000001
 43
0.0000000001
 40
0.0
 40
0.0
 40
0.0
 40
0.0
 40
0.0666666666666667
 40
0.0666666666666667
 40
0.0666666666666667
 40
0.0666666666666667
 40
0.1333333333333333
 40
0.1333333333333333
 40
0.1333333333333333
 40
0.1333333333333333
 40
0.2
 40
0.2
 40
0.2
 40
0.2
 40
0.2666666666666667
 40
0.2666666666666667
 40
0.2666666666666667
 40
0.2666666666666667
 40
0.3333333333333333
 40
0.3333333333333333
 40
0.3333333333333333
 40
0.3333333333333333
 40
0.4
 40
0.4
 40
0.4
 40
0.4
 40
0.4666666666666667
 40
0.4666666666666667
 40
0.4666666666666667
 40
0.4666666666666667
 40
0.5333333333333333
 40
0.5333333333333333
 40
0.5333333333333333
 40
0.5333333333333333
 40
0.6
 40
0.6
 40
0.6
 40
0.6
 40
0.6666666666666666
 40
0.6666666666666666
 40
0.6666666666666666
 40
0.6666666666666666
 40
0.7333333333333333
 40
0.7333333333333333
 40
0.7333333333333333
 40
0.7333333333333333
 40
0.8
 40
0.8
 40
0.8
 40
0.8
 40
0.8666666666666667
 40
0.8666666666666667
 40
0.8666666666666667
 40
0.8666666666666667
 40
1.0
 40
1.0
 40
1.0
 40
1.0
 10
-15.6829
 20
-32.4707
 30
0.0
 10
-15.6829
 20
-32.4707
 30
0.0
 10
-19.6525
 20
-32.48
 30
0.0
 10
-19.6525
 20
-32.48
 30
0.0
 10
-19.6525
 20
-32.48
 30
0.0
 10
-19.6525
 20
-32.48
 30
0.0
 10
-19.7356
 20
-32.48
 30
0.0
 10
-19.7356
 20
-32.48
 30
0.0
 10
-19.7356
 20
-32.48
 30
0.0
 10
-19.7356
 20
-32.48
 30
0.0
 10
-19.8279
 20
-32.5446
 30
0.0
 10
-19.8279
 20
-32.5446
 30
0.0
 10
-19.8279
 20
-32.5446
 30
0.0
 10
-19.8279
 20
-32.5446
 30
0.0
 10
-19.911
 20
-32.6742
 30
0.0
 10
-19.911
 20
-32.6742
 30
0.0
 10
-19.911
 20
-32.6742
 30
0.0
 10
-19.911
 20
-32.6742
 30
0.0
 10
-19.9017
 20
-33.0442
 30
0.0
 10
-19.9017
 20
-33.0442
 30
0.0
 10
-19.9017
 20
-33.0442
 30
0.0
 10
-19.9017
 20
-33.0442
 30
0.0
 10
-20.0033
 20
-33.0349
 30
0.0
 10
-20.0033
 20
-33.0349
 30
0.0
 10
-20.0033
 20
-33.0349
 30
0.0
 10
-20.0033
 20
-33.0349
 30
0.0
 10
-20.0033
 20
-35.0608
 30
0.0
 10
-20.0033
 20
-35.0608
 30
0.0
 10
-20.0033
 20
-35.0608
 30
0.0
 10
-20.0033
 20
-35.0608
 30
0.0
 10
-17.2537
 20
-35.0563
 30
0.0
 10
-17.2537
 20
-35.0563
 30
0.0
 10
-17.2537
 20
-35.0563
 30
0.0
 10
-17.2537
 20
-35.0563
 30
0.0
 10
-12.2924
 20
-35.0698
 30
0.0
 10
-12.2924
 20
-35.0698
 30
0.0
 10
-12.2924
 20
-35.0698
 30
0.0
 10
-12.2924
 20
-35.0698
 30
0.0
 10
-12.2856
 20
-33.0515
 30
0.0
 10
-12.2856
 20
-33.0515
 30
0.0
 10
-12.2856
 20
-33.0515
 30
0.0
 10
-12.2856
 20
-33.0515
 30
0.0
 10
-12.3527
 20
-33.0583
 30
0.0
 10
-12.3527
 20
-33.0583
 30
0.0
 10
-12.3527
 20
-33.0583
 30
0.0
 10
-12.3527
 20
-33.0583
 30
0.0
 10
-12.361
 20
-32.7458
 30
0.0
 10
-12.361
 20
-32.7458
 30
0.0
 10
-12.361
 20
-32.7458
 30
0.0
 10
-12.361
 20
-32.5911
 30
0.0
 10
-12.4863
 20
-32.4659
 30
0.0
 10
-12.6409
 20
-32.4659
 30
0.0
 10
-12.6409
 20
-32.4659
 30
0.0
 10
-12.6409
 20
-32.4659
 30
0.0
 10
-15.7657
 20
-32.474
 30
0.0
 10
-15.7657
 20
-32.474
 30
0.0
  0
SPLINE
  5
71
330
1F
100
AcDbEntity
  8
AXIS
 62
   250
100
AcDbSpline
210
0.0
220
0.0
230
1.0
 70
     8
 71
     3
 72
   128
 73
   124
 74
     0
 42
0.0000000001
 43
0.0000000001
 40
0.0
 40
0.0
 40
0.0
 40
0.0
 40
0.03125
 40
0.03125
 40
0.03125
 40
0.03125
 40
0.0625
 40
0.0625
 40
0.0625
 40
0.0625
 40
0.09375
 40
0.09375
 40
0.09375
 40
0.09375
 40
0.125
 40
0.125
 40
0.125
 40
0.125
 40
0.15625
 40
0.15625
 40
0.15625
 40
0.15625
 40
0.1875
 40
0.1875
 40
0.1875
 40
0.1875
 40
0.21875
 40
0.21875
 40
0.21875
 40
0.21875
 40
0.25
 40
0.25
 40
0.25
 40
0.25
 40
0.28125
 40
0.28125
 40
0.28125
 40
0.28125
 40
0.3125
 40
0.3125
 40
0.3125
 40
0.3125
 40
0.34375
 40
0.34375
 40
0.34375
 40
0.34375
 40
0.375
 40
0.375
 40
0.375
 40
0.375
 40
0.40625
 40
0.40625
 40
0.40625
 40
0.40625
 40
0.4375
 40
0.4375
 40
0.4375
 40
0.4375
 40
0.46875
 40
0.46875
 40
0.46875
 40
0.46875
 40
0.5
 40
0.5
 40
0.5
 40
0.5
 40
0.53125
 40
0.53125
 40
0.53125
 40
0.53125
 40
0.5625
 40
0.5625
 40
0.5625
 40
0.5625
 40
0.59375
 40
0.59375
 40
0.59375
 40
0.59375
 40
0.625
 40
0.625
 40
0.625
 40
0.625
 40
0.65625
 40
0.65625
 40
0.65625
 40
0.65625
 40
0.6875
 40
0.6875
 40
0.6875
 40
0.6875
 40
0.71875
 40
0.71875
 40
0.71875
 40
0.71875
 40
0.75
 40
0.75
 40
0.75
 40
0.75
 40
0.78125
 40
0.78125
 40
0.78125
 40
0.78125
 40
0.8125
 40
0.8125
 40
0.8125
 40
0.8125
 40
0.84375
 40
0.84375
 40
0.84375
 40
0.84375
 40
0.875
 40
0.875
 40
0.875
 40
0.875
 40
0.90625
 40
0.90625
 40
0.90625
 40
0.90625
 40
0.9375
 40
0.9375
 40
0.9375
 40
0.9375
 40
1.0
 40
1.0
 40
1.0
 40
1.0
 10
-12.3607
 20
-34.6304
 30
0.0
 10
-12.3607
 20
-34.6304
 30
0.0
 10
-13.2289
 20
-34.6304
 30
0.0
 10
-13.2289
 20
-34.6304
 30
0.0
 10
-13.2289
 20
-34.6304
 30
0.0
 10
-13.2289
 20
-34.6304
 30
0.0
 10
-13.2276
 20
-33.3756
 30
0.0
 10
-13.2276
 20
-33.3756
 30
0.0
 10
-13.2276
 20
-33.3756
 30
0.0
 10
-13.2276
 20
-33.3756
 30
0.0
 10
-13.2338
 20
-33.3032
 30
0.0
 10
-13.2338
 20
-33.3032
 30
0.0
 10
-13.2338
 20
-33.3032
 30
0.0
 10
-13.2338
 20
-33.3032
 30
0.0
 10
-13.2523
 20
-33.2357
 30
0.0
 10
-13.2523
 20
-33.2357
 30
0.0
 10
-13.2523
 20
-33.2357
 30
0.0
 10
-13.2523
 20
-33.2357
 30
0.0
 10
-13.282
 20
-33.1777
 30
0.0
 10
-13.282
 20
-33.1777
 30
0.0
 10
-13.282
 20
-33.1777
 30
0.0
 10
-13.282
 20
-33.1777
 30
0.0
 10
-13.3212
 20
-33.1331
 30
0.0
 10
-13.3212
 20
-33.1331
 30
0.0
 10
-13.3212
 20
-33.1331
 30
0.0
 10
-13.3212
 20
-33.1331
 30
0.0
 10
-13.3676
 20
-33.1051
 30
0.0
 10
-13.3676
 20
-33.1051
 30
0.0
 10
-13.3676
 20
-33.1051
 30
0.0
 10
-13.3676
 20
-33.1051
 30
0.0
 10
-13.4183
 20
-33.0957
 30
0.0
 10
-13.4183
 20
-33.0957
 30
0.0
 10
-13.4183
 20
-33.0957
 30
0.0
 10
-13.4183
 20
-33.0957
 30
0.0
 10
-13.552
 20
-33.1666
 30
0.0
 10
-13.552
 20
-33.1666
 30
0.0
 10
-13.552
 20
-33.1666
 30
0.0
 10
-13.552
 20
-33.1666
 30
0.0
 10
-13.6025
 20
-33.2978
 30
0.0
 10
-13.6025
 20
-33.2978
 30
0.0
 10
-13.6025
 20
-33.2978
 30
0.0
 10
-13.6025
 20
-33.2978
 30
0.0
 10
-13.6328
 20
-33.419
 30
0.0
 10
-13.6328
 20
-33.419
 30
0.0
 10
-13.6328
 20
-33.419
 30
0.0
 10
-13.6328
 20
-33.419
 30
0.0
 10
-13.6328
 20
-34.6405
 30
0.0
 10
-13.6328
 20
-34.6405
 30
0.0
 10
-13.6328
 20
-34.6405
 30
0.0
 10
-13.6328
 20
-34.6405
 30
0.0
 10
-15.874
 20
-34.6204
 30
0.0
 10
-15.874
 20
-34.6204
 30
0.0
 10
-15.874
 20
-34.6204
 30
0.0
 10
-15.874
 20
-34.6204
 30
0.0
 10
-15.874
 20
-33.3382
 30
0.0
 10
-15.874
 20
-33.3382
 30
0.0
 10
-15.874
 20
-33.3382
 30
0.0
 10
-15.874
 20
-33.3382
 30
0.0
 10
-15.9245
 20
-33.2171
 30
0.0
 10
-15.9245
 20
-33.2171
 30
0.0
 10
-15.9245
 20
-33.2171
 30
0.0
 10
-15.9245
 20
-33.2171
 30
0.0
 10
-16.0052
 20
-33.1464
 30
0.0
 10
-16.0052
 20
-33.1464
 30
0.0
 10
-16.0052
 20
-33.1464
 30
0.0
 10
-16.0052
 20
-33.1464
 30
0.0
 10
-16.0961
 20
-33.1262
 30
0.0
 10
-16.0961
 20
-33.1262
 30
0.0
 10
-16.0961
 20
-33.1262
 30
0.0
 10
-16.0961
 20
-33.1262
 30
0.0
 10
-16.2172
 20
-33.1262
 30
0.0
 10
-16.2172
 20
-33.1262
 30
0.0
 10
-16.2172
 20
-33.1262
 30
0.0
 10
-16.2172
 20
-33.1262
 30
0.0
 10
-16.298
 20
-33.1666
 30
0.0
 10
-16.298
 20
-33.1666
 30
0.0
 10
-16.298
 20
-33.1666
 30
0.0
 10
-16.298
 20
-33.1666
 30
0.0
 10
-16.3889
 20
-33.2776
 30
0.0
 10
-16.3889
 20
-33.2776
 30
0.0
 10
-16.3889
 20
-33.2776
 30
0.0
 10
-16.3889
 20
-33.2776
 30
0.0
 10
-16.4191
 20
-33.419
 30
0.0
 10
-16.4191
 20
-33.419
 30
0.0
 10
-16.4191
 20
-33.419
 30
0.0
 10
-16.4191
 20
-33.419
 30
0.0
 10
-16.4191
 20
-34.6304
 30
0.0
 10
-16.4191
 20
-34.6304
 30
0.0
 10
-16.4191
 20
-34.6304
 30
0.0
 10
-16.4191
 20
-34.6304
 30
0.0
 10
-18.6705
 20
-34.6304
 30
0.0
 10
-18.6705
 20
-34.6304
 30
0.0
 10
-18.6705
 20
-34.6304
 30
0.0
 10
-18.6705
 20
-34.6304
 30
0.0
 10
-18.6705
 20
-33.3382
 30
0.0
 10
-18.6705
 20
-33.3382
 30
0.0
 10
-18.6705
 20
-33.3382
 30
0.0
 10
-18.6705
 20
-33.3382
 30
0.0
 10
-18.731
 20
-33.1868
 30
0.0
 10
-18.731
 20
-33.1868
 30
0.0
 10
-18.731
 20
-33.1868
 30
0.0
 10
-18.731
 20
-33.1868
 30
0.0
 10
-18.832
 20
-33.1363
 30
0.0
 10
-18.832
 20
-33.1363
 30
0.0
 10
-18.832
 20
-33.1363
 30
0.0
 10
-18.832
 20
-33.1363
 30
0.0
 10
-18.9329
 20
-33.1363
 30
0.0
 10
-18.9329
 20
-33.1363
 30
0.0
 10
-18.9329
 20
-33.1363
 30
0.0
 10
-18.9329
 20
-33.1363
 30
0.0
 10
-19.0238
 20
-33.1969
 30
0.0
 10
-19.0238
 20
-33.1969
 30
0.0
 10
-19.0238
 20
-33.1969
 30
0.0
 10
-19.0238
 20
-33.1969
 30
0.0
 10
-19.0743
 20
-33.3483
 30
0.0
 10
-19.0743
 20
-33.3483
 30
0.0
 10
-19.0743
 20
-33.3483
 30
0.0
 10
-19.0743
 20
-33.3483
 30
0.0
 10
-19.044
 20
-34.6809
 30
0.0
 10
-19.044
 20
-34.6809
 30
0.0
 10
-19.044
 20
-34.6809
 30
0.0
 10
-19.044
 20
-34.6809
 30
0.0
 10
-19.9526
 20
-34.6506
 30
0.0
 10
-19.9526
 20
-34.6506
 30
0.0
  0
SPLINE
  5
72
330
1F
100
AcDbEntity
  8
AXIS
 62
   250
100
AcDbSpline
210
0.0
220
0.0
230
1.0
 70
     8
 71
     3
 72
    32
 73
    28
 74
     0
 42
0.0000000001
 43
0.0000000001
 40
0.0
 40
0.0
 40
0.0
 40
0.0
 40
0.125
 40
0.125
 40
0.125
 40
0.125
 40
0.25
 40
0.25
 40
0.25
 40
0.25
 40
0.375
 40
0.375
 40
0.375
 40
0.375
 40
0.5
 40
0.5
 40
0.5
 40
0.5
 40
0.625
 40
0.625
 40
0.625
 40
0.625
 40
0.75
 40
0.75
 40
0.75
 40
0.75
 40
1.0
 40
1.0
 40
1.0
 40
1.0
 10
-28.689
 20
-33.5879
 30
0.0
 10
-28.689
 20
-33.5879
 30
0.0
 10
-21.4824
 20
-33.0325
 30
0.0
 10
-21.4824
 20
-33.0325
 30
0.0
 10
-21.4824
 20
-33.0325
 30
0.0
 10
-21.4824
 20
-33.0325
 30
0.0
 10
-19.9303
 20
-31.1304
 30
0.0
 10
-19.9303
 20
-31.1304
 30
0.0
 10
-19.9303
 20
-31.1304
 30
0.0
 10
-19.811
 20
-30.9881
 30
0.0
 10
-19.6402
 20
-30.8992
 30
0.0
 10
-19.4553
 20
-30.8831
 30
0.0
 10
-19.4553
 20
-30.8831
 30
0.0
 10
-19.4553
 20
-30.8831
 30
0.0
 10
-18.915
 20
-30.8427
 30
0.0
 10
-18.915
 20
-30.8427
 30
0.0
 10
-18.915
 20
-30.8427
 30
0.0
 10
-18.915
 20
-30.8427
 30
0.0
 10
-17.0065
 20
-30.7003
 30
0.0
 10
-17.0065
 20
-30.7003
 30
0.0
 10
-17.0065
 20
-30.7003
 30
0.0
 10
-17.0065
 20
-30.7003
 30
0.0
 10
-16.0756
 20
-29.6776
 30
0.0
 10
-16.0756
 20
-29.6776
 30
0.0
 10
-16.0756
 20
-29.6776
 30
0.0
 10
-16.0756
 20
-29.6776
 30
0.0
 10
-13.3542
 20
-29.6776
 30
0.0
 10
-13.3542
 20
-29.6776
 30
0.0
  0
SPLINE
  5
73
330
1F
100
AcDbEntity
  8
AXIS
 62
   250
100
AcDbSpline
210
0.0
220
0.0
230
1.0
 70
     8
 71
     3
 72
    24
 73
    20
 74
     0
 42
0.0000000001
 43
0.0000000001
 40
0.0
 40
0.0
 40
0.0
 40
0.0
 40
0.1666666666666667
 40
0.1666666666666667
 40
0.1666666666666667
 40
0.1666666666666667
 40
0.3333333333333333
 40
0.3333333333333333
 40
0.3333333333333333
 40
0.3333333333333333
 40
0.5
 40
0.5
 40
0.5
 40
0.5
 40
0.6666666666666666
 40
0.6666666666666666
 40
0.6666666666666666
 40
0.6666666666666666
 40
1.0
 40
1.0
 40
1.0
 40
1.0
 10
-29.7184
 20
-27.3625
 30
0.0
 10
-29.7184
 20
-27.3625
 30
0.0
 10
-36.3444
 20
-27.9422
 30
0.0
 10
-36.3444
 20
-27.9422
 30
0.0
 10
-36.3444
 20
-27.9422
 30
0.0
 10
-36.3444
 20
-27.9422
 30
0.0
 10
-36.7604
 20
-28.125
 30
0.0
 10
-36.7604
 20
-28.125
 30
0.0
 10
-36.7604
 20
-28.125
 30
0.0
 10
-36.7604
 20
-28.125
 30
0.0
 10
-36.1565
 20
-34.8742
 30
0.0
 10
-36.1565
 20
-34.8742
 30
0.0
 10
-36.1565
 20
-34.8742
 30
0.0
 10
-36.1565
 20
-34.8742
 30
0.0
 10
-35.697
 20
-34.94
 30
0.0
 10
-35.697
 20
-34.94
 30
0.0
 10
-35.697
 20
-34.94
 30
0.0
 10
-35.697
 20
-34.94
 30
0.0
 10
-29.1454
 20
-34.3348
 30
0.0
 10
-29.1454
 20
-34.3348
 30
0.0
  0
SPLINE
  5
74
330
1F
100
AcDbEntity
  8
AXIS
 62
   250
100
AcDbSpline
210
0.0
220
0.0
230
1.0
 70
     8
 71
     3
 72
    20
 73
    16
 74
     0
 42
0.0000000001
 43
0.0000000001
 40
0.0
 40
0.0
 40
0.0
 40
0.0
 40
0.2
 40
0.2
 40
0.2
 40
0.2
 40
0.4
 40
0.4
 40
0.4
 40
0.4
 40
0.6
 40
0.6
 40
0.6
 40
0.6
 40
1.0
 40
1.0
 40
1.0
 40
1.0
 10
-29.1575
 20
-28.0233
 30
0.0
 10
-29.1575
 20
-28.0233
 30
0.0
 10
-16.3598
 20
-26.8962
 30
0.0
 10
-16.3598
 20
-26.8962
 30
0.0
 10
-16.3598
 20
-26.8962
 30
0.0
 10
-15.578
 20
-26.8278
 30
0.0
 10
-14.8034
 20
-27.0907
 30
0.0
 10
-14.2248
 20
-27.6209
 30
0.0
 10
-14.2248
 20
-27.6209
 30
0.0
 10
-13.6462
 20
-28.1511
 30
0.0
 10
-13.3167
 20
-28.8999
 30
0.0
 10
-13.3167
 20
-29.6847
 30
0.0
 10
-13.3167
 20
-29.6847
 30
0.0
 10
-13.3167
 20
-29.6847
 30
0.0
 10
-13.3149
 20
-32.4744
 30
0.0
 10
-13.3149
 20
-32.4744
 30
0.0
  0
SPLINE
  5
75
330
1F
100
AcDbEntity
  8
AXIS
 62
   250
100
AcDbSpline
210
0.0
220
0.0
230
1.0
 70
    27
 71
     3
 72
    20
 73
    16
 74
     0
 42
0.0000000001
 43
0.0000000001
 40
0.0
 40
0.0
 40
0.0
 40
0.0
 40
0.2
 40
0.2
 40
0.2
 40
0.2
 40
0.4
 40
0.4
 40
0.4
 40
0.4
 40
0.6
 40
0.6
 40
0.6
 40
0.6
 40
1.0
 40
1.0
 40
1.0
 40
1.0
 10
-18.915
 20
-32.4138
 30
0.0
 10
-18.915
 20
-32.4138
 30
0.0
 10
-18.915
 20
-31.1054
 30
0.0
 10
-18.915
 20
-31.1054
 30
0.0
 10
-18.915
 20
-31.1054
 30
0.0
 10
-18.915
 20
-31.1054
 30
0.0
 10
-18.915
 20
-30.8427
 30
0.0
 10
-18.915
 20
-30.8427
 30
0.0
 10
-18.915
 20
-30.8427
 30
0.0
 10
-18.915
 20
-30.8427
 30
0.0
 10
-18.915
 20
-30.8358
 30
0.0
 10
-18.915
 20
-30.8358
 30
0.0
 10
-18.915
 20
-30.8358
 30
0.0
 10
-18.915
 20
-30.8358
 30
0.0
 10
-18.915
 20
-32.4138
 30
0.0
 10
-18.915
 20
-32.4138
 30
0.0
  0
SPLINE
  5
76
330
1F
100
AcDbEntity
  8
AXIS
 62
   250
100
AcDbSpline
210
0.0
220
0.0
230
1.0
 70
    27
 71
     3
 72
    12
 73
     8
 74
     0
 42
0.0000000001
 43
0.0000000001
 40
0.0
 40
0.0
 40
0.0
 40
0.0
 40
0.3333333333333333
 40
0.3333333333333333
 40
0.3333333333333333
 40
0.3333333333333333
 40
1.0
 40
1.0
 40
1.0
 40
1.0
 10
-35.7345
 20
-34.9133
 30
0.0
 10
-35.7345
 20
-34.9133
 30
0.0
 10
-36.3444
 20
-27.9422
 30
0.0
 10
-36.3444
 20
-27.9422
 30
0.0
 10
-36.3444
 20
-27.9422
 30
0.0
 10
-36.3444
 20
-27.9422
 30
0.0
 10
-35.7345
 20
-34.9133
 30
0.0
 10
-35.7345
 20
-34.9133
 30
0.0
  0
SPLINE
  5
77
330
1F
100
AcDbEntity
  8
AXIS
 62
   250
100
AcDbSpline
210
0.0
220
0.0
230
1.0
 70
    11
 71
     3
 72
    36
 73
    32
 74
     0
 42
0.0000000001
 43
0.0000000001
 40
0.0
 40
0.0
 40
0.0
 40
0.0
 40
0.1111111111111111
 40
0.1111111111111111
 40
0.1111111111111111
 40
0.1111111111111111
 40
0.2222222222222222
 40
0.2222222222222222
 40
0.2222222222222222
 40
0.2222222222222222
 40
0.3333333333333333
 40
0.3333333333333333
 40
0.3333333333333333
 40
0.3333333333333333
 40
0.4444444444444444
 40
0.4444444444444444
 40
0.4444444444444444
 40
0.4444444444444444
 40
0.5555555555555556
 40
0.5555555555555556
 40
0.5555555555555556
 40
0.5555555555555556
 40
0.6666666666666666
 40
0.6666666666666666
 40
0.6666666666666666
 40
0.6666666666666666
 40
0.7777777777777778
 40
0.7777777777777778
 40
0.7777777777777778
 40
0.7777777777777778
 40
1.0
 40
1.0
 40
1.0
 40
1.0
 10
-29.0866
 20
-34.5846
 30
0.0
 10
-29.0866
 20
-34.5846
 30
0.0
 10
-29.7403
 20
-27.1115
 30
0.0
 10
-29.7403
 20
-27.1115
 30
0.0
 10
-29.7403
 20
-27.1115
 30
0.0
 10
-29.7403
 20
-27.1115
 30
0.0
 10
-29.5393
 20
-27.0989
 30
0.0
 10
-29.5393
 20
-27.0989
 30
0.0
 10
-29.5393
 20
-27.0989
 30
0.0
 10
-29.5393
 20
-27.0989
 30
0.0
 10
-29.1586
 20
-28.0329
 30
0.0
 10
-29.1586
 20
-28.0329
 30
0.0
 10
-29.1586
 20
-28.0329
 30
0.0
 10
-29.1586
 20
-28.0329
 30
0.0
 10
-28.689
 20
-33.5879
 30
0.0
 10
-28.689
 20
-33.5879
 30
0.0
 10
-28.689
 20
-33.5879
 30
0.0
 10
-28.689
 20
-33.5879
 30
0.0
 10
-28.6888
 20
-33.5886
 30
0.0
 10
-28.6888
 20
-33.5886
 30
0.0
 10
-28.6888
 20
-33.5886
 30
0.0
 10
-28.6888
 20
-33.5886
 30
0.0
 10
-28.6859
 20
-33.6243
 30
0.0
 10
-28.6859
 20
-33.6243
 30
0.0
 10
-28.6859
 20
-33.6243
 30
0.0
 10
-28.6859
 20
-33.6243
 30
0.0
 10
-28.8828
 20
-34.5584
 30
0.0
 10
-28.8828
 20
-34.5584
 30
0.0
 10
-28.8828
 20
-34.5584
 30
0.0
 10
-28.8828
 20
-34.5584
 30
0.0
 10
-29.0866
 20
-34.5846
 30
0.0
 10
-29.0866
 20
-34.5846
 30
0.0
  0
SPLINE
  5
78
330
1F
100
AcDbEntity
  8
AXIS
 62
   250
100
AcDbSpline
210
0.0
220
0.0
230
1.0
 70
     8
 71
     3
 72
    48
 73
    44
 74
     0
 42
0.0000000001
 43
0.0000000001
 40
0.0
 40
0.0
 40
0.0
 40
0.0
 40
0.0833333333333333
 40
0.0833333333333333
 40
0.0833333333333333
 40
0.0833333333333333
 40
0.1666666666666667
 40
0.1666666666666667
 40
0.1666666666666667
 40
0.1666666666666667
 40
0.25
 40
0.25
 40
0.25
 40
0.25
 40
0.3333333333333333
 40
0.3333333333333333
 40
0.3333333333333333
 40
0.3333333333333333
 40
0.4166666666666667
 40
0.4166666666666667
 40
0.4166666666666667
 40
0.4166666666666667
 40
0.5
 40
0.5
 40
0.5
 40
0.5
 40
0.5833333333333334
 40
0.5833333333333334
 40
0.5833333333333334
 40
0.5833333333333334
 40
0.6666666666666666
 40
0.6666666666666666
 40
0.6666666666666666
 40
0.6666666666666666
 40
0.75
 40
0.75
 40
0.75
 40
0.75
 40
0.8333333333333334
 40
0.8333333333333334
 40
0.8333333333333334
 40
0.8333333333333334
 40
1.0
 40
1.0
 40
1.0
 40
1.0
 10
-19.4828
 20
-37.7821
 30
0.0
 10
-19.4828
 20
-37.7821
 30
0.0
 10
-19.4812
 20
-38.0261
 30
0.0
 10
-19.4812
 20
-38.0261
 30
0.0
 10
-19.4812
 20
-38.0261
 30
0.0
 10
-19.4812
 20
-39.1854
 30
0.0
 10
-18.5413
 20
-40.1253
 30
0.0
 10
-17.3818
 20
-40.1253
 30
0.0
 10
-17.3818
 20
-40.1253
 30
0.0
 10
-17.3818
 20
-40.1253
 30
0.0
 10
-7.5405
 20
-40.1292
 30
0.0
 10
-7.5405
 20
-40.1292
 30
0.0
 10
-7.5405
 20
-40.1292
 30
0.0
 10
-7.5405
 20
-40.1292
 30
0.0
 10
-1.8087
 20
-40.1341
 30
0.0
 10
-1.8087
 20
-40.1341
 30
0.0
 10
-1.8087
 20
-40.1341
 30
0.0
 10
-1.8087
 20
-40.1341
 30
0.0
 10
-1.3773
 20
-40.0262
 30
0.0
 10
-1.3773
 20
-40.0262
 30
0.0
 10
-1.3773
 20
-40.0262
 30
0.0
 10
-1.3773
 20
-40.0262
 30
0.0
 10
-0.8203
 20
-39.8105
 30
0.0
 10
-0.8203
 20
-39.8105
 30
0.0
 10
-0.8203
 20
-39.8105
 30
0.0
 10
-0.8203
 20
-39.8105
 30
0.0
 10
-0.3889
 20
-39.3972
 30
0.0
 10
-0.3889
 20
-39.3972
 30
0.0
 10
-0.3889
 20
-39.3972
 30
0.0
 10
-0.3889
 20
-39.3972
 30
0.0
 10
-0.1373
 20
-39.0738
 30
0.0
 10
-0.1373
 20
-39.0738
 30
0.0
 10
-0.1373
 20
-39.0738
 30
0.0
 10
-0.1373
 20
-39.0738
 30
0.0
 10
0.0425
 20
-38.5705
 30
0.0
 10
0.0425
 20
-38.5705
 30
0.0
 10
0.0425
 20
-38.5705
 30
0.0
 10
0.0425
 20
-38.5705
 30
0.0
 10
0.1144
 20
-38.229
 30
0.0
 10
0.1144
 20
-38.229
 30
0.0
 10
0.1144
 20
-38.229
 30
0.0
 10
0.1144
 20
-38.229
 30
0.0
 10
0.0963
 20
-37.7978
 30
0.0
 10
0.0963
 20
-37.7978
 30
0.0
  0
SPLINE
  5
79
330
1F
100
AcDbEntity
  8
AXIS
 62
   250
100
AcDbSpline
210
0.0
220
0.0
230
1.0
 70
     8
 71
     3
 72
    64
 73
    60
 74
     0
 42
0.0000000001
 43
0.0000000001
 40
0.0
 40
0.0
 40
0.0
 40
0.0
 40
0.0625
 40
0.0625
 40
0.0625
 40
0.0625
 40
0.125
 40
0.125
 40
0.125
 40
0.125
 40
0.1875
 40
0.1875
 40
0.1875
 40
0.1875
 40
0.25
 40
0.25
 40
0.25
 40
0.25
 40
0.3125
 40
0.3125
 40
0.3125
 40
0.3125
 40
0.375
 40
0.375
 40
0.375
 40
0.375
 40
0.4375
 40
0.4375
 40
0.4375
 40
0.4375
 40
0.5
 40
0.5
 40
0.5
 40
0.5
 40
0.5625
 40
0.5625
 40
0.5625
 40
0.5625
 40
0.625
 40
0.625
 40
0.625
 40
0.625
 40
0.6875
 40
0.6875
 40
0.6875
 40
0.6875
 40
0.75
 40
0.75
 40
0.75
 40
0.75
 40
0.8125
 40
0.8125
 40
0.8125
 40
0.8125
 40
0.875
 40
0.875
 40
0.875
 40
0.875
 40
1.0
 40
1.0
 40
1.0
 40
1.0
 10
-19.6141
 20
-37.1318
 30
0.0
 10
-19.6047
 20
-36.8732
 30
0.0
 10
-19.506
 20
-36.6258
 30
0.0
 10
-19.3348
 20
-36.4317
 30
0.0
 10
-19.3348
 20
-36.4317
 30
0.0
 10
-19.3348
 20
-36.4317
 30
0.0
 10
-19.1599
 20
-36.1353
 30
0.0
 10
-19.1599
 20
-36.1353
 30
0.0
 10
-19.1599
 20
-36.1353
 30
0.0
 10
-19.1599
 20
-36.1353
 30
0.0
 10
-19.1599
 20
-35.9556
 30
0.0
 10
-19.1599
 20
-35.9556
 30
0.0
 10
-19.1599
 20
-35.9556
 30
0.0
 10
-19.1599
 20
-35.9556
 30
0.0
 10
-19.1509
 20
-35.2276
 30
0.0
 10
-19.1509
 20
-35.2276
 30
0.0
 10
-19.1509
 20
-35.2276
 30
0.0
 10
-19.1509
 20
-35.2276
 30
0.0
 10
-19.3575
 20
-35.03
 30
0.0
 10
-19.3575
 20
-35.03
 30
0.0
 10
-19.3575
 20
-35.03
 30
0.0
 10
-19.3575
 20
-35.03
 30
0.0
 10
-19.1418
 20
-35.2276
 30
0.0
 10
-19.1418
 20
-35.2276
 30
0.0
 10
-19.1418
 20
-35.2276
 30
0.0
 10
-19.1418
 20
-35.2276
 30
0.0
 10
-13.0672
 20
-35.2276
 30
0.0
 10
-13.0672
 20
-35.2276
 30
0.0
 10
-13.0672
 20
-35.2276
 30
0.0
 10
-13.0672
 20
-35.2276
 30
0.0
 10
-12.8245
 20
-35.03
 30
0.0
 10
-12.8245
 20
-35.03
 30
0.0
 10
-12.8245
 20
-35.03
 30
0.0
 10
-12.8245
 20
-35.03
 30
0.0
 10
-13.0851
 20
-35.2455
 30
0.0
 10
-13.0851
 20
-35.2455
 30
0.0
 10
-13.0851
 20
-35.2455
 30
0.0
 10
-13.0851
 20
-35.2455
 30
0.0
 10
-13.0582
 20
-35.596
 30
0.0
 10
-13.0582
 20
-35.596
 30
0.0
 10
-13.0582
 20
-35.596
 30
0.0
 10
-13.0582
 20
-35.596
 30
0.0
 10
-12.9594
 20
-35.7759
 30
0.0
 10
-12.9594
 20
-35.7759
 30
0.0
 10
-12.9594
 20
-35.7759
 30
0.0
 10
-12.9594
 20
-35.7759
 30
0.0
 10
-12.8605
 20
-35.8298
 30
0.0
 10
-12.8605
 20
-35.8298
 30
0.0
 10
-12.8605
 20
-35.8298
 30
0.0
 10
-12.8605
 20
-35.8298
 30
0.0
 10
-12.6718
 20
-35.9914
 30
0.0
 10
-12.6718
 20
-35.9914
 30
0.0
 10
-12.6718
 20
-35.9914
 30
0.0
 10
-12.6718
 20
-35.9914
 30
0.0
 10
-12.4561
 20
-36.0454
 30
0.0
 10
-12.4561
 20
-36.0454
 30
0.0
 10
-12.4561
 20
-36.0454
 30
0.0
 10
-12.4561
 20
-36.0454
 30
0.0
 10
-12.1685
 20
-36.0544
 30
0.0
 10
-12.1685
 20
-36.0544
 30
0.0
  0
SPLINE
  5
7A
330
1F
100
AcDbEntity
  8
AXIS
 62
   250
100
AcDbSpline
210
0.0
220
0.0
230
1.0
 70
     8
 71
     3
 72
    12
 73
     8
 74
     0
 42
0.0000000001
 43
0.0000000001
 40
0.0
 40
0.0
 40
0.0
 40
0.0
 40
0.3333333333333333
 40
0.3333333333333333
 40
0.3333333333333333
 40
0.3333333333333333
 40
1.0
 40
1.0
 40
1.0
 40
1.0
 10
-7.0536
 20
-36.0526
 30
0.0
 10
-6.6672
 20
-36.0526
 30
0.0
 10
-6.354
 20
-35.7394
 30
0.0
 10
-6.354
 20
-35.3528
 30
0.0
 10
-6.354
 20
-35.3528
 30
0.0
 10
-6.354
 20
-35.3528
 30
0.0
 10
-6.3633
 20
-33.0878
 30
0.0
 10
-6.3633
 20
-33.0878
 30
0.0
  0
SPLINE
  5
7B
330
1F
100
AcDbEntity
  8
AXIS
 62
   250
100
AcDbSpline
210
0.0
220
0.0
230
1.0
 70
     8
 71
     3
 72
    60
 73
    56
 74
     0
 42
0.0000000001
 43
0.0000000001
 40
0.0
 40
0.0
 40
0.0
 40
0.0
 40
0.0666666666666667
 40
0.0666666666666667
 40
0.0666666666666667
 40
0.0666666666666667
 40
0.1333333333333333
 40
0.1333333333333333
 40
0.1333333333333333
 40
0.1333333333333333
 40
0.2
 40
0.2
 40
0.2
 40
0.2
 40
0.2666666666666667
 40
0.2666666666666667
 40
0.2666666666666667
 40
0.2666666666666667
 40
0.3333333333333333
 40
0.3333333333333333
 40
0.3333333333333333
 40
0.3333333333333333
 40
0.4
 40
0.4
 40
0.4
 40
0.4
 40
0.4666666666666667
 40
0.4666666666666667
 40
0.4666666666666667
 40
0.4666666666666667
 40
0.5333333333333333
 40
0.5333333333333333
 40
0.5333333333333333
 40
0.5333333333333333
 40
0.6
 40
0.6
 40
0.6
 40
0.6
 40
0.6666666666666666
 40
0.6666666666666666
 40
0.6666666666666666
 40
0.6666666666666666
 40
0.7333333333333333
 40
0.7333333333333333
 40
0.7333333333333333
 40
0.7333333333333333
 40
0.8
 40
0.8
 40
0.8
 40
0.8
 40
0.8666666666666667
 40
0.8666666666666667
 40
0.8666666666666667
 40
0.8666666666666667
 40
1.0
 40
1.0
 40
1.0
 40
1.0
 10
-0.3963
 20
-36.3051
 30
0.0
 10
-0.3963
 20
-36.3051
 30
0.0
 10
-3.5199
 20
-36.307
 30
0.0
 10
-3.5199
 20
-36.307
 30
0.0
 10
-3.5199
 20
-36.307
 30
0.0
 10
-3.5199
 20
-36.307
 30
0.0
 10
-3.9596
 20
-36.2934
 30
0.0
 10
-3.9596
 20
-36.2934
 30
0.0
 10
-3.9596
 20
-36.2934
 30
0.0
 10
-3.9596
 20
-36.2934
 30
0.0
 10
-4.4608
 20
-36.248
 30
0.0
 10
-4.4608
 20
-36.248
 30
0.0
 10
-4.4608
 20
-36.248
 30
0.0
 10
-4.4608
 20
-36.248
 30
0.0
 10
-4.9737
 20
-36.1796
 30
0.0
 10
-4.9737
 20
-36.1796
 30
0.0
 10
-4.9737
 20
-36.1796
 30
0.0
 10
-4.9737
 20
-36.1796
 30
0.0
 10
-5.4388
 20
-36.1129
 30
0.0
 10
-5.4388
 20
-36.1129
 30
0.0
 10
-5.4388
 20
-36.1129
 30
0.0
 10
-5.4388
 20
-36.1129
 30
0.0
 10
-5.8214
 20
-36.0683
 30
0.0
 10
-5.8214
 20
-36.0683
 30
0.0
 10
-5.8214
 20
-36.0683
 30
0.0
 10
-5.8214
 20
-36.0683
 30
0.0
 10
-6.1329
 20
-36.0526
 30
0.0
 10
-6.1329
 20
-36.0526
 30
0.0
 10
-6.1329
 20
-36.0526
 30
0.0
 10
-6.1329
 20
-36.0526
 30
0.0
 10
-12.7949
 20
-36.0515
 30
0.0
 10
-12.7949
 20
-36.0515
 30
0.0
 10
-12.7949
 20
-36.0515
 30
0.0
 10
-12.7949
 20
-36.0515
 30
0.0
 10
-13.2598
 20
-36.0374
 30
0.0
 10
-13.2598
 20
-36.0374
 30
0.0
 10
-13.2598
 20
-36.0374
 30
0.0
 10
-13.2598
 20
-36.0374
 30
0.0
 10
-13.6404
 20
-36.0937
 30
0.0
 10
-13.6404
 20
-36.0937
 30
0.0
 10
-13.6404
 20
-36.0937
 30
0.0
 10
-13.6404
 20
-36.0937
 30
0.0
 10
-14.5562
 20
-36.2488
 30
0.0
 10
-14.5562
 20
-36.2488
 30
0.0
 10
-14.5562
 20
-36.2488
 30
0.0
 10
-14.5562
 20
-36.2488
 30
0.0
 10
-15.4861
 20
-36.4178
 30
0.0
 10
-15.4861
 20
-36.4178
 30
0.0
 10
-15.4861
 20
-36.4178
 30
0.0
 10
-15.4861
 20
-36.4178
 30
0.0
 10
-16.3314
 20
-36.4319
 30
0.0
 10
-16.3314
 20
-36.4319
 30
0.0
 10
-16.3314
 20
-36.4319
 30
0.0
 10
-16.3314
 20
-36.4319
 30
0.0
 10
-19.3309
 20
-36.4192
 30
0.0
 10
-19.3309
 20
-36.4192
 30
0.0
  0
SPLINE
  5
7C
330
1F
100
AcDbEntity
  8
AXIS
 62
   250
100
AcDbSpline
210
0.0
220
0.0
230
1.0
 70
     8
 71
     3
 72
    24
 73
    20
 74
     0
 42
0.0000000001
 43
0.0000000001
 40
0.0
 40
0.0
 40
0.0
 40
0.0
 40
0.1666666666666667
 40
0.1666666666666667
 40
0.1666666666666667
 40
0.1666666666666667
 40
0.3333333333333333
 40
0.3333333333333333
 40
0.3333333333333333
 40
0.3333333333333333
 40
0.5
 40
0.5
 40
0.5
 40
0.5
 40
0.6666666666666666
 40
0.6666666666666666
 40
0.6666666666666666
 40
0.6666666666666666
 40
1.0
 40
1.0
 40
1.0
 40
1.0
 10
-0.6833
 20
-33.1121
 30
0.0
 10
-0.6833
 20
-33.1121
 30
0.0
 10
-0.6857
 20
-35.7661
 30
0.0
 10
-0.6857
 20
-35.7661
 30
0.0
 10
-0.6857
 20
-35.7661
 30
0.0
 10
-0.6857
 20
-35.9756
 30
0.0
 10
-0.592
 20
-36.1741
 30
0.0
 10
-0.43
 20
-36.307
 30
0.0
 10
-0.43
 20
-36.307
 30
0.0
 10
-0.43
 20
-36.307
 30
0.0
 10
-0.1857
 20
-36.5537
 30
0.0
 10
-0.1857
 20
-36.5537
 30
0.0
 10
-0.1857
 20
-36.5537
 30
0.0
 10
-0.1857
 20
-36.5537
 30
0.0
 10
-0.0281
 20
-36.87
 30
0.0
 10
-0.0281
 20
-36.87
 30
0.0
 10
-0.0281
 20
-36.87
 30
0.0
 10
-0.0281
 20
-36.87
 30
0.0
 10
-0.0157
 20
-37.1739
 30
0.0
 10
-0.0157
 20
-37.1739
 30
0.0
  0
SPLINE
  5
7D
330
1F
100
AcDbEntity
  8
AXIS
 62
   250
100
AcDbSpline
210
0.0
220
0.0
230
1.0
 70
    11
 71
     3
 72
    40
 73
    36
 74
     0
 42
0.0000000001
 43
0.0000000001
 40
0.0
 40
0.0
 40
0.0
 40
0.0
 40
0.1
 40
0.1
 40
0.1
 40
0.1
 40
0.2
 40
0.2
 40
0.2
 40
0.2
 40
0.3
 40
0.3
 40
0.3
 40
0.3
 40
0.4
 40
0.4
 40
0.4
 40
0.4
 40
0.5
 40
0.5
 40
0.5
 40
0.5
 40
0.6
 40
0.6
 40
0.6
 40
0.6
 40
0.7
 40
0.7
 40
0.7
 40
0.7
 40
0.8
 40
0.8
 40
0.8
 40
0.8
 40
1.0
 40
1.0
 40
1.0
 40
1.0
 10
-19.8039
 20
-37.1867
 30
0.0
 10
-19.8039
 20
-37.1867
 30
0.0
 10
0.1846
 20
-37.1867
 30
0.0
 10
0.1846
 20
-37.1867
 30
0.0
 10
0.1846
 20
-37.1867
 30
0.0
 10
0.233
 20
-37.1867
 30
0.0
 10
0.2727
 20
-37.2262
 30
0.0
 10
0.2727
 20
-37.2748
 30
0.0
 10
0.2727
 20
-37.2748
 30
0.0
 10
0.2727
 20
-37.2748
 30
0.0
 10
0.2727
 20
-37.6694
 30
0.0
 10
0.2727
 20
-37.6694
 30
0.0
 10
0.2727
 20
-37.6694
 30
0.0
 10
0.2727
 20
-37.718
 30
0.0
 10
0.233
 20
-37.7575
 30
0.0
 10
0.1846
 20
-37.7575
 30
0.0
 10
0.1846
 20
-37.7575
 30
0.0
 10
0.1846
 20
-37.7575
 30
0.0
 10
-19.8323
 20
-37.7575
 30
0.0
 10
-19.8323
 20
-37.7575
 30
0.0
 10
-19.8323
 20
-37.7575
 30
0.0
 10
-19.8808
 20
-37.7575
 30
0.0
 10
-19.9204
 20
-37.718
 30
0.0
 10
-19.9204
 20
-37.6694
 30
0.0
 10
-19.9204
 20
-37.6694
 30
0.0
 10
-19.9204
 20
-37.6694
 30
0.0
 10
-19.9204
 20
-37.2748
 30
0.0
 10
-19.9204
 20
-37.2748
 30
0.0
 10
-19.9204
 20
-37.2748
 30
0.0
 10
-19.9204
 20
-37.2262
 30
0.0
 10
-19.8808
 20
-37.1867
 30
0.0
 10
-19.8323
 20
-37.1867
 30
0.0
 10
-19.8323
 20
-37.1867
 30
0.0
 10
-19.8323
 20
-37.1867
 30
0.0
 10
-19.8039
 20
-37.1867
 30
0.0
 10
-19.8039
 20
-37.1867
 30
0.0
  0
SPLINE
  5
7E
330
1F
100
AcDbEntity
  8
AXIS
 62
   250
100
AcDbSpline
210
0.0
220
0.0
230
1.0
 70
    24
 71
     3
 72
     8
 73
     4
 74
     0
 42
0.0000000001
 43
0.0000000001
 40
0.0
 40
0.0
 40
0.0
 40
0.0
 40
1.0
 40
1.0
 40
1.0
 40
1.0
 10
0.9028
 20
-29.3294
 30
0.0
 10
0.9028
 20
-29.3294
 30
0.0
 10
0.9028
 20
-25.1998
 30
0.0
 10
0.9028
 20
-25.1998
 30
0.0
  0
SPLINE
  5
7F
330
1F
100
AcDbEntity
  8
AXIS
 62
   250
100
AcDbSpline
210
0.0
220
0.0
230
1.0
 70
     8
 71
     3
 72
    24
 73
    20
 74
     0
 42
0.0000000001
 43
0.0000000001
 40
0.0
 40
0.0
 40
0.0
 40
0.0
 40
0.1666666666666667
 40
0.1666666666666667
 40
0.1666666666666667
 40
0.1666666666666667
 40
0.3333333333333333
 40
0.3333333333333333
 40
0.3333333333333333
 40
0.3333333333333333
 40
0.5
 40
0.5
 40
0.5
 40
0.5
 40
0.6666666666666666
 40
0.6666666666666666
 40
0.6666666666666666
 40
0.6666666666666666
 40
1.0
 40
1.0
 40
1.0
 40
1.0
 10
-0.0431
 20
-25.1402
 30
0.0
 10
-0.0431
 20
-25.1402
 30
0.0
 10
0.8687
 20
-25.1618
 30
0.0
 10
0.8687
 20
-25.1618
 30
0.0
 10
0.8687
 20
-25.1618
 30
0.0
 10
0.8687
 20
-25.1618
 30
0.0
 10
1.994
 20
-24.5525
 30
0.0
 10
1.994
 20
-24.5525
 30
0.0
 10
1.994
 20
-24.5525
 30
0.0
 10
1.994
 20
-24.5525
 30
0.0
 10
3.1899
 20
-24.5727
 30
0.0
 10
3.1899
 20
-24.5727
 30
0.0
 10
3.1899
 20
-24.5727
 30
0.0
 10
3.1899
 20
-24.5727
 30
0.0
 10
3.2913
 20
-24.3494
 30
0.0
 10
3.2913
 20
-24.3494
 30
0.0
 10
3.2913
 20
-24.3494
 30
0.0
 10
3.2913
 20
-24.3494
 30
0.0
 10
3.5954
 20
-24.3392
 30
0.0
 10
3.5954
 20
-24.3392
 30
0.0
  0
SPLINE
  5
80
330
1F
100
AcDbEntity
  8
AXIS
 62
   250
100
AcDbSpline
210
0.0
220
0.0
230
1.0
 70
    24
 71
     3
 72
     8
 73
     4
 74
     0
 42
0.0000000001
 43
0.0000000001
 40
0.0
 40
0.0
 40
0.0
 40
0.0
 40
1.0
 40
1.0
 40
1.0
 40
1.0
 10
-0.9746
 20
-26.3312
 30
0.0
 10
-0.9746
 20
-26.3312
 30
0.0
 10
-3.7376
 20
-26.3312
 30
0.0
 10
-3.7376
 20
-26.3312
 30
0.0
  0
SPLINE
  5
81
330
1F
100
AcDbEntity
  8
AXIS
 62
   250
100
AcDbSpline
210
0.0
220
0.0
230
1.0
 70
    24
 71
     3
 72
     8
 73
     4
 74
     0
 42
0.0000000001
 43
0.0000000001
 40
0.0
 40
0.0
 40
0.0
 40
0.0
 40
1.0
 40
1.0
 40
1.0
 40
1.0
 10
0.1974
 20
-24.4299
 30
0.0
 10
0.1974
 20
-24.4299
 30
0.0
 10
0.4047
 20
-23.7088
 30
0.0
 10
0.4047
 20
-23.7088
 30
0.0
  0
SPLINE
  5
82
330
1F
100
AcDbEntity
  8
AXIS
 62
   250
100
AcDbSpline
210
0.0
220
0.0
230
1.0
 70
     8
 71
     3
 72
    12
 73
     8
 74
     0
 42
0.0000000001
 43
0.0000000001
 40
0.0
 40
0.0
 40
0.0
 40
0.0
 40
0.3333333333333333
 40
0.3333333333333333
 40
0.3333333333333333
 40
0.3333333333333333
 40
1.0
 40
1.0
 40
1.0
 40
1.0
 10
-3.8328
 20
-23.7088
 30
0.0
 10
-3.8328
 20
-23.7088
 30
0.0
 10
0.4047
 20
-23.7088
 30
0.0
 10
0.4047
 20
-23.7088
 30
0.0
 10
0.4047
 20
-23.7088
 30
0.0
 10
0.4047
 20
-23.7088
 30
0.0
 10
1.6649
 20
-23.4827
 30
0.0
 10
1.6649
 20
-23.4827
 30
0.0
  0
SPLINE
  5
83
330
1F
100
AcDbEntity
  8
AXIS
 62
   250
100
AcDbSpline
210
0.0
220
0.0
230
1.0
 70
     8
 71
     3
 72
    88
 73
    84
 74
     0
 42
0.0000000001
 43
0.0000000001
 40
0.0
 40
0.0
 40
0.0
 40
0.0
 40
0.0454545454545455
 40
0.0454545454545455
 40
0.0454545454545455
 40
0.0454545454545455
 40
0.0909090909090909
 40
0.0909090909090909
 40
0.0909090909090909
 40
0.0909090909090909
 40
0.1363636363636364
 40
0.1363636363636364
 40
0.1363636363636364
 40
0.1363636363636364
 40
0.1818181818181818
 40
0.1818181818181818
 40
0.1818181818181818
 40
0.1818181818181818
 40
0.2272727272727273
 40
0.2272727272727273
 40
0.2272727272727273
 40
0.2272727272727273
 40
0.2727272727272727
 40
0.2727272727272727
 40
0.2727272727272727
 40
0.2727272727272727
 40
0.3181818181818182
 40
0.3181818181818182
 40
0.3181818181818182
 40
0.3181818181818182
 40
0.3636363636363636
 40
0.3636363636363636
 40
0.3636363636363636
 40
0.3636363636363636
 40
0.4090909090909091
 40
0.4090909090909091
 40
0.4090909090909091
 40
0.4090909090909091
 40
0.4545454545454545
 40
0.4545454545454545
 40
0.4545454545454545
 40
0.4545454545454545
 40
0.5
 40
0.5
 40
0.5
 40
0.5
 40
0.5454545454545454
 40
0.5454545454545454
 40
0.5454545454545454
 40
0.5454545454545454
 40
0.5909090909090909
 40
0.5909090909090909
 40
0.5909090909090909
 40
0.5909090909090909
 40
0.6363636363636364
 40
0.6363636363636364
 40
0.6363636363636364
 40
0.6363636363636364
 40
0.6818181818181818
 40
0.6818181818181818
 40
0.6818181818181818
 40
0.6818181818181818
 40
0.7272727272727273
 40
0.7272727272727273
 40
0.7272727272727273
 40
0.7272727272727273
 40
0.7727272727272727
 40
0.7727272727272727
 40
0.7727272727272727
 40
0.7727272727272727
 40
0.8181818181818182
 40
0.8181818181818182
 40
0.8181818181818182
 40
0.8181818181818182
 40
0.8636363636363636
 40
0.8636363636363636
 40
0.8636363636363636
 40
0.8636363636363636
 40
0.9090909090909091
 40
0.9090909090909091
 40
0.9090909090909091
 40
0.9090909090909091
 40
1.0
 40
1.0
 40
1.0
 40
1.0
 10
0.4335
 20
-23.7197
 30
0.0
 10
0.4335
 20
-23.7197
 30
0.0
 10
-0.0823
 20
-25.2358
 30
0.0
 10
-0.0823
 20
-25.2358
 30
0.0
 10
-0.0823
 20
-25.2358
 30
0.0
 10
-0.0823
 20
-25.2358
 30
0.0
 10
-0.1615
 20
-25.3261
 30
0.0
 10
-0.1615
 20
-25.3261
 30
0.0
 10
-0.1615
 20
-25.3261
 30
0.0
 10
-0.1615
 20
-25.3261
 30
0.0
 10
-0.2638
 20
-25.4438
 30
0.0
 10
-0.2638
 20
-25.4438
 30
0.0
 10
-0.2638
 20
-25.4438
 30
0.0
 10
-0.2638
 20
-25.4438
 30
0.0
 10
-0.3845
 20
-25.5852
 30
0.0
 10
-0.3845
 20
-25.5852
 30
0.0
 10
-0.3845
 20
-25.5852
 30
0.0
 10
-0.3845
 20
-25.5852
 30
0.0
 10
-0.5214
 20
-25.749
 30
0.0
 10
-0.5214
 20
-25.749
 30
0.0
 10
-0.5214
 20
-25.749
 30
0.0
 10
-0.5214
 20
-25.749
 30
0.0
 10
-0.6707
 20
-25.9327
 30
0.0
 10
-0.6707
 20
-25.9327
 30
0.0
 10
-0.6707
 20
-25.9327
 30
0.0
 10
-0.6707
 20
-25.9327
 30
0.0
 10
-0.8258
 20
-26.1313
 30
0.0
 10
-0.8258
 20
-26.1313
 30
0.0
 10
-0.8258
 20
-26.1313
 30
0.0
 10
-0.8258
 20
-26.1313
 30
0.0
 10
-0.9746
 20
-26.3312
 30
0.0
 10
-0.9746
 20
-26.3312
 30
0.0
 10
-0.9746
 20
-26.3312
 30
0.0
 10
-0.9746
 20
-26.3312
 30
0.0
 10
-1.0938
 20
-26.704
 30
0.0
 10
-1.0938
 20
-26.704
 30
0.0
 10
-1.0938
 20
-26.704
 30
0.0
 10
-1.0938
 20
-26.704
 30
0.0
 10
-1.173
 20
-27.1013
 30
0.0
 10
-1.173
 20
-27.1013
 30
0.0
 10
-1.173
 20
-27.1013
 30
0.0
 10
-1.173
 20
-27.1013
 30
0.0
 10
-1.173
 20
-27.3871
 30
0.0
 10
-1.173
 20
-27.3871
 30
0.0
 10
-1.173
 20
-27.3871
 30
0.0
 10
-1.173
 20
-27.3871
 30
0.0
 10
-1.1256
 20
-27.7366
 30
0.0
 10
-1.1256
 20
-27.7366
 30
0.0
 10
-1.1256
 20
-27.7366
 30
0.0
 10
-1.1256
 20
-27.7366
 30
0.0
 10
-1.0145
 20
-28.102
 30
0.0
 10
-1.0145
 20
-28.102
 30
0.0
 10
-1.0145
 20
-28.102
 30
0.0
 10
-1.0145
 20
-28.102
 30
0.0
 10
-0.8084
 20
-28.5309
 30
0.0
 10
-0.8084
 20
-28.5309
 30
0.0
 10
-0.8084
 20
-28.5309
 30
0.0
 10
-0.8084
 20
-28.5309
 30
0.0
 10
-0.5865
 20
-28.9437
 30
0.0
 10
-0.5865
 20
-28.9437
 30
0.0
 10
-0.5865
 20
-28.9437
 30
0.0
 10
-0.5865
 20
-28.9437
 30
0.0
 10
-0.317
 20
-29.3568
 30
0.0
 10
-0.317
 20
-29.3568
 30
0.0
 10
-0.317
 20
-29.3568
 30
0.0
 10
-0.317
 20
-29.3568
 30
0.0
 10
0.8937
 20
-29.3209
 30
0.0
 10
0.8937
 20
-29.3209
 30
0.0
 10
0.8937
 20
-29.3209
 30
0.0
 10
0.8937
 20
-29.3209
 30
0.0
 10
2.019
 20
-29.9302
 30
0.0
 10
2.019
 20
-29.9302
 30
0.0
 10
2.019
 20
-29.9302
 30
0.0
 10
2.019
 20
-29.9302
 30
0.0
 10
3.2149
 20
-29.91
 30
0.0
 10
3.2149
 20
-29.91
 30
0.0
 10
3.2149
 20
-29.91
 30
0.0
 10
3.2149
 20
-29.91
 30
0.0
 10
3.3163
 20
-30.1333
 30
0.0
 10
3.3163
 20
-30.1333
 30
0.0
 10
3.3163
 20
-30.1333
 30
0.0
 10
3.3163
 20
-30.1333
 30
0.0
 10
3.6204
 20
-30.1435
 30
0.0
 10
3.6204
 20
-30.1435
 30
0.0
  0
SPLINE
  5
84
330
1F
100
AcDbEntity
  8
AXIS
 62
   250
100
AcDbSpline
210
0.0
220
0.0
230
1.0
 70
    24
 71
     3
 72
     8
 73
     4
 74
     0
 42
0.0000000001
 43
0.0000000001
 40
0.0
 40
0.0
 40
0.0
 40
0.0
 40
1.0
 40
1.0
 40
1.0
 40
1.0
 10
-0.238
 20
-30.5039
 30
0.0
 10
-0.238
 20
-30.5039
 30
0.0
 10
-0.238
 20
-30.0249
 30
0.0
 10
-0.238
 20
-30.0249
 30
0.0
  0
SPLINE
  5
85
330
1F
100
AcDbEntity
  8
AXIS
 62
   250
100
AcDbSpline
210
0.0
220
0.0
230
1.0
 70
    24
 71
     3
 72
     8
 73
     4
 74
     0
 42
0.0000000001
 43
0.0000000001
 40
0.0
 40
0.0
 40
0.0
 40
0.0
 40
1.0
 40
1.0
 40
1.0
 40
1.0
 10
-0.3492
 20
-29.7466
 30
0.0
 10
-0.3492
 20
-29.7466
 30
0.0
 10
-0.3492
 20
-29.3294
 30
0.0
 10
-0.3492
 20
-29.3294
 30
0.0
  0
SPLINE
  5
86
330
1F
100
AcDbEntity
  8
AXIS
 62
   250
100
AcDbSpline
210
0.0
220
0.0
230
1.0
 70
    24
 71
     3
 72
     8
 73
     4
 74
     0
 42
0.0000000001
 43
0.0000000001
 40
0.0
 40
0.0
 40
0.0
 40
0.0
 40
1.0
 40
1.0
 40
1.0
 40
1.0
 10
-6.721
 20
-30.5039
 30
0.0
 10
-6.721
 20
-30.5039
 30
0.0
 10
-6.721
 20
-30.2551
 30
0.0
 10
-6.721
 20
-30.2551
 30
0.0
  0
SPLINE
  5
87
330
1F
100
AcDbEntity
  8
AXIS
 62
   250
100
AcDbSpline
210
0.0
220
0.0
230
1.0
 70
     8
 71
     3
 72
    16
 73
    12
 74
     0
 42
0.0000000001
 43
0.0000000001
 40
0.0
 40
0.0
 40
0.0
 40
0.0
 40
0.25
 40
0.25
 40
0.25
 40
0.25
 40
0.5
 40
0.5
 40
0.5
 40
0.5
 40
1.0
 40
1.0
 40
1.0
 40
1.0
 10
-5.0528
 20
-30.0249
 30
0.0
 10
-5.0528
 20
-30.0249
 30
0.0
 10
-0.0015
 20
-30.0249
 30
0.0
 10
-0.0015
 20
-30.0249
 30
0.0
 10
-0.0015
 20
-30.0249
 30
0.0
 10
-0.0015
 20
-30.0249
 30
0.0
 10
0.0159
 20
-29.738
 30
0.0
 10
0.0159
 20
-29.738
 30
0.0
 10
0.0159
 20
-29.738
 30
0.0
 10
0.0159
 20
-29.738
 30
0.0
 10
-4.2325
 20
-29.7538
 30
0.0
 10
-4.2325
 20
-29.7538
 30
0.0
  0
SPLINE
  5
88
330
1F
100
AcDbEntity
  8
AXIS
 62
   250
100
AcDbSpline
210
0.0
220
0.0
230
1.0
 70
    24
 71
     3
 72
     8
 73
     4
 74
     0
 42
0.0000000001
 43
0.0000000001
 40
0.0
 40
0.0
 40
0.0
 40
0.0
 40
1.0
 40
1.0
 40
1.0
 40
1.0
 10
3.1984
 20
-24.5314
 30
0.0
 10
3.1984
 20
-24.5314
 30
0.0
 10
3.1984
 20
-29.9206
 30
0.0
 10
3.1984
 20
-29.9206
 30
0.0
  0
SPLINE
  5
89
330
1F
100
AcDbEntity
  8
AXIS
 62
   250
100
AcDbSpline
210
0.0
220
0.0
230
1.0
 70
    24
 71
     3
 72
     8
 73
     4
 74
     0
 42
0.0000000001
 43
0.0000000001
 40
0.0
 40
0.0
 40
0.0
 40
0.0
 40
1.0
 40
1.0
 40
1.0
 40
1.0
 10
2.0158
 20
-24.6453
 30
0.0
 10
2.0158
 20
-24.6453
 30
0.0
 10
2.0158
 20
-29.9206
 30
0.0
 10
2.0158
 20
-29.9206
 30
0.0
  0
SPLINE
  5
8A
330
1F
100
AcDbEntity
  8
AXIS
 62
   250
100
AcDbSpline
210
0.0
220
0.0
230
1.0
 70
    11
 71
     3
 72
    68
 73
    64
 74
     0
 42
0.0000000001
 43
0.0000000001
 40
0.0
 40
0.0
 40
0.0
 40
0.0
 40
0.0588235294117647
 40
0.0588235294117647
 40
0.0588235294117647
 40
0.0588235294117647
 40
0.1176470588235294
 40
0.1176470588235294
 40
0.1176470588235294
 40
0.1176470588235294
 40
0.1764705882352941
 40
0.1764705882352941
 40
0.1764705882352941
 40
0.1764705882352941
 40
0.2352941176470588
 40
0.2352941176470588
 40
0.2352941176470588
 40
0.2352941176470588
 40
0.2941176470588235
 40
0.2941176470588235
 40
0.2941176470588235
 40
0.2941176470588235
 40
0.3529411764705883
 40
0.3529411764705883
 40
0.3529411764705883
 40
0.3529411764705883
 40
0.4117647058823529
 40
0.4117647058823529
 40
0.4117647058823529
 40
0.4117647058823529
 40
0.4705882352941176
 40
0.4705882352941176
 40
0.4705882352941176
 40
0.4705882352941176
 40
0.5294117647058824
 40
0.5294117647058824
 40
0.5294117647058824
 40
0.5294117647058824
 40
0.5882352941176471
 40
0.5882352941176471
 40
0.5882352941176471
 40
0.5882352941176471
 40
0.6470588235294118
 40
0.6470588235294118
 40
0.6470588235294118
 40
0.6470588235294118
 40
0.7058823529411765
 40
0.7058823529411765
 40
0.7058823529411765
 40
0.7058823529411765
 40
0.7647058823529411
 40
0.7647058823529411
 40
0.7647058823529411
 40
0.7647058823529411
 40
0.8235294117647058
 40
0.8235294117647058
 40
0.8235294117647058
 40
0.8235294117647058
 40
0.8823529411764706
 40
0.8823529411764706
 40
0.8823529411764706
 40
0.8823529411764706
 40
1.0
 40
1.0
 40
1.0
 40
1.0
 10
3.6218
 20
-23.8134
 30
0.0
 10
3.6218
 20
-23.8134
 30
0.0
 10
3.6218
 20
-25.1998
 30
0.0
 10
3.6218
 20
-25.1998
 30
0.0
 10
3.6218
 20
-25.1998
 30
0.0
 10
3.6218
 20
-25.1998
 30
0.0
 10
3.6218
 20
-30.6717
 30
0.0
 10
3.6218
 20
-30.6717
 30
0.0
 10
3.6218
 20
-30.6717
 30
0.0
 10
3.6218
 20
-30.6717
 30
0.0
 10
5.2987
 20
-30.6746
 30
0.0
 10
5.2987
 20
-30.6746
 30
0.0
 10
5.2987
 20
-30.6746
 30
0.0
 10
5.2987
 20
-30.6746
 30
0.0
 10
5.3012
 20
-30.6016
 30
0.0
 10
5.3012
 20
-30.6016
 30
0.0
 10
5.3012
 20
-30.6016
 30
0.0
 10
5.4558
 20
-30.6016
 30
0.0
 10
5.5813
 20
-30.4763
 30
0.0
 10
5.5813
 20
-30.3217
 30
0.0
 10
5.5813
 20
-30.3217
 30
0.0
 10
5.5813
 20
-30.1671
 30
0.0
 10
5.5767
 20
-25.2013
 30
0.0
 10
5.5767
 20
-25.2013
 30
0.0
 10
5.5767
 20
-25.2013
 30
0.0
 10
5.5767
 20
-25.2013
 30
0.0
 10
5.5872
 20
-24.1774
 30
0.0
 10
5.5872
 20
-24.1774
 30
0.0
 10
5.5872
 20
-24.1774
 30
0.0
 10
5.5872
 20
-24.1774
 30
0.0
 10
5.583
 20
-24.1352
 30
0.0
 10
5.583
 20
-24.1352
 30
0.0
 10
5.583
 20
-24.1352
 30
0.0
 10
5.583
 20
-24.1352
 30
0.0
 10
5.5577
 20
-24.072
 30
0.0
 10
5.5577
 20
-24.072
 30
0.0
 10
5.5577
 20
-24.072
 30
0.0
 10
5.5577
 20
-24.072
 30
0.0
 10
5.5324
 20
-24.0086
 30
0.0
 10
5.5324
 20
-24.0086
 30
0.0
 10
5.5324
 20
-24.0086
 30
0.0
 10
5.5324
 20
-24.0086
 30
0.0
 10
5.5029
 20
-23.9791
 30
0.0
 10
5.5029
 20
-23.9791
 30
0.0
 10
5.5029
 20
-23.9791
 30
0.0
 10
5.5029
 20
-23.9791
 30
0.0
 10
5.4356
 20
-23.9325
 30
0.0
 10
5.4356
 20
-23.9325
 30
0.0
 10
5.4356
 20
-23.9325
 30
0.0
 10
5.4356
 20
-23.9325
 30
0.0
 10
5.3766
 20
-23.903
 30
0.0
 10
5.3766
 20
-23.903
 30
0.0
 10
5.3766
 20
-23.903
 30
0.0
 10
5.3766
 20
-23.903
 30
0.0
 10
5.2965
 20
-23.8945
 30
0.0
 10
5.2965
 20
-23.8945
 30
0.0
 10
5.2965
 20
-23.8945
 30
0.0
 10
5.2965
 20
-23.8945
 30
0.0
 10
5.2965
 20
-23.81
 30
0.0
 10
5.2965
 20
-23.81
 30
0.0
 10
5.2965
 20
-23.81
 30
0.0
 10
5.2965
 20
-23.81
 30
0.0
 10
3.6218
 20
-23.8134
 30
0.0
 10
3.6218
 20
-23.8134
 30
0.0
  0
SPLINE
  5
8B
330
1F
100
AcDbEntity
  8
AXIS
 62
   250
100
AcDbSpline
210
0.0
220
0.0
230
1.0
 70
     8
 71
     3
 72
   116
 73
   112
 74
     0
 42
0.0000000001
 43
0.0000000001
 40
0.0
 40
0.0
 40
0.0
 40
0.0
 40
0.0344827586206897
 40
0.0344827586206897
 40
0.0344827586206897
 40
0.0344827586206897
 40
0.0689655172413793
 40
0.0689655172413793
 40
0.0689655172413793
 40
0.0689655172413793
 40
0.103448275862069
 40
0.103448275862069
 40
0.103448275862069
 40
0.103448275862069
 40
0.1379310344827586
 40
0.1379310344827586
 40
0.1379310344827586
 40
0.1379310344827586
 40
0.1724137931034483
 40
0.1724137931034483
 40
0.1724137931034483
 40
0.1724137931034483
 40
0.2068965517241379
 40
0.2068965517241379
 40
0.2068965517241379
 40
0.2068965517241379
 40
0.2413793103448276
 40
0.2413793103448276
 40
0.2413793103448276
 40
0.2413793103448276
 40
0.2758620689655172
 40
0.2758620689655172
 40
0.2758620689655172
 40
0.2758620689655172
 40
0.3103448275862069
 40
0.3103448275862069
 40
0.3103448275862069
 40
0.3103448275862069
 40
0.3448275862068966
 40
0.3448275862068966
 40
0.3448275862068966
 40
0.3448275862068966
 40
0.3793103448275862
 40
0.3793103448275862
 40
0.3793103448275862
 40
0.3793103448275862
 40
0.4137931034482759
 40
0.4137931034482759
 40
0.4137931034482759
 40
0.4137931034482759
 40
0.4482758620689655
 40
0.4482758620689655
 40
0.4482758620689655
 40
0.4482758620689655
 40
0.4827586206896552
 40
0.4827586206896552
 40
0.4827586206896552
 40
0.4827586206896552
 40
0.5172413793103449
 40
0.5172413793103449
 40
0.5172413793103449
 40
0.5172413793103449
 40
0.5517241379310345
 40
0.5517241379310345
 40
0.5517241379310345
 40
0.5517241379310345
 40
0.5862068965517241
 40
0.5862068965517241
 40
0.5862068965517241
 40
0.5862068965517241
 40
0.6206896551724138
 40
0.6206896551724138
 40
0.6206896551724138
 40
0.6206896551724138
 40
0.6551724137931034
 40
0.6551724137931034
 40
0.6551724137931034
 40
0.6551724137931034
 40
0.6896551724137931
 40
0.6896551724137931
 40
0.6896551724137931
 40
0.6896551724137931
 40
0.7241379310344828
 40
0.7241379310344828
 40
0.7241379310344828
 40
0.7241379310344828
 40
0.7586206896551724
 40
0.7586206896551724
 40
0.7586206896551724
 40
0.7586206896551724
 40
0.7931034482758621
 40
0.7931034482758621
 40
0.7931034482758621
 40
0.7931034482758621
 40
0.8275862068965517
 40
0.8275862068965517
 40
0.8275862068965517
 40
0.8275862068965517
 40
0.8620689655172413
 40
0.8620689655172413
 40
0.8620689655172413
 40
0.8620689655172413
 40
0.896551724137931
 40
0.896551724137931
 40
0.896551724137931
 40
0.896551724137931
 40
0.9310344827586207
 40
0.9310344827586207
 40
0.9310344827586207
 40
0.9310344827586207
 40
1.0
 40
1.0
 40
1.0
 40
1.0
 10
4.0417
 20
-23.8248
 30
0.0
 10
4.0417
 20
-23.8248
 30
0.0
 10
4.0501
 20
-24.5179
 30
0.0
 10
4.0501
 20
-24.5179
 30
0.0
 10
4.0501
 20
-24.5179
 30
0.0
 10
4.0501
 20
-24.5179
 30
0.0
 10
4.9887
 20
-24.5414
 30
0.0
 10
4.9887
 20
-24.5414
 30
0.0
 10
4.9887
 20
-24.5414
 30
0.0
 10
4.9887
 20
-24.5414
 30
0.0
 10
5.0934
 20
-24.5657
 30
0.0
 10
5.0934
 20
-24.5657
 30
0.0
 10
5.0934
 20
-24.5657
 30
0.0
 10
5.0934
 20
-24.5657
 30
0.0
 10
5.1821
 20
-24.6059
 30
0.0
 10
5.1821
 20
-24.6059
 30
0.0
 10
5.1821
 20
-24.6059
 30
0.0
 10
5.1821
 20
-24.6059
 30
0.0
 10
5.2306
 20
-24.6706
 30
0.0
 10
5.2306
 20
-24.6706
 30
0.0
 10
5.2306
 20
-24.6706
 30
0.0
 10
5.2306
 20
-24.6706
 30
0.0
 10
5.2306
 20
-24.7351
 30
0.0
 10
5.2306
 20
-24.7351
 30
0.0
 10
5.2306
 20
-24.7351
 30
0.0
 10
5.2306
 20
-24.7351
 30
0.0
 10
5.2144
 20
-24.8317
 30
0.0
 10
5.2144
 20
-24.8317
 30
0.0
 10
5.2144
 20
-24.8317
 30
0.0
 10
5.2144
 20
-24.8317
 30
0.0
 10
5.1419
 20
-24.8881
 30
0.0
 10
5.1419
 20
-24.8881
 30
0.0
 10
5.1419
 20
-24.8881
 30
0.0
 10
5.1419
 20
-24.8881
 30
0.0
 10
5.037
 20
-24.9285
 30
0.0
 10
5.037
 20
-24.9285
 30
0.0
 10
5.037
 20
-24.9285
 30
0.0
 10
5.037
 20
-24.9285
 30
0.0
 10
4.9563
 20
-24.9285
 30
0.0
 10
4.9563
 20
-24.9285
 30
0.0
 10
4.9563
 20
-24.9285
 30
0.0
 10
4.9563
 20
-24.9285
 30
0.0
 10
4.034
 20
-24.9285
 30
0.0
 10
4.034
 20
-24.9285
 30
0.0
 10
4.034
 20
-24.9285
 30
0.0
 10
4.034
 20
-24.9285
 30
0.0
 10
4.0325
 20
-26.9642
 30
0.0
 10
4.0325
 20
-26.9642
 30
0.0
 10
4.0325
 20
-26.9642
 30
0.0
 10
4.0325
 20
-26.9642
 30
0.0
 10
4.8667
 20
-26.9626
 30
0.0
 10
5.0213
 20
-26.9626
 30
0.0
 10
5.0213
 20
-26.9626
 30
0.0
 10
5.1759
 20
-26.9626
 30
0.0
 10
5.3012
 20
-27.0879
 30
0.0
 10
5.3012
 20
-27.2425
 30
0.0
 10
5.3012
 20
-27.2425
 30
0.0
 10
5.3012
 20
-27.3971
 30
0.0
 10
5.1759
 20
-27.5224
 30
0.0
 10
5.0213
 20
-27.5224
 30
0.0
 10
5.0213
 20
-27.5224
 30
0.0
 10
4.8667
 20
-27.5224
 30
0.0
 10
4.0406
 20
-27.5285
 30
0.0
 10
4.0406
 20
-27.5285
 30
0.0
 10
4.0406
 20
-27.5285
 30
0.0
 10
4.0406
 20
-27.5285
 30
0.0
 10
4.0487
 20
-29.4473
 30
0.0
 10
4.0487
 20
-29.4473
 30
0.0
 10
4.0487
 20
-29.4473
 30
0.0
 10
4.0487
 20
-29.4473
 30
0.0
 10
5.0484
 20
-29.4633
 30
0.0
 10
5.0484
 20
-29.4633
 30
0.0
 10
5.0484
 20
-29.4633
 30
0.0
 10
5.0484
 20
-29.4633
 30
0.0
 10
5.1531
 20
-29.4875
 30
0.0
 10
5.1531
 20
-29.4875
 30
0.0
 10
5.1531
 20
-29.4875
 30
0.0
 10
5.1531
 20
-29.4875
 30
0.0
 10
5.2418
 20
-29.5277
 30
0.0
 10
5.2418
 20
-29.5277
 30
0.0
 10
5.2418
 20
-29.5277
 30
0.0
 10
5.2418
 20
-29.5277
 30
0.0
 10
5.2903
 20
-29.5924
 30
0.0
 10
5.2903
 20
-29.5924
 30
0.0
 10
5.2903
 20
-29.5924
 30
0.0
 10
5.2903
 20
-29.5924
 30
0.0
 10
5.2903
 20
-29.6569
 30
0.0
 10
5.2903
 20
-29.6569
 30
0.0
 10
5.2903
 20
-29.6569
 30
0.0
 10
5.2903
 20
-29.6569
 30
0.0
 10
5.2742
 20
-29.7535
 30
0.0
 10
5.2742
 20
-29.7535
 30
0.0
 10
5.2742
 20
-29.7535
 30
0.0
 10
5.2742
 20
-29.7535
 30
0.0
 10
5.2016
 20
-29.8099
 30
0.0
 10
5.2016
 20
-29.8099
 30
0.0
 10
5.2016
 20
-29.8099
 30
0.0
 10
5.2016
 20
-29.8099
 30
0.0
 10
5.0967
 20
-29.8503
 30
0.0
 10
5.0967
 20
-29.8503
 30
0.0
 10
5.0967
 20
-29.8503
 30
0.0
 10
5.0967
 20
-29.8503
 30
0.0
 10
5.0161
 20
-29.8503
 30
0.0
 10
5.0161
 20
-29.8503
 30
0.0
 10
5.0161
 20
-29.8503
 30
0.0
 10
5.0161
 20
-29.8503
 30
0.0
 10
4.0325
 20
-29.8503
 30
0.0
 10
4.0325
 20
-29.8503
 30
0.0
 10
4.0325
 20
-29.8503
 30
0.0
 10
4.0325
 20
-29.8503
 30
0.0
 10
4.0406
 20
-30.6485
 30
0.0
 10
4.0406
 20
-30.6485
 30
0.0
  0
SPLINE
  5
8C
330
1F
100
AcDbEntity
  8
AXIS
  6
NEW_LINE3
 62
   250
100
AcDbSpline
210
0.0
220
0.0
230
1.0
 70
    24
 71
     3
 72
     8
 73
     4
 74
     0
 42
0.0000000001
 43
0.0000000001
 40
0.0
 40
0.0
 40
0.0
 40
0.0
 40
1.0
 40
1.0
 40
1.0
 40
1.0
 10
-3.5173
 20
-8.1952
 30
0.0
 10
-3.5173
 20
-8.1952
 30
0.0
 10
-3.5173
 20
-36.9271
 30
0.0
 10
-3.5173
 20
-36.9271
 30
0.0
  0
SPLINE
  5
8E
330
1F
100
AcDbEntity
  8
AXIS
 62
   250
100
AcDbSpline
210
0.0
220
0.0
230
1.0
 70
     8
 71
     3
 72
    52
 73
    48
 74
     0
 42
0.0000000001
 43
0.0000000001
 40
0.0
 40
0.0
 40
0.0
 40
0.0
 40
0.0769230769230769
 40
0.0769230769230769
 40
0.0769230769230769
 40
0.0769230769230769
 40
0.1538461538461539
 40
0.1538461538461539
 40
0.1538461538461539
 40
0.1538461538461539
 40
0.2307692307692308
 40
0.2307692307692308
 40
0.2307692307692308
 40
0.2307692307692308
 40
0.3076923076923077
 40
0.3076923076923077
 40
0.3076923076923077
 40
0.3076923076923077
 40
0.3846153846153846
 40
0.3846153846153846
 40
0.3846153846153846
 40
0.3846153846153846
 40
0.4615384615384616
 40
0.4615384615384616
 40
0.4615384615384616
 40
0.4615384615384616
 40
0.5384615384615384
 40
0.5384615384615384
 40
0.5384615384615384
 40
0.5384615384615384
 40
0.6153846153846154
 40
0.6153846153846154
 40
0.6153846153846154
 40
0.6153846153846154
 40
0.6923076923076923
 40
0.6923076923076923
 40
0.6923076923076923
 40
0.6923076923076923
 40
0.7692307692307693
 40
0.7692307692307693
 40
0.7692307692307693
 40
0.7692307692307693
 40
0.8461538461538461
 40
0.8461538461538461
 40
0.8461538461538461
 40
0.8461538461538461
 40
1.0
 40
1.0
 40
1.0
 40
1.0
 10
-6.6152
 20
-20.8218
 30
0.0
 10
-6.6152
 20
-20.556
 30
0.0
 10
-6.8022
 20
-20.3269
 30
0.0
 10
-7.0626
 20
-20.2737
 30
0.0
 10
-7.0626
 20
-20.2737
 30
0.0
 10
-7.323
 20
-20.2205
 30
0.0
 10
-8.0434
 20
-20.0875
 30
0.0
 10
-8.0434
 20
-20.0875
 30
0.0
 10
-8.0434
 20
-20.0875
 30
0.0
 10
-8.0434
 20
-20.0875
 30
0.0
 10
-8.2966
 20
-19.8062
 30
0.0
 10
-8.2966
 20
-19.8062
 30
0.0
 10
-8.2966
 20
-19.8062
 30
0.0
 10
-8.2966
 20
-19.8062
 30
0.0
 10
-8.2966
 20
-19.6937
 30
0.0
 10
-8.2966
 20
-19.6937
 30
0.0
 10
-8.2966
 20
-19.6937
 30
0.0
 10
-8.2966
 20
-19.6937
 30
0.0
 10
1.548
 20
-19.7078
 30
0.0
 10
1.548
 20
-19.7078
 30
0.0
 10
1.548
 20
-19.7078
 30
0.0
 10
1.548
 20
-19.7078
 30
0.0
 10
1.5199
 20
-19.8765
 30
0.0
 10
1.5199
 20
-19.8765
 30
0.0
 10
1.5199
 20
-19.8765
 30
0.0
 10
1.5199
 20
-19.8765
 30
0.0
 10
1.309
 20
-20.1156
 30
0.0
 10
1.309
 20
-20.1156
 30
0.0
 10
1.309
 20
-20.1156
 30
0.0
 10
1.309
 20
-20.1156
 30
0.0
 10
0.3526
 20
-20.3125
 30
0.0
 10
0.3526
 20
-20.3125
 30
0.0
 10
0.3526
 20
-20.3125
 30
0.0
 10
0.3526
 20
-20.3125
 30
0.0
 10
0.0854
 20
-20.4391
 30
0.0
 10
0.0854
 20
-20.4391
 30
0.0
 10
0.0854
 20
-20.4391
 30
0.0
 10
0.0854
 20
-20.4391
 30
0.0
 10
-0.013
 20
-20.5657
 30
0.0
 10
-0.013
 20
-20.5657
 30
0.0
 10
-0.013
 20
-20.5657
 30
0.0
 10
-0.013
 20
-20.5657
 30
0.0
 10
-0.0693
 20
-20.7485
 30
0.0
 10
-0.0693
 20
-20.7485
 30
0.0
 10
-0.0693
 20
-20.7485
 30
0.0
 10
-0.0693
 20
-20.7485
 30
0.0
 10
-0.0974
 20
-20.9032
 30
0.0
 10
-0.0974
 20
-20.9032
 30
0.0
  0
SPLINE
  5
8F
330
1F
100
AcDbEntity
  8
AXIS
 62
   250
100
AcDbSpline
210
0.0
220
0.0
230
1.0
 70
     8
 71
     3
 72
    24
 73
    20
 74
     0
 42
0.0000000001
 43
0.0000000001
 40
0.0
 40
0.0
 40
0.0
 40
0.0
 40
0.1666666666666667
 40
0.1666666666666667
 40
0.1666666666666667
 40
0.1666666666666667
 40
0.3333333333333333
 40
0.3333333333333333
 40
0.3333333333333333
 40
0.3333333333333333
 40
0.5
 40
0.5
 40
0.5
 40
0.5
 40
0.6666666666666666
 40
0.6666666666666666
 40
0.6666666666666666
 40
0.6666666666666666
 40
1.0
 40
1.0
 40
1.0
 40
1.0
 10
-4.0552
 20
-11.3947
 30
0.0
 10
-4.0552
 20
-11.3947
 30
0.0
 10
-4.0552
 20
-15.3801
 30
0.0
 10
-4.0552
 20
-15.3801
 30
0.0
 10
-4.0552
 20
-15.3801
 30
0.0
 10
-4.0552
 20
-15.3801
 30
0.0
 10
-3.9715
 20
-15.4544
 30
0.0
 10
-3.9715
 20
-15.4544
 30
0.0
 10
-3.9715
 20
-15.4544
 30
0.0
 10
-3.9715
 20
-15.4544
 30
0.0
 10
-3.0142
 20
-15.4544
 30
0.0
 10
-3.0142
 20
-15.4544
 30
0.0
 10
-3.0142
 20
-15.4544
 30
0.0
 10
-3.0142
 20
-15.4544
 30
0.0
 10
-2.9332
 20
-15.3732
 30
0.0
 10
-2.9332
 20
-15.3732
 30
0.0
 10
-2.9332
 20
-15.3732
 30
0.0
 10
-2.9332
 20
-15.3732
 30
0.0
 10
-2.9399
 20
-11.4016
 30
0.0
 10
-2.9399
 20
-11.4016
 30
0.0
  0
SPLINE
  5
90
330
1F
100
AcDbEntity
  8
AXIS
 62
   250
100
AcDbSpline
210
0.0
220
0.0
230
1.0
 70
     8
 71
     3
 72
    16
 73
    12
 74
     0
 42
0.0000000001
 43
0.0000000001
 40
0.0
 40
0.0
 40
0.0
 40
0.0
 40
0.25
 40
0.25
 40
0.25
 40
0.25
 40
0.5
 40
0.5
 40
0.5
 40
0.5
 40
1.0
 40
1.0
 40
1.0
 40
1.0
 10
-6.2926
 20
-11.2549
 30
0.0
 10
-6.2926
 20
-11.2549
 30
0.0
 10
-6.2926
 20
-11.3947
 30
0.0
 10
-6.2926
 20
-11.3947
 30
0.0
 10
-6.2926
 20
-11.3947
 30
0.0
 10
-6.2926
 20
-11.3947
 30
0.0
 10
-0.6927
 20
-11.3988
 30
0.0
 10
-0.6927
 20
-11.3988
 30
0.0
 10
-0.6927
 20
-11.3988
 30
0.0
 10
-0.6927
 20
-11.3988
 30
0.0
 10
-0.6927
 20
-11.2785
 30
0.0
 10
-0.6927
 20
-11.2785
 30
0.0
  0
SPLINE
  5
91
330
1F
100
AcDbEntity
  8
AXIS
 62
   250
100
AcDbSpline
210
0.0
220
0.0
230
1.0
 70
     8
 71
     3
 72
    12
 73
     8
 74
     0
 42
0.0000000001
 43
0.0000000001
 40
0.0
 40
0.0
 40
0.0
 40
0.0
 40
0.3333333333333333
 40
0.3333333333333333
 40
0.3333333333333333
 40
0.3333333333333333
 40
1.0
 40
1.0
 40
1.0
 40
1.0
 10
-5.7403
 20
-10.4159
 30
0.0
 10
-5.8561
 20
-10.4159
 30
0.0
 10
-5.95
 20
-10.5098
 30
0.0
 10
-5.95
 20
-10.6256
 30
0.0
 10
-5.95
 20
-10.6256
 30
0.0
 10
-5.95
 20
-10.7415
 30
0.0
 10
-5.9473
 20
-11.0965
 30
0.0
 10
-5.9473
 20
-11.0965
 30
0.0
  0
SPLINE
  5
92
330
1F
100
AcDbEntity
  8
AXIS
 62
   250
100
AcDbSpline
210
0.0
220
0.0
230
1.0
 70
     8
 71
     3
 72
    12
 73
     8
 74
     0
 42
0.0000000001
 43
0.0000000001
 40
0.0
 40
0.0
 40
0.0
 40
0.0
 40
0.3333333333333333
 40
0.3333333333333333
 40
0.3333333333333333
 40
0.3333333333333333
 40
1.0
 40
1.0
 40
1.0
 40
1.0
 10
-1.2515
 20
-10.4159
 30
0.0
 10
-1.1356
 20
-10.4159
 30
0.0
 10
-1.0417
 20
-10.5098
 30
0.0
 10
-1.0417
 20
-10.6256
 30
0.0
 10
-1.0417
 20
-10.6256
 30
0.0
 10
-1.0417
 20
-10.7415
 30
0.0
 10
-1.0396
 20
-11.1103
 30
0.0
 10
-1.0396
 20
-11.1103
 30
0.0
  0
SPLINE
  5
93
330
1F
100
AcDbEntity
  8
AXIS
 62
   250
100
AcDbSpline
210
0.0
220
0.0
230
1.0
 70
    11
 71
     3
 72
    28
 73
    24
 74
     0
 42
0.0000000001
 43
0.0000000001
 40
0.0
 40
0.0
 40
0.0
 40
0.0
 40
0.1428571428571428
 40
0.1428571428571428
 40
0.1428571428571428
 40
0.1428571428571428
 40
0.2857142857142857
 40
0.2857142857142857
 40
0.2857142857142857
 40
0.2857142857142857
 40
0.4285714285714285
 40
0.4285714285714285
 40
0.4285714285714285
 40
0.4285714285714285
 40
0.5714285714285714
 40
0.5714285714285714
 40
0.5714285714285714
 40
0.5714285714285714
 40
0.7142857142857143
 40
0.7142857142857143
 40
0.7142857142857143
 40
0.7142857142857143
 40
1.0
 40
1.0
 40
1.0
 40
1.0
 10
-6.6422
 20
-11.2549
 30
0.0
 10
-6.6422
 20
-11.1777
 30
0.0
 10
-6.5796
 20
-11.1151
 30
0.0
 10
-6.5024
 20
-11.1151
 30
0.0
 10
-6.5024
 20
-11.1151
 30
0.0
 10
-6.4252
 20
-11.1151
 30
0.0
 10
-0.4885
 20
-11.1177
 30
0.0
 10
-0.4885
 20
-11.1177
 30
0.0
 10
-0.4885
 20
-11.1177
 30
0.0
 10
-0.4885
 20
-11.1177
 30
0.0
 10
-0.421
 20
-11.1261
 30
0.0
 10
-0.421
 20
-11.1261
 30
0.0
 10
-0.421
 20
-11.1261
 30
0.0
 10
-0.421
 20
-11.1261
 30
0.0
 10
-0.3536
 20
-11.1935
 30
0.0
 10
-0.3536
 20
-11.1935
 30
0.0
 10
-0.3536
 20
-11.1935
 30
0.0
 10
-0.3536
 20
-11.1935
 30
0.0
 10
-0.3536
 20
-11.261
 30
0.0
 10
-0.3536
 20
-11.261
 30
0.0
 10
-0.3536
 20
-11.261
 30
0.0
 10
-0.3536
 20
-11.261
 30
0.0
 10
-6.6422
 20
-11.2549
 30
0.0
 10
-6.6422
 20
-11.2549
 30
0.0
  0
SPLINE
  5
94
330
1F
100
AcDbEntity
  8
AXIS
 62
   250
100
AcDbSpline
210
0.0
220
0.0
230
1.0
 70
    11
 71
     3
 72
    20
 73
    16
 74
     0
 42
0.0000000001
 43
0.0000000001
 40
0.0
 40
0.0
 40
0.0
 40
0.0
 40
0.2
 40
0.2
 40
0.2
 40
0.2
 40
0.4
 40
0.4
 40
0.4
 40
0.4
 40
0.6
 40
0.6
 40
0.6
 40
0.6
 40
1.0
 40
1.0
 40
1.0
 40
1.0
 10
-6.6422
 20
-10.1362
 30
0.0
 10
-6.6422
 20
-10.1362
 30
0.0
 10
-6.5895
 20
-10.4095
 30
0.0
 10
-6.5895
 20
-10.4095
 30
0.0
 10
-6.5895
 20
-10.4095
 30
0.0
 10
-6.5895
 20
-10.4095
 30
0.0
 10
-0.4039
 20
-10.4175
 30
0.0
 10
-0.4039
 20
-10.4175
 30
0.0
 10
-0.4039
 20
-10.4175
 30
0.0
 10
-0.4039
 20
-10.4175
 30
0.0
 10
-0.3495
 20
-10.1362
 30
0.0
 10
-0.3495
 20
-10.1362
 30
0.0
 10
-0.3495
 20
-10.1362
 30
0.0
 10
-2.4441
 20
-9.9786
 30
0.0
 10
-4.5476
 20
-9.9786
 30
0.0
 10
-6.6422
 20
-10.1362
 30
0.0
  0
SPLINE
  5
95
330
1F
100
AcDbEntity
  8
AXIS
 62
   250
100
AcDbSpline
210
0.0
220
0.0
230
1.0
 70
    24
 71
     3
 72
     8
 73
     4
 74
     0
 42
0.0000000001
 43
0.0000000001
 40
0.0
 40
0.0
 40
0.0
 40
0.0
 40
1.0
 40
1.0
 40
1.0
 40
1.0
 10
-6.6422
 20
-10.1642
 30
0.0
 10
-6.6422
 20
-10.1642
 30
0.0
 10
-0.3495
 20
-10.1642
 30
0.0
 10
-0.3495
 20
-10.1642
 30
0.0
  0
SPLINE
  5
96
330
1F
100
AcDbEntity
  8
AXIS
 62
   250
100
AcDbSpline
210
0.0
220
0.0
230
1.0
 70
     8
 71
     3
 72
    60
 73
    56
 74
     0
 42
0.0000000001
 43
0.0000000001
 40
0.0
 40
0.0
 40
0.0
 40
0.0
 40
0.0666666666666667
 40
0.0666666666666667
 40
0.0666666666666667
 40
0.0666666666666667
 40
0.1333333333333333
 40
0.1333333333333333
 40
0.1333333333333333
 40
0.1333333333333333
 40
0.2
 40
0.2
 40
0.2
 40
0.2
 40
0.2666666666666667
 40
0.2666666666666667
 40
0.2666666666666667
 40
0.2666666666666667
 40
0.3333333333333333
 40
0.3333333333333333
 40
0.3333333333333333
 40
0.3333333333333333
 40
0.4
 40
0.4
 40
0.4
 40
0.4
 40
0.4666666666666667
 40
0.4666666666666667
 40
0.4666666666666667
 40
0.4666666666666667
 40
0.5333333333333333
 40
0.5333333333333333
 40
0.5333333333333333
 40
0.5333333333333333
 40
0.6
 40
0.6
 40
0.6
 40
0.6
 40
0.6666666666666666
 40
0.6666666666666666
 40
0.6666666666666666
 40
0.6666666666666666
 40
0.7333333333333333
 40
0.7333333333333333
 40
0.7333333333333333
 40
0.7333333333333333
 40
0.8
 40
0.8
 40
0.8
 40
0.8
 40
0.8666666666666667
 40
0.8666666666666667
 40
0.8666666666666667
 40
0.8666666666666667
 40
1.0
 40
1.0
 40
1.0
 40
1.0
 10
5.5952
 20
-29.5232
 30
0.0
 10
5.5952
 20
-29.5232
 30
0.0
 10
23.587
 20
-29.5291
 30
0.0
 10
23.587
 20
-29.5291
 30
0.0
 10
23.587
 20
-29.5291
 30
0.0
 10
23.587
 20
-29.5291
 30
0.0
 10
24.1194
 20
-29.5296
 30
0.0
 10
24.1194
 20
-29.5296
 30
0.0
 10
24.1194
 20
-29.5296
 30
0.0
 10
24.1194
 20
-29.5296
 30
0.0
 10
24.6518
 20
-29.4818
 30
0.0
 10
24.6518
 20
-29.4818
 30
0.0
 10
24.6518
 20
-29.4818
 30
0.0
 10
24.6518
 20
-29.4818
 30
0.0
 10
25.1797
 20
-29.3858
 30
0.0
 10
25.1797
 20
-29.3858
 30
0.0
 10
25.1797
 20
-29.3858
 30
0.0
 10
25.1797
 20
-29.3858
 30
0.0
 10
25.6988
 20
-29.2415
 30
0.0
 10
25.6988
 20
-29.2415
 30
0.0
 10
25.6988
 20
-29.2415
 30
0.0
 10
25.6988
 20
-29.2415
 30
0.0
 10
26.6931
 20
-28.8119
 30
0.0
 10
26.6931
 20
-28.8119
 30
0.0
 10
26.6931
 20
-28.8119
 30
0.0
 10
26.6931
 20
-28.8119
 30
0.0
 10
27.5998
 20
-28.2029
 30
0.0
 10
27.5998
 20
-28.2029
 30
0.0
 10
27.5998
 20
-28.2029
 30
0.0
 10
27.5998
 20
-28.2029
 30
0.0
 10
28.3858
 20
-27.4318
 30
0.0
 10
28.3858
 20
-27.4318
 30
0.0
 10
28.3858
 20
-27.4318
 30
0.0
 10
28.3858
 20
-27.4318
 30
0.0
 10
29.0238
 20
-26.5229
 30
0.0
 10
29.0238
 20
-26.5229
 30
0.0
 10
29.0238
 20
-26.5229
 30
0.0
 10
29.0238
 20
-26.5229
 30
0.0
 10
29.2801
 20
-26.0257
 30
0.0
 10
29.2801
 20
-26.0257
 30
0.0
 10
29.2801
 20
-26.0257
 30
0.0
 10
29.2801
 20
-26.0257
 30
0.0
 10
29.4914
 20
-25.505
 30
0.0
 10
29.4914
 20
-25.505
 30
0.0
 10
29.4914
 20
-25.505
 30
0.0
 10
29.4914
 20
-25.505
 30
0.0
 10
29.656
 20
-24.965
 30
0.0
 10
29.656
 20
-24.965
 30
0.0
 10
29.656
 20
-24.965
 30
0.0
 10
29.656
 20
-24.965
 30
0.0
 10
29.7723
 20
-24.4097
 30
0.0
 10
29.7723
 20
-24.4097
 30
0.0
 10
29.7723
 20
-24.4097
 30
0.0
 10
29.7723
 20
-24.4097
 30
0.0
 10
33.2334
 20
6.3292
 30
0.0
 10
33.2334
 20
6.3292
 30
0.0
  0
SPLINE
  5
97
330
1F
100
AcDbEntity
  8
AXIS
 62
   250
100
AcDbSpline
210
0.0
220
0.0
230
1.0
 70
    24
 71
     3
 72
     8
 73
     4
 74
     0
 42
0.0000000001
 43
0.0000000001
 40
0.0
 40
0.0
 40
0.0
 40
0.0
 40
1.0
 40
1.0
 40
1.0
 40
1.0
 10
5.585
 20
-24.9725
 30
0.0
 10
5.585
 20
-24.9725
 30
0.0
 10
19.2481
 20
-24.9725
 30
0.0
 10
19.2481
 20
-24.9725
 30
0.0
  0
SPLINE
  5
98
330
1F
100
AcDbEntity
  8
AXIS
 62
   250
100
AcDbSpline
210
0.0
220
0.0
230
1.0
 70
     8
 71
     3
 72
    60
 73
    56
 74
     0
 42
0.0000000001
 43
0.0000000001
 40
0.0
 40
0.0
 40
0.0
 40
0.0
 40
0.0666666666666667
 40
0.0666666666666667
 40
0.0666666666666667
 40
0.0666666666666667
 40
0.1333333333333333
 40
0.1333333333333333
 40
0.1333333333333333
 40
0.1333333333333333
 40
0.2
 40
0.2
 40
0.2
 40
0.2
 40
0.2666666666666667
 40
0.2666666666666667
 40
0.2666666666666667
 40
0.2666666666666667
 40
0.3333333333333333
 40
0.3333333333333333
 40
0.3333333333333333
 40
0.3333333333333333
 40
0.4
 40
0.4
 40
0.4
 40
0.4
 40
0.4666666666666667
 40
0.4666666666666667
 40
0.4666666666666667
 40
0.4666666666666667
 40
0.5333333333333333
 40
0.5333333333333333
 40
0.5333333333333333
 40
0.5333333333333333
 40
0.6
 40
0.6
 40
0.6
 40
0.6
 40
0.6666666666666666
 40
0.6666666666666666
 40
0.6666666666666666
 40
0.6666666666666666
 40
0.7333333333333333
 40
0.7333333333333333
 40
0.7333333333333333
 40
0.7333333333333333
 40
0.8
 40
0.8
 40
0.8
 40
0.8
 40
0.8666666666666667
 40
0.8666666666666667
 40
0.8666666666666667
 40
0.8666666666666667
 40
1.0
 40
1.0
 40
1.0
 40
1.0
 10
20.6237
 20
-24.9704
 30
0.0
 10
20.6237
 20
-24.9704
 30
0.0
 10
23.587
 20
-24.9725
 30
0.0
 10
23.587
 20
-24.9725
 30
0.0
 10
23.587
 20
-24.9725
 30
0.0
 10
23.587
 20
-24.9725
 30
0.0
 10
23.6995
 20
-24.9427
 30
0.0
 10
23.6995
 20
-24.9427
 30
0.0
 10
23.6995
 20
-24.9427
 30
0.0
 10
23.6995
 20
-24.9427
 30
0.0
 10
23.8065
 20
-24.9023
 30
0.0
 10
23.8065
 20
-24.9023
 30
0.0
 10
23.8065
 20
-24.9023
 30
0.0
 10
23.8065
 20
-24.9023
 30
0.0
 10
23.9069
 20
-24.8525
 30
0.0
 10
23.9069
 20
-24.8525
 30
0.0
 10
23.9069
 20
-24.8525
 30
0.0
 10
23.9069
 20
-24.8525
 30
0.0
 10
24.0001
 20
-24.7943
 30
0.0
 10
24.0001
 20
-24.7943
 30
0.0
 10
24.0001
 20
-24.7943
 30
0.0
 10
24.0001
 20
-24.7943
 30
0.0
 10
24.1622
 20
-24.6568
 30
0.0
 10
24.1622
 20
-24.6568
 30
0.0
 10
24.1622
 20
-24.6568
 30
0.0
 10
24.1622
 20
-24.6568
 30
0.0
 10
24.2897
 20
-24.4988
 30
0.0
 10
24.2897
 20
-24.4988
 30
0.0
 10
24.2897
 20
-24.4988
 30
0.0
 10
24.2897
 20
-24.4988
 30
0.0
 10
24.3815
 20
-24.3281
 30
0.0
 10
24.3815
 20
-24.3281
 30
0.0
 10
24.3815
 20
-24.3281
 30
0.0
 10
24.3815
 20
-24.3281
 30
0.0
 10
24.4366
 20
-24.1516
 30
0.0
 10
24.4366
 20
-24.1516
 30
0.0
 10
24.4366
 20
-24.1516
 30
0.0
 10
24.4366
 20
-24.1516
 30
0.0
 10
24.45
 20
-24.0631
 30
0.0
 10
24.45
 20
-24.0631
 30
0.0
 10
24.45
 20
-24.0631
 30
0.0
 10
24.45
 20
-24.0631
 30
0.0
 10
24.454
 20
-23.9758
 30
0.0
 10
24.454
 20
-23.9758
 30
0.0
 10
24.454
 20
-23.9758
 30
0.0
 10
24.454
 20
-23.9758
 30
0.0
 10
24.4485
 20
-23.8903
 30
0.0
 10
24.4485
 20
-23.8903
 30
0.0
 10
24.4485
 20
-23.8903
 30
0.0
 10
24.4485
 20
-23.8903
 30
0.0
 10
24.4337
 20
-23.808
 30
0.0
 10
24.4337
 20
-23.808
 30
0.0
 10
24.4337
 20
-23.808
 30
0.0
 10
24.4337
 20
-23.808
 30
0.0
 10
24.7646
 20
-20.954
 30
0.0
 10
24.7646
 20
-20.954
 30
0.0
  0
SPLINE
  5
99
330
1F
100
AcDbEntity
  8
AXIS
 62
   250
100
AcDbSpline
210
0.0
220
0.0
230
1.0
 70
    24
 71
     3
 72
     8
 73
     4
 74
     0
 42
0.0000000001
 43
0.0000000001
 40
0.0
 40
0.0
 40
0.0
 40
0.0
 40
1.0
 40
1.0
 40
1.0
 40
1.0
 10
24.9316
 20
-19.3906
 30
0.0
 10
24.9316
 20
-19.3906
 30
0.0
 10
27.8991
 20
6.9381
 30
0.0
 10
27.8991
 20
6.9381
 30
0.0
  0
SPLINE
  5
9A
330
1F
100
AcDbEntity
  8
AXIS
 62
   250
100
AcDbSpline
210
0.0
220
0.0
230
1.0
 70
     8
 71
     3
 72
    44
 73
    40
 74
     0
 42
0.0000000001
 43
0.0000000001
 40
0.0
 40
0.0
 40
0.0
 40
0.0
 40
0.0909090909090909
 40
0.0909090909090909
 40
0.0909090909090909
 40
0.0909090909090909
 40
0.1818181818181818
 40
0.1818181818181818
 40
0.1818181818181818
 40
0.1818181818181818
 40
0.2727272727272727
 40
0.2727272727272727
 40
0.2727272727272727
 40
0.2727272727272727
 40
0.3636363636363636
 40
0.3636363636363636
 40
0.3636363636363636
 40
0.3636363636363636
 40
0.4545454545454545
 40
0.4545454545454545
 40
0.4545454545454545
 40
0.4545454545454545
 40
0.5454545454545454
 40
0.5454545454545454
 40
0.5454545454545454
 40
0.5454545454545454
 40
0.6363636363636364
 40
0.6363636363636364
 40
0.6363636363636364
 40
0.6363636363636364
 40
0.7272727272727273
 40
0.7272727272727273
 40
0.7272727272727273
 40
0.7272727272727273
 40
0.8181818181818182
 40
0.8181818181818182
 40
0.8181818181818182
 40
0.8181818181818182
 40
1.0
 40
1.0
 40
1.0
 40
1.0
 10
32.7299
 20
14.873
 30
0.0
 10
32.7299
 20
14.873
 30
0.0
 10
28.8879
 20
15.3055
 30
0.0
 10
28.8879
 20
15.3055
 30
0.0
 10
28.8879
 20
15.3055
 30
0.0
 10
28.8879
 20
15.3055
 30
0.0
 10
28.7932
 20
15.3055
 30
0.0
 10
28.7932
 20
15.3055
 30
0.0
 10
28.7932
 20
15.3055
 30
0.0
 10
28.7932
 20
15.3055
 30
0.0
 10
28.709
 20
15.2527
 30
0.0
 10
28.709
 20
15.2527
 30
0.0
 10
28.709
 20
15.2527
 30
0.0
 10
28.709
 20
15.2527
 30
0.0
 10
28.1616
 20
11.4556
 30
0.0
 10
28.1616
 20
11.4556
 30
0.0
 10
28.1616
 20
11.4556
 30
0.0
 10
28.1616
 20
11.4556
 30
0.0
 10
27.982
 20
11.3162
 30
0.0
 10
27.982
 20
11.3162
 30
0.0
 10
27.982
 20
11.3162
 30
0.0
 10
27.982
 20
11.3162
 30
0.0
 10
27.5095
 20
7.1235
 30
0.0
 10
27.5095
 20
7.1235
 30
0.0
 10
27.5095
 20
7.1235
 30
0.0
 10
27.5095
 20
7.1235
 30
0.0
 10
27.5243
 20
7.0339
 30
0.0
 10
27.5243
 20
7.0339
 30
0.0
 10
27.5243
 20
7.0339
 30
0.0
 10
27.5243
 20
7.0339
 30
0.0
 10
27.6091
 20
6.9234
 30
0.0
 10
27.6091
 20
6.9234
 30
0.0
 10
27.6091
 20
6.9234
 30
0.0
 10
27.6091
 20
6.9234
 30
0.0
 10
27.6854
 20
6.9234
 30
0.0
 10
27.6854
 20
6.9234
 30
0.0
 10
27.6854
 20
6.9234
 30
0.0
 10
27.6854
 20
6.9234
 30
0.0
 10
31.2807
 20
6.5326
 30
0.0
 10
31.2807
 20
6.5326
 30
0.0
  0
SPLINE
  5
9B
330
1F
100
AcDbEntity
  8
AXIS
 62
   250
100
AcDbSpline
210
0.0
220
0.0
230
1.0
 70
    24
 71
     3
 72
     8
 73
     4
 74
     0
 42
0.0000000001
 43
0.0000000001
 40
0.0
 40
0.0
 40
0.0
 40
0.0
 40
1.0
 40
1.0
 40
1.0
 40
1.0
 10
34.0044
 20
10.7822
 30
0.0
 10
34.0044
 20
10.7822
 30
0.0
 10
32.8167
 20
10.916
 30
0.0
 10
32.8167
 20
10.916
 30
0.0
  0
SPLINE
  5
9C
330
1F
100
AcDbEntity
  8
AXIS
 62
   250
100
AcDbSpline
210
0.0
220
0.0
230
1.0
 70
    24
 71
     3
 72
     8
 73
     4
 74
     0
 42
0.0000000001
 43
0.0000000001
 40
0.0
 40
0.0
 40
0.0
 40
0.0
 40
1.0
 40
1.0
 40
1.0
 40
1.0
 10
32.0465
 20
11.0028
 30
0.0
 10
32.0465
 20
11.0028
 30
0.0
 10
28.1412
 20
11.443
 30
0.0
 10
28.1412
 20
11.443
 30
0.0
  0
SPLINE
  5
9D
330
1F
100
AcDbEntity
  8
AXIS
 62
   250
100
AcDbSpline
210
0.0
220
0.0
230
1.0
 70
     8
 71
     3
 72
    44
 73
    40
 74
     0
 42
0.0000000001
 43
0.0000000001
 40
0.0
 40
0.0
 40
0.0
 40
0.0
 40
0.0909090909090909
 40
0.0909090909090909
 40
0.0909090909090909
 40
0.0909090909090909
 40
0.1818181818181818
 40
0.1818181818181818
 40
0.1818181818181818
 40
0.1818181818181818
 40
0.2727272727272727
 40
0.2727272727272727
 40
0.2727272727272727
 40
0.2727272727272727
 40
0.3636363636363636
 40
0.3636363636363636
 40
0.3636363636363636
 40
0.3636363636363636
 40
0.4545454545454545
 40
0.4545454545454545
 40
0.4545454545454545
 40
0.4545454545454545
 40
0.5454545454545454
 40
0.5454545454545454
 40
0.5454545454545454
 40
0.5454545454545454
 40
0.6363636363636364
 40
0.6363636363636364
 40
0.6363636363636364
 40
0.6363636363636364
 40
0.7272727272727273
 40
0.7272727272727273
 40
0.7272727272727273
 40
0.7272727272727273
 40
0.8181818181818182
 40
0.8181818181818182
 40
0.8181818181818182
 40
0.8181818181818182
 40
1.0
 40
1.0
 40
1.0
 40
1.0
 10
32.0275
 20
6.4677
 30
0.0
 10
32.0275
 20
6.4677
 30
0.0
 10
33.4688
 20
6.2896
 30
0.0
 10
33.4688
 20
6.2896
 30
0.0
 10
33.4688
 20
6.2896
 30
0.0
 10
33.4688
 20
6.2896
 30
0.0
 10
33.55
 20
6.3051
 30
0.0
 10
33.55
 20
6.3051
 30
0.0
 10
33.55
 20
6.3051
 30
0.0
 10
33.55
 20
6.3051
 30
0.0
 10
33.6118
 20
6.3554
 30
0.0
 10
33.6118
 20
6.3554
 30
0.0
 10
33.6118
 20
6.3554
 30
0.0
 10
33.6118
 20
6.3554
 30
0.0
 10
33.6588
 20
6.4304
 30
0.0
 10
33.6588
 20
6.4304
 30
0.0
 10
33.6588
 20
6.4304
 30
0.0
 10
33.6588
 20
6.4304
 30
0.0
 10
34.1313
 20
10.6231
 30
0.0
 10
34.1313
 20
10.6231
 30
0.0
 10
34.1313
 20
10.6231
 30
0.0
 10
34.1313
 20
10.6231
 30
0.0
 10
34.0153
 20
10.7783
 30
0.0
 10
34.0153
 20
10.7783
 30
0.0
 10
34.0153
 20
10.7783
 30
0.0
 10
34.0153
 20
10.7783
 30
0.0
 10
34.2941
 20
14.5553
 30
0.0
 10
34.2941
 20
14.5553
 30
0.0
 10
34.2941
 20
14.5553
 30
0.0
 10
34.2941
 20
14.5553
 30
0.0
 10
34.2941
 20
14.6484
 30
0.0
 10
34.2941
 20
14.6484
 30
0.0
 10
34.2941
 20
14.6484
 30
0.0
 10
34.2941
 20
14.6484
 30
0.0
 10
34.1613
 20
14.7149
 30
0.0
 10
34.1613
 20
14.7149
 30
0.0
 10
34.1613
 20
14.7149
 30
0.0
 10
34.1613
 20
14.7149
 30
0.0
 10
33.511
 20
14.7681
 30
0.0
 10
33.511
 20
14.7681
 30
0.0
  0
SPLINE
  5
9E
330
1F
100
AcDbEntity
  8
AXIS
 62
   250
100
AcDbSpline
210
0.0
220
0.0
230
1.0
 70
     8
 71
     3
 72
    20
 73
    16
 74
     0
 42
0.0000000001
 43
0.0000000001
 40
0.0
 40
0.0
 40
0.0
 40
0.0
 40
0.2
 40
0.2
 40
0.2
 40
0.2
 40
0.4
 40
0.4
 40
0.4
 40
0.4
 40
0.6
 40
0.6
 40
0.6
 40
0.6
 40
1.0
 40
1.0
 40
1.0
 40
1.0
 10
33.7101
 20
20.4361
 30
0.0
 10
33.7101
 20
20.4361
 30
0.0
 10
29.7746
 20
20.8797
 30
0.0
 10
29.7746
 20
20.8797
 30
0.0
 10
29.7746
 20
20.8797
 30
0.0
 10
29.7746
 20
20.8797
 30
0.0
 10
29.7173
 20
20.4554
 30
0.0
 10
29.7173
 20
20.4554
 30
0.0
 10
29.7173
 20
20.4554
 30
0.0
 10
29.7173
 20
20.4554
 30
0.0
 10
29.9992
 20
20.4219
 30
0.0
 10
29.9992
 20
20.4219
 30
0.0
 10
29.9992
 20
20.4219
 30
0.0
 10
29.9992
 20
20.4219
 30
0.0
 10
29.9755
 20
20.1337
 30
0.0
 10
29.9755
 20
20.1337
 30
0.0
  0
SPLINE
  5
9F
330
1F
100
AcDbEntity
  8
AXIS
 62
   250
100
AcDbSpline
210
0.0
220
0.0
230
1.0
 70
     8
 71
     3
 72
   132
 73
   128
 74
     0
 42
0.0000000001
 43
0.0000000001
 40
0.0
 40
0.0
 40
0.0
 40
0.0
 40
0.0303030303030303
 40
0.0303030303030303
 40
0.0303030303030303
 40
0.0303030303030303
 40
0.0606060606060606
 40
0.0606060606060606
 40
0.0606060606060606
 40
0.0606060606060606
 40
0.0909090909090909
 40
0.0909090909090909
 40
0.0909090909090909
 40
0.0909090909090909
 40
0.1212121212121212
 40
0.1212121212121212
 40
0.1212121212121212
 40
0.1212121212121212
 40
0.1515151515151515
 40
0.1515151515151515
 40
0.1515151515151515
 40
0.1515151515151515
 40
0.1818181818181818
 40
0.1818181818181818
 40
0.1818181818181818
 40
0.1818181818181818
 40
0.2121212121212121
 40
0.2121212121212121
 40
0.2121212121212121
 40
0.2121212121212121
 40
0.2424242424242424
 40
0.2424242424242424
 40
0.2424242424242424
 40
0.2424242424242424
 40
0.2727272727272727
 40
0.2727272727272727
 40
0.2727272727272727
 40
0.2727272727272727
 40
0.303030303030303
 40
0.303030303030303
 40
0.303030303030303
 40
0.303030303030303
 40
0.3333333333333333
 40
0.3333333333333333
 40
0.3333333333333333
 40
0.3333333333333333
 40
0.3636363636363636
 40
0.3636363636363636
 40
0.3636363636363636
 40
0.3636363636363636
 40
0.3939393939393939
 40
0.3939393939393939
 40
0.3939393939393939
 40
0.3939393939393939
 40
0.4242424242424243
 40
0.4242424242424243
 40
0.4242424242424243
 40
0.4242424242424243
 40
0.4545454545454545
 40
0.4545454545454545
 40
0.4545454545454545
 40
0.4545454545454545
 40
0.4848484848484849
 40
0.4848484848484849
 40
0.4848484848484849
 40
0.4848484848484849
 40
0.5151515151515151
 40
0.5151515151515151
 40
0.5151515151515151
 40
0.5151515151515151
 40
0.5454545454545454
 40
0.5454545454545454
 40
0.5454545454545454
 40
0.5454545454545454
 40
0.5757575757575758
 40
0.5757575757575758
 40
0.5757575757575758
 40
0.5757575757575758
 40
0.6060606060606061
 40
0.6060606060606061
 40
0.6060606060606061
 40
0.6060606060606061
 40
0.6363636363636364
 40
0.6363636363636364
 40
0.6363636363636364
 40
0.6363636363636364
 40
0.6666666666666666
 40
0.6666666666666666
 40
0.6666666666666666
 40
0.6666666666666666
 40
0.696969696969697
 40
0.696969696969697
 40
0.696969696969697
 40
0.696969696969697
 40
0.7272727272727273
 40
0.7272727272727273
 40
0.7272727272727273
 40
0.7272727272727273
 40
0.7575757575757576
 40
0.7575757575757576
 40
0.7575757575757576
 40
0.7575757575757576
 40
0.7878787878787878
 40
0.7878787878787878
 40
0.7878787878787878
 40
0.7878787878787878
 40
0.8181818181818182
 40
0.8181818181818182
 40
0.8181818181818182
 40
0.8181818181818182
 40
0.8484848484848485
 40
0.8484848484848485
 40
0.8484848484848485
 40
0.8484848484848485
 40
0.8787878787878788
 40
0.8787878787878788
 40
0.8787878787878788
 40
0.8787878787878788
 40
0.9090909090909091
 40
0.9090909090909091
 40
0.9090909090909091
 40
0.9090909090909091
 40
0.9393939393939394
 40
0.9393939393939394
 40
0.9393939393939394
 40
0.9393939393939394
 40
1.0
 40
1.0
 40
1.0
 40
1.0
 10
33.6028
 20
14.7871
 30
0.0
 10
33.6028
 20
14.7871
 30
0.0
 10
33.6343
 20
15.0666
 30
0.0
 10
33.6343
 20
15.0666
 30
0.0
 10
33.6343
 20
15.0666
 30
0.0
 10
33.6343
 20
15.0666
 30
0.0
 10
33.8976
 20
15.0335
 30
0.0
 10
33.8976
 20
15.0335
 30
0.0
 10
33.8976
 20
15.0335
 30
0.0
 10
33.8976
 20
15.0335
 30
0.0
 10
33.9512
 20
15.4552
 30
0.0
 10
33.9512
 20
15.4552
 30
0.0
 10
33.9512
 20
15.4552
 30
0.0
 10
33.9512
 20
15.4552
 30
0.0
 10
33.65
 20
15.5007
 30
0.0
 10
33.65
 20
15.5007
 30
0.0
 10
33.65
 20
15.5007
 30
0.0
 10
33.65
 20
15.5007
 30
0.0
 10
33.6913
 20
15.7818
 30
0.0
 10
33.6913
 20
15.7818
 30
0.0
 10
33.6913
 20
15.7818
 30
0.0
 10
33.6913
 20
15.7818
 30
0.0
 10
34.0048
 20
15.728
 30
0.0
 10
34.0048
 20
15.728
 30
0.0
 10
34.0048
 20
15.728
 30
0.0
 10
34.0048
 20
15.728
 30
0.0
 10
34.0502
 20
16.162
 30
0.0
 10
34.0502
 20
16.162
 30
0.0
 10
34.0502
 20
16.162
 30
0.0
 10
34.0502
 20
16.162
 30
0.0
 10
33.7408
 20
16.1992
 30
0.0
 10
33.7408
 20
16.1992
 30
0.0
 10
33.7408
 20
16.1992
 30
0.0
 10
33.7408
 20
16.1992
 30
0.0
 10
33.7697
 20
16.4845
 30
0.0
 10
33.7697
 20
16.4845
 30
0.0
 10
33.7697
 20
16.4845
 30
0.0
 10
33.7697
 20
16.4845
 30
0.0
 10
34.0626
 20
16.4432
 30
0.0
 10
34.0626
 20
16.4432
 30
0.0
 10
34.0626
 20
16.4432
 30
0.0
 10
34.0626
 20
16.4432
 30
0.0
 10
34.1203
 20
16.8606
 30
0.0
 10
34.1203
 20
16.8606
 30
0.0
 10
34.1203
 20
16.8606
 30
0.0
 10
34.1203
 20
16.8606
 30
0.0
 10
33.8522
 20
16.8855
 30
0.0
 10
33.8522
 20
16.8855
 30
0.0
 10
33.8522
 20
16.8855
 30
0.0
 10
33.8522
 20
16.8855
 30
0.0
 10
33.8934
 20
17.1748
 30
0.0
 10
33.8934
 20
17.1748
 30
0.0
 10
33.8934
 20
17.1748
 30
0.0
 10
33.8934
 20
17.1748
 30
0.0
 10
34.1451
 20
17.1376
 30
0.0
 10
34.1451
 20
17.1376
 30
0.0
 10
34.1451
 20
17.1376
 30
0.0
 10
34.1451
 20
17.1376
 30
0.0
 10
34.1905
 20
17.562
 30
0.0
 10
34.1905
 20
17.562
 30
0.0
 10
34.1905
 20
17.562
 30
0.0
 10
34.1905
 20
17.562
 30
0.0
 10
33.9698
 20
17.5761
 30
0.0
 10
33.9698
 20
17.5761
 30
0.0
 10
33.9698
 20
17.5761
 30
0.0
 10
33.9698
 20
17.5761
 30
0.0
 10
34.0026
 20
17.8726
 30
0.0
 10
34.0026
 20
17.8726
 30
0.0
 10
34.0026
 20
17.8726
 30
0.0
 10
34.0026
 20
17.8726
 30
0.0
 10
34.2233
 20
17.835
 30
0.0
 10
34.2233
 20
17.835
 30
0.0
 10
34.2233
 20
17.835
 30
0.0
 10
34.2233
 20
17.835
 30
0.0
 10
34.2703
 20
18.2491
 30
0.0
 10
34.2703
 20
18.2491
 30
0.0
 10
34.2703
 20
18.2491
 30
0.0
 10
34.2703
 20
18.2491
 30
0.0
 10
34.0355
 20
18.2726
 30
0.0
 10
34.0355
 20
18.2726
 30
0.0
 10
34.0355
 20
18.2726
 30
0.0
 10
34.0355
 20
18.2726
 30
0.0
 10
34.059
 20
18.5456
 30
0.0
 10
34.059
 20
18.5456
 30
0.0
 10
34.059
 20
18.5456
 30
0.0
 10
34.059
 20
18.5456
 30
0.0
 10
34.3079
 20
18.522
 30
0.0
 10
34.3079
 20
18.522
 30
0.0
 10
34.3079
 20
18.522
 30
0.0
 10
34.3079
 20
18.522
 30
0.0
 10
34.3502
 20
18.9503
 30
0.0
 10
34.3502
 20
18.9503
 30
0.0
 10
34.3502
 20
18.9503
 30
0.0
 10
34.3502
 20
18.9503
 30
0.0
 10
34.12
 20
18.9738
 30
0.0
 10
34.12
 20
18.9738
 30
0.0
 10
34.12
 20
18.9738
 30
0.0
 10
34.12
 20
18.9738
 30
0.0
 10
34.1623
 20
19.2891
 30
0.0
 10
34.1623
 20
19.2891
 30
0.0
 10
34.1623
 20
19.2891
 30
0.0
 10
34.1623
 20
19.2891
 30
0.0
 10
34.3971
 20
19.2468
 30
0.0
 10
34.3971
 20
19.2468
 30
0.0
 10
34.3971
 20
19.2468
 30
0.0
 10
34.3971
 20
19.2468
 30
0.0
 10
34.4347
 20
19.6797
 30
0.0
 10
34.4347
 20
19.6797
 30
0.0
 10
34.4347
 20
19.6797
 30
0.0
 10
34.4347
 20
19.6797
 30
0.0
 10
34.1435
 20
19.6891
 30
0.0
 10
34.1435
 20
19.6891
 30
0.0
 10
34.1435
 20
19.6891
 30
0.0
 10
34.1435
 20
19.6891
 30
0.0
 10
34.1952
 20
19.9668
 30
0.0
 10
34.1952
 20
19.9668
 30
0.0
 10
34.1952
 20
19.9668
 30
0.0
 10
34.1952
 20
19.9668
 30
0.0
 10
34.491
 20
19.9291
 30
0.0
 10
34.491
 20
19.9291
 30
0.0
 10
34.491
 20
19.9291
 30
0.0
 10
34.491
 20
19.9291
 30
0.0
 10
34.5333
 20
20.3668
 30
0.0
 10
34.5333
 20
20.3668
 30
0.0
 10
34.5333
 20
20.3668
 30
0.0
 10
34.5333
 20
20.3668
 30
0.0
 10
34.3642
 20
20.3715
 30
0.0
 10
34.3642
 20
20.3715
 30
0.0
  0
SPLINE
  5
A0
330
1F
100
AcDbEntity
  8
AXIS
 62
   250
100
AcDbSpline
210
0.0
220
0.0
230
1.0
 70
     8
 71
     3
 72
    20
 73
    16
 74
     0
 42
0.0000000001
 43
0.0000000001
 40
0.0
 40
0.0
 40
0.0
 40
0.0
 40
0.2
 40
0.2
 40
0.2
 40
0.2
 40
0.4
 40
0.4
 40
0.4
 40
0.4
 40
0.6
 40
0.6
 40
0.6
 40
0.6
 40
1.0
 40
1.0
 40
1.0
 40
1.0
 10
33.6313
 20
19.7376
 30
0.0
 10
33.6313
 20
19.7376
 30
0.0
 10
29.6958
 20
20.1812
 30
0.0
 10
29.6958
 20
20.1812
 30
0.0
 10
29.6958
 20
20.1812
 30
0.0
 10
29.6958
 20
20.1812
 30
0.0
 10
29.6385
 20
19.7569
 30
0.0
 10
29.6385
 20
19.7569
 30
0.0
 10
29.6385
 20
19.7569
 30
0.0
 10
29.6385
 20
19.7569
 30
0.0
 10
29.9494
 20
19.7136
 30
0.0
 10
29.9494
 20
19.7136
 30
0.0
 10
29.9494
 20
19.7136
 30
0.0
 10
29.9494
 20
19.7136
 30
0.0
 10
29.9076
 20
19.4838
 30
0.0
 10
29.9076
 20
19.4838
 30
0.0
  0
SPLINE
  5
A1
330
1F
100
AcDbEntity
  8
AXIS
 62
   250
100
AcDbSpline
210
0.0
220
0.0
230
1.0
 70
     8
 71
     3
 72
    20
 73
    16
 74
     0
 42
0.0000000001
 43
0.0000000001
 40
0.0
 40
0.0
 40
0.0
 40
0.0
 40
0.2
 40
0.2
 40
0.2
 40
0.2
 40
0.4
 40
0.4
 40
0.4
 40
0.4
 40
0.6
 40
0.6
 40
0.6
 40
0.6
 40
1.0
 40
1.0
 40
1.0
 40
1.0
 10
33.5269
 20
19.0596
 30
0.0
 10
33.5269
 20
19.0596
 30
0.0
 10
29.5915
 20
19.5032
 30
0.0
 10
29.5915
 20
19.5032
 30
0.0
 10
29.5915
 20
19.5032
 30
0.0
 10
29.5915
 20
19.5032
 30
0.0
 10
29.5342
 20
19.079
 30
0.0
 10
29.5342
 20
19.079
 30
0.0
 10
29.5342
 20
19.079
 30
0.0
 10
29.5342
 20
19.079
 30
0.0
 10
29.8354
 20
19.0357
 30
0.0
 10
29.8354
 20
19.0357
 30
0.0
 10
29.8354
 20
19.0357
 30
0.0
 10
29.8354
 20
19.0357
 30
0.0
 10
29.8203
 20
18.7854
 30
0.0
 10
29.8203
 20
18.7854
 30
0.0
  0
SPLINE
  5
A2
330
1F
100
AcDbEntity
  8
AXIS
 62
   250
100
AcDbSpline
210
0.0
220
0.0
230
1.0
 70
     8
 71
     3
 72
    20
 73
    16
 74
     0
 42
0.0000000001
 43
0.0000000001
 40
0.0
 40
0.0
 40
0.0
 40
0.0
 40
0.2
 40
0.2
 40
0.2
 40
0.2
 40
0.4
 40
0.4
 40
0.4
 40
0.4
 40
0.6
 40
0.6
 40
0.6
 40
0.6
 40
1.0
 40
1.0
 40
1.0
 40
1.0
 10
33.4769
 20
18.3552
 30
0.0
 10
33.4769
 20
18.3552
 30
0.0
 10
29.5414
 20
18.7988
 30
0.0
 10
29.5414
 20
18.7988
 30
0.0
 10
29.5414
 20
18.7988
 30
0.0
 10
29.5414
 20
18.7988
 30
0.0
 10
29.4841
 20
18.3745
 30
0.0
 10
29.4841
 20
18.3745
 30
0.0
 10
29.4841
 20
18.3745
 30
0.0
 10
29.4841
 20
18.3745
 30
0.0
 10
29.8242
 20
18.3215
 30
0.0
 10
29.8242
 20
18.3215
 30
0.0
 10
29.8242
 20
18.3215
 30
0.0
 10
29.8242
 20
18.3215
 30
0.0
 10
29.7912
 20
18.087
 30
0.0
 10
29.7912
 20
18.087
 30
0.0
  0
SPLINE
  5
A3
330
1F
100
AcDbEntity
  8
AXIS
 62
   250
100
AcDbSpline
210
0.0
220
0.0
230
1.0
 70
     8
 71
     3
 72
    20
 73
    16
 74
     0
 42
0.0000000001
 43
0.0000000001
 40
0.0
 40
0.0
 40
0.0
 40
0.0
 40
0.2
 40
0.2
 40
0.2
 40
0.2
 40
0.4
 40
0.4
 40
0.4
 40
0.4
 40
0.6
 40
0.6
 40
0.6
 40
0.6
 40
1.0
 40
1.0
 40
1.0
 40
1.0
 10
33.4053
 20
17.6489
 30
0.0
 10
33.4053
 20
17.6489
 30
0.0
 10
29.4698
 20
18.0925
 30
0.0
 10
29.4698
 20
18.0925
 30
0.0
 10
29.4698
 20
18.0925
 30
0.0
 10
29.4698
 20
18.0925
 30
0.0
 10
29.4125
 20
17.6683
 30
0.0
 10
29.4125
 20
17.6683
 30
0.0
 10
29.4125
 20
17.6683
 30
0.0
 10
29.4125
 20
17.6683
 30
0.0
 10
29.72
 20
17.6304
 30
0.0
 10
29.72
 20
17.6304
 30
0.0
 10
29.72
 20
17.6304
 30
0.0
 10
29.72
 20
17.6304
 30
0.0
 10
29.6861
 20
17.3887
 30
0.0
 10
29.6861
 20
17.3887
 30
0.0
  0
SPLINE
  5
A4
330
1F
100
AcDbEntity
  8
AXIS
 62
   250
100
AcDbSpline
210
0.0
220
0.0
230
1.0
 70
     8
 71
     3
 72
    20
 73
    16
 74
     0
 42
0.0000000001
 43
0.0000000001
 40
0.0
 40
0.0
 40
0.0
 40
0.0
 40
0.2
 40
0.2
 40
0.2
 40
0.2
 40
0.4
 40
0.4
 40
0.4
 40
0.4
 40
0.6
 40
0.6
 40
0.6
 40
0.6
 40
1.0
 40
1.0
 40
1.0
 40
1.0
 10
33.3182
 20
16.9739
 30
0.0
 10
33.3182
 20
16.9739
 30
0.0
 10
29.3827
 20
17.4175
 30
0.0
 10
29.3827
 20
17.4175
 30
0.0
 10
29.3827
 20
17.4175
 30
0.0
 10
29.3827
 20
17.4175
 30
0.0
 10
29.3254
 20
16.9932
 30
0.0
 10
29.3254
 20
16.9932
 30
0.0
 10
29.3254
 20
16.9932
 30
0.0
 10
29.3254
 20
16.9932
 30
0.0
 10
29.653
 20
16.9637
 30
0.0
 10
29.653
 20
16.9637
 30
0.0
 10
29.653
 20
16.9637
 30
0.0
 10
29.653
 20
16.9637
 30
0.0
 10
29.6272
 20
16.6789
 30
0.0
 10
29.6272
 20
16.6789
 30
0.0
  0
SPLINE
  5
A5
330
1F
100
AcDbEntity
  8
AXIS
 62
   250
100
AcDbSpline
210
0.0
220
0.0
230
1.0
 70
     8
 71
     3
 72
    20
 73
    16
 74
     0
 42
0.0000000001
 43
0.0000000001
 40
0.0
 40
0.0
 40
0.0
 40
0.0
 40
0.2
 40
0.2
 40
0.2
 40
0.2
 40
0.4
 40
0.4
 40
0.4
 40
0.4
 40
0.6
 40
0.6
 40
0.6
 40
0.6
 40
1.0
 40
1.0
 40
1.0
 40
1.0
 10
33.2311
 20
16.2553
 30
0.0
 10
33.2311
 20
16.2553
 30
0.0
 10
29.2956
 20
16.6989
 30
0.0
 10
29.2956
 20
16.6989
 30
0.0
 10
29.2956
 20
16.6989
 30
0.0
 10
29.2956
 20
16.6989
 30
0.0
 10
29.2383
 20
16.2747
 30
0.0
 10
29.2383
 20
16.2747
 30
0.0
 10
29.2383
 20
16.2747
 30
0.0
 10
29.2383
 20
16.2747
 30
0.0
 10
29.556
 20
16.2239
 30
0.0
 10
29.556
 20
16.2239
 30
0.0
 10
29.556
 20
16.2239
 30
0.0
 10
29.556
 20
16.2239
 30
0.0
 10
29.5136
 20
15.9007
 30
0.0
 10
29.5136
 20
15.9007
 30
0.0
  0
SPLINE
  5
A6
330
1F
100
AcDbEntity
  8
AXIS
 62
   250
100
AcDbSpline
210
0.0
220
0.0
230
1.0
 70
     8
 71
     3
 72
    20
 73
    16
 74
     0
 42
0.0000000001
 43
0.0000000001
 40
0.0
 40
0.0
 40
0.0
 40
0.0
 40
0.2
 40
0.2
 40
0.2
 40
0.2
 40
0.4
 40
0.4
 40
0.4
 40
0.4
 40
0.6
 40
0.6
 40
0.6
 40
0.6
 40
1.0
 40
1.0
 40
1.0
 40
1.0
 10
33.1658
 20
15.5368
 30
0.0
 10
33.1658
 20
15.5368
 30
0.0
 10
29.2303
 20
15.9804
 30
0.0
 10
29.2303
 20
15.9804
 30
0.0
 10
29.2303
 20
15.9804
 30
0.0
 10
29.2303
 20
15.9804
 30
0.0
 10
29.173
 20
15.5561
 30
0.0
 10
29.173
 20
15.5561
 30
0.0
 10
29.173
 20
15.5561
 30
0.0
 10
29.173
 20
15.5561
 30
0.0
 10
29.4742
 20
15.5031
 30
0.0
 10
29.4742
 20
15.5031
 30
0.0
 10
29.4742
 20
15.5031
 30
0.0
 10
29.4742
 20
15.5031
 30
0.0
 10
29.442
 20
15.2449
 30
0.0
 10
29.442
 20
15.2449
 30
0.0
  0
SPLINE
  5
A7
330
1F
100
AcDbEntity
  8
AXIS
 62
     7
100
AcDbSpline
210
0.0
220
0.0
230
1.0
 70
    11
 71
     3
 72
    20
 73
    16
 74
     0
 42
0.0000000001
 43
0.0000000001
 40
0.0
 40
0.0
 40
0.0
 40
0.0
 40
0.2
 40
0.2
 40
0.2
 40
0.2
 40
0.4
 40
0.4
 40
0.4
 40
0.4
 40
0.6
 40
0.6
 40
0.6
 40
0.6
 40
1.0
 40
1.0
 40
1.0
 40
1.0
 10
-3.5944
 20
-27.9429
 30
0.0
 10
-3.5944
 20
-27.9429
 30
0.0
 10
-2.1815
 20
-27.9429
 30
0.0
 10
-2.1815
 20
-27.9429
 30
0.0
 10
-2.1815
 20
-27.9429
 30
0.0
 10
-2.1815
 20
-27.9429
 30
0.0
 10
-2.1815
 20
-29.2276
 30
0.0
 10
-2.1815
 20
-29.2276
 30
0.0
 10
-2.1815
 20
-29.2276
 30
0.0
 10
-2.1815
 20
-29.2276
 30
0.0
 10
-3.5944
 20
-29.2276
 30
0.0
 10
-3.5944
 20
-29.2276
 30
0.0
 10
-3.5944
 20
-29.2276
 30
0.0
 10
-3.5944
 20
-29.2276
 30
0.0
 10
-3.5944
 20
-27.9429
 30
0.0
 10
-3.5944
 20
-27.9429
 30
0.0
  0
SPLINE
  5
A8
330
1F
100
AcDbEntity
  8
AXIS
 62
     7
100
AcDbSpline
210
0.0
220
0.0
230
1.0
 70
    11
 71
     3
 72
   200
 73
   196
 74
     0
 42
0.0000000001
 43
0.0000000001
 40
0.0
 40
0.0
 40
0.0
 40
0.0
 40
0.02
 40
0.02
 40
0.02
 40
0.02
 40
0.04
 40
0.04
 40
0.04
 40
0.04
 40
0.06
 40
0.06
 40
0.06
 40
0.06
 40
0.08
 40
0.08
 40
0.08
 40
0.08
 40
0.1
 40
0.1
 40
0.1
 40
0.1
 40
0.12
 40
0.12
 40
0.12
 40
0.12
 40
0.14
 40
0.14
 40
0.14
 40
0.14
 40
0.16
 40
0.16
 40
0.16
 40
0.16
 40
0.18
 40
0.18
 40
0.18
 40
0.18
 40
0.2
 40
0.2
 40
0.2
 40
0.2
 40
0.22
 40
0.22
 40
0.22
 40
0.22
 40
0.24
 40
0.24
 40
0.24
 40
0.24
 40
0.26
 40
0.26
 40
0.26
 40
0.26
 40
0.28
 40
0.28
 40
0.28
 40
0.28
 40
0.3
 40
0.3
 40
0.3
 40
0.3
 40
0.32
 40
0.32
 40
0.32
 40
0.32
 40
0.34
 40
0.34
 40
0.34
 40
0.34
 40
0.36
 40
0.36
 40
0.36
 40
0.36
 40
0.38
 40
0.38
 40
0.38
 40
0.38
 40
0.4
 40
0.4
 40
0.4
 40
0.4
 40
0.42
 40
0.42
 40
0.42
 40
0.42
 40
0.44
 40
0.44
 40
0.44
 40
0.44
 40
0.46
 40
0.46
 40
0.46
 40
0.46
 40
0.48
 40
0.48
 40
0.48
 40
0.48
 40
0.5
 40
0.5
 40
0.5
 40
0.5
 40
0.52
 40
0.52
 40
0.52
 40
0.52
 40
0.54
 40
0.54
 40
0.54
 40
0.54
 40
0.56
 40
0.56
 40
0.56
 40
0.56
 40
0.58
 40
0.58
 40
0.58
 40
0.58
 40
0.6
 40
0.6
 40
0.6
 40
0.6
 40
0.62
 40
0.62
 40
0.62
 40
0.62
 40
0.64
 40
0.64
 40
0.64
 40
0.64
 40
0.66
 40
0.66
 40
0.66
 40
0.66
 40
0.68
 40
0.68
 40
0.68
 40
0.68
 40
0.7
 40
0.7
 40
0.7
 40
0.7
 40
0.72
 40
0.72
 40
0.72
 40
0.72
 40
0.74
 40
0.74
 40
0.74
 40
0.74
 40
0.76
 40
0.76
 40
0.76
 40
0.76
 40
0.78
 40
0.78
 40
0.78
 40
0.78
 40
0.8
 40
0.8
 40
0.8
 40
0.8
 40
0.82
 40
0.82
 40
0.82
 40
0.82
 40
0.84
 40
0.84
 40
0.84
 40
0.84
 40
0.86
 40
0.86
 40
0.86
 40
0.86
 40
0.88
 40
0.88
 40
0.88
 40
0.88
 40
0.9
 40
0.9
 40
0.9
 40
0.9
 40
0.92
 40
0.92
 40
0.92
 40
0.92
 40
0.94
 40
0.94
 40
0.94
 40
0.94
 40
0.96
 40
0.96
 40
0.96
 40
0.96
 40
1.0
 40
1.0
 40
1.0
 40
1.0
 10
28.8013
 20
-11.8525
 30
0.0
 10
28.8013
 20
-11.8525
 30
0.0
 10
28.5322
 20
-13.1384
 30
0.0
 10
28.5322
 20
-13.1384
 30
0.0
 10
28.5322
 20
-13.1384
 30
0.0
 10
28.5322
 20
-13.1384
 30
0.0
 10
28.182
 20
-14.4049
 30
0.0
 10
28.182
 20
-14.4049
 30
0.0
 10
28.182
 20
-14.4049
 30
0.0
 10
28.182
 20
-14.4049
 30
0.0
 10
27.7522
 20
-15.6465
 30
0.0
 10
27.7522
 20
-15.6465
 30
0.0
 10
27.7522
 20
-15.6465
 30
0.0
 10
27.7522
 20
-15.6465
 30
0.0
 10
27.2446
 20
-16.8585
 30
0.0
 10
27.2446
 20
-16.8585
 30
0.0
 10
27.2446
 20
-16.8585
 30
0.0
 10
27.2446
 20
-16.8585
 30
0.0
 10
26.661
 20
-18.0357
 30
0.0
 10
26.661
 20
-18.0357
 30
0.0
 10
26.661
 20
-18.0357
 30
0.0
 10
26.661
 20
-18.0357
 30
0.0
 10
26.0039
 20
-19.1736
 30
0.0
 10
26.0039
 20
-19.1736
 30
0.0
 10
26.0039
 20
-19.1736
 30
0.0
 10
26.0039
 20
-19.1736
 30
0.0
 10
25.2759
 20
-20.2676
 30
0.0
 10
25.2759
 20
-20.2676
 30
0.0
 10
25.2759
 20
-20.2676
 30
0.0
 10
25.2759
 20
-20.2676
 30
0.0
 10
24.4801
 20
-21.313
 30
0.0
 10
24.4801
 20
-21.313
 30
0.0
 10
24.4801
 20
-21.313
 30
0.0
 10
24.4801
 20
-21.313
 30
0.0
 10
23.6196
 20
-22.3061
 30
0.0
 10
23.6196
 20
-22.3061
 30
0.0
 10
23.6196
 20
-22.3061
 30
0.0
 10
23.6196
 20
-22.3061
 30
0.0
 10
22.6977
 20
-23.2426
 30
0.0
 10
22.6977
 20
-23.2426
 30
0.0
 10
22.6977
 20
-23.2426
 30
0.0
 10
22.6977
 20
-23.2426
 30
0.0
 10
21.7184
 20
-24.1186
 30
0.0
 10
21.7184
 20
-24.1186
 30
0.0
 10
21.7184
 20
-24.1186
 30
0.0
 10
21.7184
 20
-24.1186
 30
0.0
 10
20.6855
 20
-24.9308
 30
0.0
 10
20.6855
 20
-24.9308
 30
0.0
 10
20.6855
 20
-24.9308
 30
0.0
 10
20.6855
 20
-24.9308
 30
0.0
 10
19.603
 20
-25.6759
 30
0.0
 10
19.603
 20
-25.6759
 30
0.0
 10
19.603
 20
-25.6759
 30
0.0
 10
19.603
 20
-25.6759
 30
0.0
 10
18.4755
 20
-26.3508
 30
0.0
 10
18.4755
 20
-26.3508
 30
0.0
 10
18.4755
 20
-26.3508
 30
0.0
 10
18.4755
 20
-26.3508
 30
0.0
 10
17.3075
 20
-26.953
 30
0.0
 10
17.3075
 20
-26.953
 30
0.0
 10
17.3075
 20
-26.953
 30
0.0
 10
17.3075
 20
-26.953
 30
0.0
 10
16.1036
 20
-27.4797
 30
0.0
 10
16.1036
 20
-27.4797
 30
0.0
 10
16.1036
 20
-27.4797
 30
0.0
 10
16.1036
 20
-27.4797
 30
0.0
 10
14.8687
 20
-27.929
 30
0.0
 10
14.8687
 20
-27.929
 30
0.0
 10
14.8687
 20
-27.929
 30
0.0
 10
14.8687
 20
-27.929
 30
0.0
 10
13.6078
 20
-28.2993
 30
0.0
 10
13.6078
 20
-28.2993
 30
0.0
 10
13.6078
 20
-28.2993
 30
0.0
 10
13.6078
 20
-28.2993
 30
0.0
 10
12.326
 20
-28.5888
 30
0.0
 10
12.326
 20
-28.5888
 30
0.0
 10
12.326
 20
-28.5888
 30
0.0
 10
12.326
 20
-28.5888
 30
0.0
 10
11.0283
 20
-28.7963
 30
0.0
 10
11.0283
 20
-28.7963
 30
0.0
 10
11.0283
 20
-28.7963
 30
0.0
 10
11.0283
 20
-28.7963
 30
0.0
 10
9.7202
 20
-28.9213
 30
0.0
 10
9.7202
 20
-28.9213
 30
0.0
 10
9.7202
 20
-28.9213
 30
0.0
 10
9.7202
 20
-28.9213
 30
0.0
 10
8.4067
 20
-28.9629
 30
0.0
 10
8.4067
 20
-28.9629
 30
0.0
 10
8.4067
 20
-28.9629
 30
0.0
 10
8.4067
 20
-28.9629
 30
0.0
 10
-2.1422
 20
-28.9726
 30
0.0
 10
-2.1422
 20
-28.9726
 30
0.0
 10
-2.1422
 20
-28.9726
 30
0.0
 10
-2.1422
 20
-28.9726
 30
0.0
 10
-2.1422
 20
-28.1832
 30
0.0
 10
-2.1422
 20
-28.1832
 30
0.0
 10
-2.1422
 20
-28.1832
 30
0.0
 10
-2.1422
 20
-28.1832
 30
0.0
 10
8.4067
 20
-28.1896
 30
0.0
 10
8.4067
 20
-28.1896
 30
0.0
 10
8.4067
 20
-28.1896
 30
0.0
 10
8.4067
 20
-28.1896
 30
0.0
 10
9.7313
 20
-28.1455
 30
0.0
 10
9.7313
 20
-28.1455
 30
0.0
 10
9.7313
 20
-28.1455
 30
0.0
 10
9.7313
 20
-28.1455
 30
0.0
 10
11.05
 20
-28.0136
 30
0.0
 10
11.05
 20
-28.0136
 30
0.0
 10
11.05
 20
-28.0136
 30
0.0
 10
11.05
 20
-28.0136
 30
0.0
 10
12.357
 20
-27.7943
 30
0.0
 10
12.357
 20
-27.7943
 30
0.0
 10
12.357
 20
-27.7943
 30
0.0
 10
12.357
 20
-27.7943
 30
0.0
 10
13.6464
 20
-27.4888
 30
0.0
 10
13.6464
 20
-27.4888
 30
0.0
 10
13.6464
 20
-27.4888
 30
0.0
 10
13.6464
 20
-27.4888
 30
0.0
 10
14.9128
 20
-27.0982
 30
0.0
 10
14.9128
 20
-27.0982
 30
0.0
 10
14.9128
 20
-27.0982
 30
0.0
 10
14.9128
 20
-27.0982
 30
0.0
 10
16.1505
 20
-26.6243
 30
0.0
 10
16.1505
 20
-26.6243
 30
0.0
 10
16.1505
 20
-26.6243
 30
0.0
 10
16.1505
 20
-26.6243
 30
0.0
 10
17.3537
 20
-26.0693
 30
0.0
 10
17.3537
 20
-26.0693
 30
0.0
 10
17.3537
 20
-26.0693
 30
0.0
 10
17.3537
 20
-26.0693
 30
0.0
 10
18.5177
 20
-25.4356
 30
0.0
 10
18.5177
 20
-25.4356
 30
0.0
 10
18.5177
 20
-25.4356
 30
0.0
 10
18.5177
 20
-25.4356
 30
0.0
 10
19.6369
 20
-24.726
 30
0.0
 10
19.6369
 20
-24.726
 30
0.0
 10
19.6369
 20
-24.726
 30
0.0
 10
19.6369
 20
-24.726
 30
0.0
 10
20.7064
 20
-23.9436
 30
0.0
 10
20.7064
 20
-23.9436
 30
0.0
 10
20.7064
 20
-23.9436
 30
0.0
 10
20.7064
 20
-23.9436
 30
0.0
 10
21.7217
 20
-23.0918
 30
0.0
 10
21.7217
 20
-23.0918
 30
0.0
 10
21.7217
 20
-23.0918
 30
0.0
 10
21.7217
 20
-23.0918
 30
0.0
 10
22.678
 20
-22.1746
 30
0.0
 10
22.678
 20
-22.1746
 30
0.0
 10
22.678
 20
-22.1746
 30
0.0
 10
22.678
 20
-22.1746
 30
0.0
 10
23.5714
 20
-21.1958
 30
0.0
 10
23.5714
 20
-21.1958
 30
0.0
 10
23.5714
 20
-21.1958
 30
0.0
 10
23.5714
 20
-21.1958
 30
0.0
 10
24.3976
 20
-20.1599
 30
0.0
 10
24.3976
 20
-20.1599
 30
0.0
 10
24.3976
 20
-20.1599
 30
0.0
 10
24.3976
 20
-20.1599
 30
0.0
 10
25.1532
 20
-19.0712
 30
0.0
 10
25.1532
 20
-19.0712
 30
0.0
 10
25.1532
 20
-19.0712
 30
0.0
 10
25.1532
 20
-19.0712
 30
0.0
 10
25.8349
 20
-17.935
 30
0.0
 10
25.8349
 20
-17.935
 30
0.0
 10
25.8349
 20
-17.935
 30
0.0
 10
25.8349
 20
-17.935
 30
0.0
 10
26.4395
 20
-16.7558
 30
0.0
 10
26.4395
 20
-16.7558
 30
0.0
 10
26.4395
 20
-16.7558
 30
0.0
 10
26.4395
 20
-16.7558
 30
0.0
 10
26.9644
 20
-15.5391
 30
0.0
 10
26.9644
 20
-15.5391
 30
0.0
 10
26.9644
 20
-15.5391
 30
0.0
 10
26.9644
 20
-15.5391
 30
0.0
 10
27.4073
 20
-14.2902
 30
0.0
 10
27.4073
 20
-14.2902
 30
0.0
 10
27.4073
 20
-14.2902
 30
0.0
 10
27.4073
 20
-14.2902
 30
0.0
 10
27.7662
 20
-13.0147
 30
0.0
 10
27.7662
 20
-13.0147
 30
0.0
 10
27.7662
 20
-13.0147
 30
0.0
 10
27.7662
 20
-13.0147
 30
0.0
 10
28.0396
 20
-11.7182
 30
0.0
 10
28.0396
 20
-11.7182
 30
0.0
 10
28.0396
 20
-11.7182
 30
0.0
 10
28.0396
 20
-11.7182
 30
0.0
 10
34.1341
 20
22.8772
 30
0.0
 10
34.1341
 20
22.8772
 30
0.0
 10
34.1341
 20
22.8772
 30
0.0
 10
34.1341
 20
22.8772
 30
0.0
 10
34.9374
 20
22.7967
 30
0.0
 10
34.9374
 20
22.7967
 30
0.0
 10
34.9374
 20
22.7967
 30
0.0
 10
34.9374
 20
22.7967
 30
0.0
 10
28.8013
 20
-11.8525
 30
0.0
 10
28.8013
 20
-11.8525
 30
0.0
  0
SPLINE
  5
A9
330
1F
100
AcDbEntity
  8
AXIS
 62
     7
100
AcDbSpline
210
0.0
220
0.0
230
1.0
 70
    11
 71
     3
 72
    44
 73
    40
 74
     0
 42
0.0000000001
 43
0.0000000001
 40
0.0
 40
0.0
 40
0.0
 40
0.0
 40
0.0909090909090909
 40
0.0909090909090909
 40
0.0909090909090909
 40
0.0909090909090909
 40
0.1818181818181818
 40
0.1818181818181818
 40
0.1818181818181818
 40
0.1818181818181818
 40
0.2727272727272727
 40
0.2727272727272727
 40
0.2727272727272727
 40
0.2727272727272727
 40
0.3636363636363636
 40
0.3636363636363636
 40
0.3636363636363636
 40
0.3636363636363636
 40
0.4545454545454545
 40
0.4545454545454545
 40
0.4545454545454545
 40
0.4545454545454545
 40
0.5454545454545454
 40
0.5454545454545454
 40
0.5454545454545454
 40
0.5454545454545454
 40
0.6363636363636364
 40
0.6363636363636364
 40
0.6363636363636364
 40
0.6363636363636364
 40
0.7272727272727273
 40
0.7272727272727273
 40
0.7272727272727273
 40
0.7272727272727273
 40
0.8181818181818182
 40
0.8181818181818182
 40
0.8181818181818182
 40
0.8181818181818182
 40
1.0
 40
1.0
 40
1.0
 40
1.0
 10
26.0041
 20
22.6916
 30
0.0
 10
25.6699
 20
25.9185
 30
0.0
 10
26.0375
 20
29.1795
 30
0.0
 10
27.0815
 20
32.2511
 30
0.0
 10
27.0815
 20
32.2511
 30
0.0
 10
27.0815
 20
32.2511
 30
0.0
 10
27.186
 20
32.5012
 30
0.0
 10
27.186
 20
32.5012
 30
0.0
 10
27.186
 20
32.5012
 30
0.0
 10
27.186
 20
32.5012
 30
0.0
 10
27.2902
 20
32.5832
 30
0.0
 10
27.2902
 20
32.5832
 30
0.0
 10
27.2902
 20
32.5832
 30
0.0
 10
27.2902
 20
32.5832
 30
0.0
 10
27.4317
 20
32.6056
 30
0.0
 10
27.4317
 20
32.6056
 30
0.0
 10
27.4317
 20
32.6056
 30
0.0
 10
27.4317
 20
32.6056
 30
0.0
 10
29.5834
 20
32.5981
 30
0.0
 10
29.5834
 20
32.5981
 30
0.0
 10
29.5834
 20
32.5981
 30
0.0
 10
29.5834
 20
32.5981
 30
0.0
 10
28.3306
 20
21.7844
 30
0.0
 10
28.3306
 20
21.7844
 30
0.0
 10
28.3306
 20
21.7844
 30
0.0
 10
28.3306
 20
21.7844
 30
0.0
 10
26.194
 20
22.2858
 30
0.0
 10
26.194
 20
22.2858
 30
0.0
 10
26.194
 20
22.2858
 30
0.0
 10
26.194
 20
22.2858
 30
0.0
 10
26.1329
 20
22.3241
 30
0.0
 10
26.1329
 20
22.3241
 30
0.0
 10
26.1329
 20
22.3241
 30
0.0
 10
26.1329
 20
22.3241
 30
0.0
 10
26.0566
 20
22.4082
 30
0.0
 10
26.0566
 20
22.4082
 30
0.0
 10
26.0566
 20
22.4082
 30
0.0
 10
26.0566
 20
22.4082
 30
0.0
 10
26.0041
 20
22.6916
 30
0.0
 10
26.0041
 20
22.6916
 30
0.0
  0
SPLINE
  5
AA
330
1F
100
AcDbEntity
  8
AXIS
 62
   250
100
AcDbSpline
210
0.0
220
0.0
230
1.0
 70
     8
 71
     3
 72
    56
 73
    52
 74
     0
 42
0.0000000001
 43
0.0000000001
 40
0.0
 40
0.0
 40
0.0
 40
0.0
 40
0.0714285714285714
 40
0.0714285714285714
 40
0.0714285714285714
 40
0.0714285714285714
 40
0.1428571428571428
 40
0.1428571428571428
 40
0.1428571428571428
 40
0.1428571428571428
 40
0.2142857142857143
 40
0.2142857142857143
 40
0.2142857142857143
 40
0.2142857142857143
 40
0.2857142857142857
 40
0.2857142857142857
 40
0.2857142857142857
 40
0.2857142857142857
 40
0.3571428571428572
 40
0.3571428571428572
 40
0.3571428571428572
 40
0.3571428571428572
 40
0.4285714285714285
 40
0.4285714285714285
 40
0.4285714285714285
 40
0.4285714285714285
 40
0.5
 40
0.5
 40
0.5
 40
0.5
 40
0.5714285714285714
 40
0.5714285714285714
 40
0.5714285714285714
 40
0.5714285714285714
 40
0.6428571428571429
 40
0.6428571428571429
 40
0.6428571428571429
 40
0.6428571428571429
 40
0.7142857142857143
 40
0.7142857142857143
 40
0.7142857142857143
 40
0.7142857142857143
 40
0.7857142857142857
 40
0.7857142857142857
 40
0.7857142857142857
 40
0.7857142857142857
 40
0.8571428571428571
 40
0.8571428571428571
 40
0.8571428571428571
 40
0.8571428571428571
 40
1.0
 40
1.0
 40
1.0
 40
1.0
 10
26.1796
 20
22.3138
 30
0.0
 10
26.1796
 20
22.3138
 30
0.0
 10
26.3786
 20
23.8942
 30
0.0
 10
26.3786
 20
23.8942
 30
0.0
 10
26.3786
 20
23.8942
 30
0.0
 10
26.3786
 20
23.8942
 30
0.0
 10
26.3318
 20
24.2219
 30
0.0
 10
26.3318
 20
24.2219
 30
0.0
 10
26.3318
 20
24.2219
 30
0.0
 10
26.3318
 20
24.2219
 30
0.0
 10
26.3318
 20
24.4912
 30
0.0
 10
26.3318
 20
24.4912
 30
0.0
 10
26.3318
 20
24.4912
 30
0.0
 10
26.3318
 20
24.4912
 30
0.0
 10
26.3435
 20
24.8424
 30
0.0
 10
26.3435
 20
24.8424
 30
0.0
 10
26.3435
 20
24.8424
 30
0.0
 10
26.3435
 20
24.8424
 30
0.0
 10
26.3786
 20
25.1233
 30
0.0
 10
26.3786
 20
25.1233
 30
0.0
 10
26.3786
 20
25.1233
 30
0.0
 10
26.3786
 20
25.1233
 30
0.0
 10
26.4488
 20
25.4394
 30
0.0
 10
26.4488
 20
25.4394
 30
0.0
 10
26.4488
 20
25.4394
 30
0.0
 10
26.4488
 20
25.4394
 30
0.0
 10
26.5658
 20
25.8052
 30
0.0
 10
26.5658
 20
25.8052
 30
0.0
 10
26.5658
 20
25.8052
 30
0.0
 10
26.5658
 20
25.8052
 30
0.0
 10
26.9361
 20
29.0906
 30
0.0
 10
26.9361
 20
29.0906
 30
0.0
 10
26.9361
 20
29.0906
 30
0.0
 10
26.9361
 20
29.0906
 30
0.0
 10
26.8882
 20
29.5583
 30
0.0
 10
26.8882
 20
29.5583
 30
0.0
 10
26.8882
 20
29.5583
 30
0.0
 10
26.8882
 20
29.5583
 30
0.0
 10
26.9364
 20
30.1379
 30
0.0
 10
26.9364
 20
30.1379
 30
0.0
 10
26.9364
 20
30.1379
 30
0.0
 10
26.9364
 20
30.1379
 30
0.0
 10
27.0488
 20
30.5565
 30
0.0
 10
27.0488
 20
30.5565
 30
0.0
 10
27.0488
 20
30.5565
 30
0.0
 10
27.0488
 20
30.5565
 30
0.0
 10
27.1452
 20
30.9751
 30
0.0
 10
27.1452
 20
30.9751
 30
0.0
 10
27.1452
 20
30.9751
 30
0.0
 10
27.1452
 20
30.9751
 30
0.0
 10
27.322
 20
32.585
 30
0.0
 10
27.322
 20
32.585
 30
0.0
  0
SPLINE
  5
AB
330
1F
100
AcDbEntity
  8
AXIS
 62
   250
100
AcDbSpline
210
0.0
220
0.0
230
1.0
 70
     8
 71
     3
 72
    16
 73
    12
 74
     0
 42
0.0000000001
 43
0.0000000001
 40
0.0
 40
0.0
 40
0.0
 40
0.0
 40
0.25
 40
0.25
 40
0.25
 40
0.25
 40
0.5
 40
0.5
 40
0.5
 40
0.5
 40
1.0
 40
1.0
 40
1.0
 40
1.0
 10
28.5926
 20
23.9317
 30
0.0
 10
28.5926
 20
23.9317
 30
0.0
 10
27.8914
 20
23.9164
 30
0.0
 10
27.8914
 20
23.9164
 30
0.0
 10
27.8914
 20
23.9164
 30
0.0
 10
27.8914
 20
23.9164
 30
0.0
 10
27.1479
 20
23.9224
 30
0.0
 10
27.1479
 20
23.9224
 30
0.0
 10
27.1479
 20
23.9224
 30
0.0
 10
27.1479
 20
23.9224
 30
0.0
 10
26.356
 20
23.9443
 30
0.0
 10
26.356
 20
23.9443
 30
0.0
  0
SPLINE
  5
AC
330
1F
100
AcDbEntity
  8
AXIS
 62
   250
100
AcDbSpline
210
0.0
220
0.0
230
1.0
 70
     8
 71
     3
 72
    16
 73
    12
 74
     0
 42
0.0000000001
 43
0.0000000001
 40
0.0
 40
0.0
 40
0.0
 40
0.0
 40
0.25
 40
0.25
 40
0.25
 40
0.25
 40
0.5
 40
0.5
 40
0.5
 40
0.5
 40
1.0
 40
1.0
 40
1.0
 40
1.0
 10
26.5658
 20
25.8052
 30
0.0
 10
26.5658
 20
25.8052
 30
0.0
 10
27.3318
 20
25.5549
 30
0.0
 10
27.3318
 20
25.5549
 30
0.0
 10
27.3318
 20
25.5549
 30
0.0
 10
27.3318
 20
25.5549
 30
0.0
 10
28.0482
 20
25.307
 30
0.0
 10
28.0482
 20
25.307
 30
0.0
 10
28.0482
 20
25.307
 30
0.0
 10
28.0482
 20
25.307
 30
0.0
 10
28.7191
 20
25.0542
 30
0.0
 10
28.7191
 20
25.0542
 30
0.0
  0
SPLINE
  5
AD
330
1F
100
AcDbEntity
  8
AXIS
 62
   250
100
AcDbSpline
210
0.0
220
0.0
230
1.0
 70
     8
 71
     3
 72
    16
 73
    12
 74
     0
 42
0.0000000001
 43
0.0000000001
 40
0.0
 40
0.0
 40
0.0
 40
0.0
 40
0.25
 40
0.25
 40
0.25
 40
0.25
 40
0.5
 40
0.5
 40
0.5
 40
0.5
 40
1.0
 40
1.0
 40
1.0
 40
1.0
 10
29.2026
 20
29.3434
 30
0.0
 10
29.2026
 20
29.3434
 30
0.0
 10
28.4921
 20
29.2463
 30
0.0
 10
28.4921
 20
29.2463
 30
0.0
 10
28.4921
 20
29.2463
 30
0.0
 10
28.4921
 20
29.2463
 30
0.0
 10
27.7388
 20
29.1641
 30
0.0
 10
27.7388
 20
29.1641
 30
0.0
 10
27.7388
 20
29.1641
 30
0.0
 10
27.7388
 20
29.1641
 30
0.0
 10
26.9361
 20
29.0906
 30
0.0
 10
26.9361
 20
29.0906
 30
0.0
  0
SPLINE
  5
AE
330
1F
100
AcDbEntity
  8
AXIS
 62
   250
100
AcDbSpline
210
0.0
220
0.0
230
1.0
 70
     8
 71
     3
 72
    16
 73
    12
 74
     0
 42
0.0000000001
 43
0.0000000001
 40
0.0
 40
0.0
 40
0.0
 40
0.0
 40
0.25
 40
0.25
 40
0.25
 40
0.25
 40
0.5
 40
0.5
 40
0.5
 40
0.5
 40
1.0
 40
1.0
 40
1.0
 40
1.0
 10
27.1458
 20
30.9514
 30
0.0
 10
27.1458
 20
30.9514
 30
0.0
 10
27.9226
 20
30.7967
 30
0.0
 10
27.9226
 20
30.7967
 30
0.0
 10
27.9226
 20
30.7967
 30
0.0
 10
27.9226
 20
30.7967
 30
0.0
 10
28.6489
 20
30.6369
 30
0.0
 10
28.6489
 20
30.6369
 30
0.0
 10
28.6489
 20
30.6369
 30
0.0
 10
28.6489
 20
30.6369
 30
0.0
 10
29.3291
 20
30.466
 30
0.0
 10
29.3291
 20
30.466
 30
0.0
  0
SPLINE
  5
AF
330
1F
100
AcDbEntity
  8
AXIS
 62
   250
100
AcDbSpline
210
0.0
220
0.0
230
1.0
 70
    24
 71
     3
 72
     8
 73
     4
 74
     0
 42
0.0000000001
 43
0.0000000001
 40
0.0
 40
0.0
 40
0.0
 40
0.0
 40
1.0
 40
1.0
 40
1.0
 40
1.0
 10
30.1946
 20
21.717
 30
0.0
 10
30.1946
 20
21.717
 30
0.0
 10
30.0961
 20
20.8435
 30
0.0
 10
30.0961
 20
20.8435
 30
0.0
  0
SPLINE
  5
B0
330
1F
100
AcDbEntity
  8
AXIS
 62
   250
100
AcDbSpline
210
0.0
220
0.0
230
1.0
 70
     8
 71
     3
 72
    16
 73
    12
 74
     0
 42
0.0000000001
 43
0.0000000001
 40
0.0
 40
0.0
 40
0.0
 40
0.0
 40
0.25
 40
0.25
 40
0.25
 40
0.25
 40
0.5
 40
0.5
 40
0.5
 40
0.5
 40
1.0
 40
1.0
 40
1.0
 40
1.0
 10
35.9797
 20
26.9672
 30
0.0
 10
35.9797
 20
26.9672
 30
0.0
 10
35.0014
 20
27.0775
 30
0.0
 10
35.0014
 20
27.0775
 30
0.0
 10
35.0014
 20
27.0775
 30
0.0
 10
35.0014
 20
27.0775
 30
0.0
 10
35.0176
 20
27.2264
 30
0.0
 10
35.0176
 20
27.2264
 30
0.0
 10
35.0176
 20
27.2264
 30
0.0
 10
35.0176
 20
27.2264
 30
0.0
 10
35.9885
 20
27.1114
 30
0.0
 10
35.9885
 20
27.1114
 30
0.0
  0
SPLINE
  5
B1
330
1F
100
AcDbEntity
  8
AXIS
 62
   250
100
AcDbSpline
210
0.0
220
0.0
230
1.0
 70
     8
 71
     3
 72
    24
 73
    20
 74
     0
 42
0.0000000001
 43
0.0000000001
 40
0.0
 40
0.0
 40
0.0
 40
0.0
 40
0.1666666666666667
 40
0.1666666666666667
 40
0.1666666666666667
 40
0.1666666666666667
 40
0.3333333333333333
 40
0.3333333333333333
 40
0.3333333333333333
 40
0.3333333333333333
 40
0.5
 40
0.5
 40
0.5
 40
0.5
 40
0.6666666666666666
 40
0.6666666666666666
 40
0.6666666666666666
 40
0.6666666666666666
 40
1.0
 40
1.0
 40
1.0
 40
1.0
 10
34.9496
 20
22.8441
 30
0.0
 10
35.2583
 20
22.8092
 30
0.0
 10
35.5368
 20
23.0314
 30
0.0
 10
35.5716
 20
23.34
 30
0.0
 10
35.5716
 20
23.34
 30
0.0
 10
35.6064
 20
23.6488
 30
0.0
 10
35.3844
 20
23.9272
 30
0.0
 10
35.0756
 20
23.9621
 30
0.0
 10
35.0756
 20
23.9621
 30
0.0
 10
35.0756
 20
23.9621
 30
0.0
 10
34.7962
 20
23.9936
 30
0.0
 10
34.7962
 20
23.9936
 30
0.0
 10
34.7962
 20
23.9936
 30
0.0
 10
34.4874
 20
24.0284
 30
0.0
 10
34.2089
 20
23.8063
 30
0.0
 10
34.1741
 20
23.4975
 30
0.0
 10
34.1741
 20
23.4975
 30
0.0
 10
34.1394
 20
23.1889
 30
0.0
 10
34.3613
 20
22.9104
 30
0.0
 10
34.6701
 20
22.8755
 30
0.0
  0
SPLINE
  5
B2
330
1F
100
AcDbEntity
  8
AXIS
 62
   250
100
AcDbSpline
210
0.0
220
0.0
230
1.0
 70
    24
 71
     3
 72
     8
 73
     4
 74
     0
 42
0.0000000001
 43
0.0000000001
 40
0.0
 40
0.0
 40
0.0
 40
0.0
 40
1.0
 40
1.0
 40
1.0
 40
1.0
 10
29.3806
 20
26.173
 30
0.0
 10
29.3806
 20
26.173
 30
0.0
 10
29.6599
 20
26.14
 30
0.0
 10
29.6599
 20
26.14
 30
0.0
  0
SPLINE
  5
B3
330
1F
100
AcDbEntity
  8
AXIS
 62
   250
100
AcDbSpline
210
0.0
220
0.0
230
1.0
 70
    24
 71
     3
 72
     8
 73
     4
 74
     0
 42
0.0000000001
 43
0.0000000001
 40
0.0
 40
0.0
 40
0.0
 40
0.0
 40
1.0
 40
1.0
 40
1.0
 40
1.0
 10
29.8781
 20
28.0754
 30
0.0
 10
29.8781
 20
28.0754
 30
0.0
 10
29.5984
 20
28.1054
 30
0.0
 10
29.5984
 20
28.1054
 30
0.0
  0
SPLINE
  5
B4
330
1F
100
AcDbEntity
  8
AXIS
 62
   250
100
AcDbSpline
210
0.0
220
0.0
230
1.0
 70
    24
 71
     3
 72
     8
 73
     4
 74
     0
 42
0.0000000001
 43
0.0000000001
 40
0.0
 40
0.0
 40
0.0
 40
0.0
 40
1.0
 40
1.0
 40
1.0
 40
1.0
 10
28.974
 20
22.5664
 30
0.0
 10
28.974
 20
22.5664
 30
0.0
 10
28.4474
 20
22.643
 30
0.0
 10
28.4474
 20
22.643
 30
0.0
  0
SPLINE
  5
B5
330
1F
100
AcDbEntity
  8
AXIS
 62
   250
100
AcDbSpline
210
0.0
220
0.0
230
1.0
 70
    24
 71
     3
 72
     8
 73
     4
 74
     0
 42
0.0000000001
 43
0.0000000001
 40
0.0
 40
0.0
 40
0.0
 40
0.0
 40
1.0
 40
1.0
 40
1.0
 40
1.0
 10
29.4743
 20
31.7547
 30
0.0
 10
29.4743
 20
31.7547
 30
0.0
 10
30.0049
 20
31.7121
 30
0.0
 10
30.0049
 20
31.7121
 30
0.0
  0
SPLINE
  5
B6
330
1F
100
AcDbEntity
  8
AXIS
 62
   250
100
AcDbSpline
210
0.0
220
0.0
230
1.0
 70
     8
 71
     3
 72
    20
 73
    16
 74
     0
 42
0.0000000001
 43
0.0000000001
 40
0.0
 40
0.0
 40
0.0
 40
0.0
 40
0.2
 40
0.2
 40
0.2
 40
0.2
 40
0.4
 40
0.4
 40
0.4
 40
0.4
 40
0.6
 40
0.6
 40
0.6
 40
0.6
 40
1.0
 40
1.0
 40
1.0
 40
1.0
 10
31.5515
 20
30.641
 30
0.0
 10
31.5515
 20
30.641
 30
0.0
 10
34.4563
 20
30.1202
 30
0.0
 10
34.4563
 20
30.1202
 30
0.0
 10
34.4563
 20
30.1202
 30
0.0
 10
34.4563
 20
30.1202
 30
0.0
 10
33.8298
 20
24.5003
 30
0.0
 10
33.8298
 20
24.5003
 30
0.0
 10
33.8298
 20
24.5003
 30
0.0
 10
33.8298
 20
24.5003
 30
0.0
 10
34.2917
 20
24.5228
 30
0.0
 10
34.2917
 20
24.5228
 30
0.0
 10
34.2917
 20
24.5228
 30
0.0
 10
34.2917
 20
24.5228
 30
0.0
 10
34.1115
 20
22.9567
 30
0.0
 10
34.1115
 20
22.9567
 30
0.0
  0
SPLINE
  5
B7
330
1F
100
AcDbEntity
  8
AXIS
 62
   250
100
AcDbSpline
210
0.0
220
0.0
230
1.0
 70
     8
 71
     3
 72
    32
 73
    28
 74
     0
 42
0.0000000001
 43
0.0000000001
 40
0.0
 40
0.0
 40
0.0
 40
0.0
 40
0.125
 40
0.125
 40
0.125
 40
0.125
 40
0.25
 40
0.25
 40
0.25
 40
0.25
 40
0.375
 40
0.375
 40
0.375
 40
0.375
 40
0.5
 40
0.5
 40
0.5
 40
0.5
 40
0.625
 40
0.625
 40
0.625
 40
0.625
 40
0.75
 40
0.75
 40
0.75
 40
0.75
 40
1.0
 40
1.0
 40
1.0
 40
1.0
 10
30.7395
 20
31.9519
 30
0.0
 10
30.7395
 20
31.9519
 30
0.0
 10
30.0277
 20
32.0321
 30
0.0
 10
30.0277
 20
32.0321
 30
0.0
 10
30.0277
 20
32.0321
 30
0.0
 10
30.0277
 20
32.0321
 30
0.0
 10
29.596
 20
27.9864
 30
0.0
 10
29.596
 20
27.9864
 30
0.0
 10
29.596
 20
27.9864
 30
0.0
 10
29.596
 20
27.9864
 30
0.0
 10
29.084
 20
28.0357
 30
0.0
 10
29.084
 20
28.0357
 30
0.0
 10
29.084
 20
28.0357
 30
0.0
 10
29.084
 20
28.0357
 30
0.0
 10
28.9194
 20
26.3361
 30
0.0
 10
28.9194
 20
26.3361
 30
0.0
 10
28.9194
 20
26.3361
 30
0.0
 10
28.9194
 20
26.3361
 30
0.0
 10
29.3959
 20
26.2599
 30
0.0
 10
29.3959
 20
26.2599
 30
0.0
 10
29.3959
 20
26.2599
 30
0.0
 10
29.3959
 20
26.2599
 30
0.0
 10
28.9491
 20
22.2641
 30
0.0
 10
28.9491
 20
22.2641
 30
0.0
 10
28.9491
 20
22.2641
 30
0.0
 10
28.9491
 20
22.2641
 30
0.0
 10
29.6229
 20
22.1554
 30
0.0
 10
29.6229
 20
22.1554
 30
0.0
  0
SPLINE
  5
B8
330
1F
100
AcDbEntity
  8
AXIS
 62
   250
100
AcDbSpline
210
0.0
220
0.0
230
1.0
 70
    11
 71
     3
 72
    36
 73
    32
 74
     0
 42
0.0000000001
 43
0.0000000001
 40
0.0
 40
0.0
 40
0.0
 40
0.0
 40
0.1111111111111111
 40
0.1111111111111111
 40
0.1111111111111111
 40
0.1111111111111111
 40
0.2222222222222222
 40
0.2222222222222222
 40
0.2222222222222222
 40
0.2222222222222222
 40
0.3333333333333333
 40
0.3333333333333333
 40
0.3333333333333333
 40
0.3333333333333333
 40
0.4444444444444444
 40
0.4444444444444444
 40
0.4444444444444444
 40
0.4444444444444444
 40
0.5555555555555556
 40
0.5555555555555556
 40
0.5555555555555556
 40
0.5555555555555556
 40
0.6666666666666666
 40
0.6666666666666666
 40
0.6666666666666666
 40
0.6666666666666666
 40
0.7777777777777778
 40
0.7777777777777778
 40
0.7777777777777778
 40
0.7777777777777778
 40
1.0
 40
1.0
 40
1.0
 40
1.0
 10
31.582
 20
32.2474
 30
0.0
 10
31.582
 20
32.2474
 30
0.0
 10
30.7828
 20
32.3363
 30
0.0
 10
30.7828
 20
32.3363
 30
0.0
 10
30.7828
 20
32.3363
 30
0.0
 10
30.7828
 20
32.3363
 30
0.0
 10
29.5936
 20
21.7847
 30
0.0
 10
29.5936
 20
21.7847
 30
0.0
 10
29.5936
 20
21.7847
 30
0.0
 10
29.5936
 20
21.7847
 30
0.0
 10
30.1915
 20
21.716
 30
0.0
 10
30.1915
 20
21.716
 30
0.0
 10
30.1915
 20
21.716
 30
0.0
 10
30.1915
 20
21.716
 30
0.0
 10
30.4657
 20
21.7802
 30
0.0
 10
30.4657
 20
21.7802
 30
0.0
 10
30.4657
 20
21.7802
 30
0.0
 10
30.4657
 20
21.7802
 30
0.0
 10
30.5307
 20
21.8928
 30
0.0
 10
30.5307
 20
21.8928
 30
0.0
 10
30.5307
 20
21.8928
 30
0.0
 10
30.5307
 20
21.8928
 30
0.0
 10
31.6877
 20
32.1785
 30
0.0
 10
31.6877
 20
32.1785
 30
0.0
 10
31.6877
 20
32.1785
 30
0.0
 10
31.6877
 20
32.1785
 30
0.0
 10
31.6463
 20
32.2245
 30
0.0
 10
31.6463
 20
32.2245
 30
0.0
 10
31.6463
 20
32.2245
 30
0.0
 10
31.6463
 20
32.2245
 30
0.0
 10
31.582
 20
32.2474
 30
0.0
 10
31.582
 20
32.2474
 30
0.0
  0
SPLINE
  5
B9
330
1F
100
AcDbEntity
  8
AXIS
 62
   250
100
AcDbSpline
210
0.0
220
0.0
230
1.0
 70
    24
 71
     3
 72
     8
 73
     4
 74
     0
 42
0.0000000001
 43
0.0000000001
 40
0.0
 40
0.0
 40
0.0
 40
0.0
 40
1.0
 40
1.0
 40
1.0
 40
1.0
 10
29.2181
 20
22.2203
 30
0.0
 10
29.2181
 20
22.2203
 30
0.0
 10
30.3198
 20
31.9952
 30
0.0
 10
30.3198
 20
31.9952
 30
0.0
  0
SPLINE
  5
BA
330
1F
100
AcDbEntity
  8
AXIS
 62
   250
100
AcDbSpline
210
0.0
220
0.0
230
1.0
 70
     8
 71
     3
 72
    60
 73
    56
 74
     0
 42
0.0000000001
 43
0.0000000001
 40
0.0
 40
0.0
 40
0.0
 40
0.0
 40
0.0666666666666667
 40
0.0666666666666667
 40
0.0666666666666667
 40
0.0666666666666667
 40
0.1333333333333333
 40
0.1333333333333333
 40
0.1333333333333333
 40
0.1333333333333333
 40
0.2
 40
0.2
 40
0.2
 40
0.2
 40
0.2666666666666667
 40
0.2666666666666667
 40
0.2666666666666667
 40
0.2666666666666667
 40
0.3333333333333333
 40
0.3333333333333333
 40
0.3333333333333333
 40
0.3333333333333333
 40
0.4
 40
0.4
 40
0.4
 40
0.4
 40
0.4666666666666667
 40
0.4666666666666667
 40
0.4666666666666667
 40
0.4666666666666667
 40
0.5333333333333333
 40
0.5333333333333333
 40
0.5333333333333333
 40
0.5333333333333333
 40
0.6
 40
0.6
 40
0.6
 40
0.6
 40
0.6666666666666666
 40
0.6666666666666666
 40
0.6666666666666666
 40
0.6666666666666666
 40
0.7333333333333333
 40
0.7333333333333333
 40
0.7333333333333333
 40
0.7333333333333333
 40
0.8
 40
0.8
 40
0.8
 40
0.8
 40
0.8666666666666667
 40
0.8666666666666667
 40
0.8666666666666667
 40
0.8666666666666667
 40
1.0
 40
1.0
 40
1.0
 40
1.0
 10
30.7406
 20
23.447
 30
0.0
 10
30.7406
 20
23.447
 30
0.0
 10
30.8705
 20
23.4994
 30
0.0
 10
30.8705
 20
23.4994
 30
0.0
 10
30.8705
 20
23.4994
 30
0.0
 10
30.8705
 20
23.4994
 30
0.0
 10
31.0152
 20
23.5543
 30
0.0
 10
31.0152
 20
23.5543
 30
0.0
 10
31.0152
 20
23.5543
 30
0.0
 10
31.0152
 20
23.5543
 30
0.0
 10
31.1741
 20
23.6099
 30
0.0
 10
31.1741
 20
23.6099
 30
0.0
 10
31.1741
 20
23.6099
 30
0.0
 10
31.1741
 20
23.6099
 30
0.0
 10
31.3463
 20
23.6642
 30
0.0
 10
31.3463
 20
23.6642
 30
0.0
 10
31.3463
 20
23.6642
 30
0.0
 10
31.3463
 20
23.6642
 30
0.0
 10
31.5331
 20
23.7154
 30
0.0
 10
31.5331
 20
23.7154
 30
0.0
 10
31.5331
 20
23.7154
 30
0.0
 10
31.5331
 20
23.7154
 30
0.0
 10
31.7383
 20
23.762
 30
0.0
 10
31.7383
 20
23.762
 30
0.0
 10
31.7383
 20
23.762
 30
0.0
 10
31.7383
 20
23.762
 30
0.0
 10
31.9656
 20
23.8004
 30
0.0
 10
31.9656
 20
23.8004
 30
0.0
 10
31.9656
 20
23.8004
 30
0.0
 10
31.9656
 20
23.8004
 30
0.0
 10
32.2213
 20
23.8257
 30
0.0
 10
32.2213
 20
23.8257
 30
0.0
 10
32.2213
 20
23.8257
 30
0.0
 10
32.2213
 20
23.8257
 30
0.0
 10
32.5061
 20
23.8296
 30
0.0
 10
32.5061
 20
23.8296
 30
0.0
 10
32.5061
 20
23.8296
 30
0.0
 10
32.5061
 20
23.8296
 30
0.0
 10
32.7341
 20
23.8167
 30
0.0
 10
32.7341
 20
23.8167
 30
0.0
 10
32.7341
 20
23.8167
 30
0.0
 10
32.7341
 20
23.8167
 30
0.0
 10
32.93
 20
23.7763
 30
0.0
 10
32.93
 20
23.7763
 30
0.0
 10
32.93
 20
23.7763
 30
0.0
 10
32.93
 20
23.7763
 30
0.0
 10
33.1949
 20
23.6955
 30
0.0
 10
33.1949
 20
23.6955
 30
0.0
 10
33.1949
 20
23.6955
 30
0.0
 10
33.1949
 20
23.6955
 30
0.0
 10
33.4541
 20
23.6263
 30
0.0
 10
33.4541
 20
23.6263
 30
0.0
 10
33.4541
 20
23.6263
 30
0.0
 10
33.4541
 20
23.6263
 30
0.0
 10
33.696
 20
23.5166
 30
0.0
 10
33.696
 20
23.5166
 30
0.0
  0
SPLINE
  5
BB
330
1F
100
AcDbEntity
  8
AXIS
 62
   250
100
AcDbSpline
210
0.0
220
0.0
230
1.0
 70
     8
 71
     3
 72
    28
 73
    24
 74
     0
 42
0.0000000001
 43
0.0000000001
 40
0.0
 40
0.0
 40
0.0
 40
0.0
 40
0.1428571428571428
 40
0.1428571428571428
 40
0.1428571428571428
 40
0.1428571428571428
 40
0.2857142857142857
 40
0.2857142857142857
 40
0.2857142857142857
 40
0.2857142857142857
 40
0.4285714285714285
 40
0.4285714285714285
 40
0.4285714285714285
 40
0.4285714285714285
 40
0.5714285714285714
 40
0.5714285714285714
 40
0.5714285714285714
 40
0.5714285714285714
 40
0.7142857142857143
 40
0.7142857142857143
 40
0.7142857142857143
 40
0.7142857142857143
 40
1.0
 40
1.0
 40
1.0
 40
1.0
 10
30.7406
 20
23.447
 30
0.0
 10
30.7406
 20
23.447
 30
0.0
 10
30.729
 20
23.4407
 30
0.0
 10
30.729
 20
23.4407
 30
0.0
 10
30.729
 20
23.4407
 30
0.0
 10
30.729
 20
23.4407
 30
0.0
 10
30.719
 20
23.4327
 30
0.0
 10
30.719
 20
23.4327
 30
0.0
 10
30.719
 20
23.4327
 30
0.0
 10
30.719
 20
23.4327
 30
0.0
 10
30.7101
 20
23.4234
 30
0.0
 10
30.7101
 20
23.4234
 30
0.0
 10
30.7101
 20
23.4234
 30
0.0
 10
30.7101
 20
23.4234
 30
0.0
 10
30.703
 20
23.413
 30
0.0
 10
30.703
 20
23.413
 30
0.0
 10
30.703
 20
23.413
 30
0.0
 10
30.703
 20
23.413
 30
0.0
 10
30.6974
 20
23.401
 30
0.0
 10
30.6974
 20
23.401
 30
0.0
 10
30.6974
 20
23.401
 30
0.0
 10
30.6974
 20
23.401
 30
0.0
 10
30.6943
 20
23.3885
 30
0.0
 10
30.6943
 20
23.3885
 30
0.0
  0
SPLINE
  5
BC
330
1F
100
AcDbEntity
  8
AXIS
 62
   250
100
AcDbSpline
210
0.0
220
0.0
230
1.0
 70
    24
 71
     3
 72
     8
 73
     4
 74
     0
 42
0.0000000001
 43
0.0000000001
 40
0.0
 40
0.0
 40
0.0
 40
0.0
 40
1.0
 40
1.0
 40
1.0
 40
1.0
 10
33.8984
 20
25.0348
 30
0.0
 10
33.8984
 20
25.0348
 30
0.0
 10
35.7393
 20
24.8273
 30
0.0
 10
35.7393
 20
24.8273
 30
0.0
  0
SPLINE
  5
BD
330
1F
100
AcDbEntity
  8
AXIS
 62
   250
100
AcDbSpline
210
0.0
220
0.0
230
1.0
 70
     8
 71
     3
 72
    56
 73
    52
 74
     0
 42
0.0000000001
 43
0.0000000001
 40
0.0
 40
0.0
 40
0.0
 40
0.0
 40
0.0714285714285714
 40
0.0714285714285714
 40
0.0714285714285714
 40
0.0714285714285714
 40
0.1428571428571428
 40
0.1428571428571428
 40
0.1428571428571428
 40
0.1428571428571428
 40
0.2142857142857143
 40
0.2142857142857143
 40
0.2142857142857143
 40
0.2142857142857143
 40
0.2857142857142857
 40
0.2857142857142857
 40
0.2857142857142857
 40
0.2857142857142857
 40
0.3571428571428572
 40
0.3571428571428572
 40
0.3571428571428572
 40
0.3571428571428572
 40
0.4285714285714285
 40
0.4285714285714285
 40
0.4285714285714285
 40
0.4285714285714285
 40
0.5
 40
0.5
 40
0.5
 40
0.5
 40
0.5714285714285714
 40
0.5714285714285714
 40
0.5714285714285714
 40
0.5714285714285714
 40
0.6428571428571429
 40
0.6428571428571429
 40
0.6428571428571429
 40
0.6428571428571429
 40
0.7142857142857143
 40
0.7142857142857143
 40
0.7142857142857143
 40
0.7142857142857143
 40
0.7857142857142857
 40
0.7857142857142857
 40
0.7857142857142857
 40
0.7857142857142857
 40
0.8571428571428571
 40
0.8571428571428571
 40
0.8571428571428571
 40
0.8571428571428571
 40
1.0
 40
1.0
 40
1.0
 40
1.0
 10
34.2896
 20
24.5214
 30
0.0
 10
34.2896
 20
24.5214
 30
0.0
 10
34.139
 20
24.3612
 30
0.0
 10
34.139
 20
24.3612
 30
0.0
 10
34.139
 20
24.3612
 30
0.0
 10
34.139
 20
24.3612
 30
0.0
 10
33.9757
 20
24.2068
 30
0.0
 10
33.9757
 20
24.2068
 30
0.0
 10
33.9757
 20
24.2068
 30
0.0
 10
33.9757
 20
24.2068
 30
0.0
 10
33.7979
 20
24.0583
 30
0.0
 10
33.7979
 20
24.0583
 30
0.0
 10
33.7979
 20
24.0583
 30
0.0
 10
33.7979
 20
24.0583
 30
0.0
 10
33.6451
 20
22.9577
 30
0.0
 10
33.6451
 20
22.9577
 30
0.0
 10
33.6451
 20
22.9577
 30
0.0
 10
33.6451
 20
22.9577
 30
0.0
 10
35.5335
 20
22.7339
 30
0.0
 10
35.5335
 20
22.7339
 30
0.0
 10
35.5335
 20
22.7339
 30
0.0
 10
35.5335
 20
22.7339
 30
0.0
 10
36.3174
 20
30.0284
 30
0.0
 10
36.3174
 20
30.0284
 30
0.0
 10
36.3174
 20
30.0284
 30
0.0
 10
36.3174
 20
30.0284
 30
0.0
 10
36.493
 20
30.0049
 30
0.0
 10
36.493
 20
30.0049
 30
0.0
 10
36.493
 20
30.0049
 30
0.0
 10
36.493
 20
30.0049
 30
0.0
 10
36.5749
 20
29.9113
 30
0.0
 10
36.5749
 20
29.9113
 30
0.0
 10
36.5749
 20
29.9113
 30
0.0
 10
36.5749
 20
29.9113
 30
0.0
 10
36.5749
 20
29.8293
 30
0.0
 10
36.5749
 20
29.8293
 30
0.0
 10
36.5749
 20
29.8293
 30
0.0
 10
36.5749
 20
29.8293
 30
0.0
 10
35.8096
 20
23.0791
 30
0.0
 10
35.8096
 20
23.0791
 30
0.0
 10
35.8096
 20
23.0791
 30
0.0
 10
35.8096
 20
23.0791
 30
0.0
 10
35.7836
 20
23.0269
 30
0.0
 10
35.7836
 20
23.0269
 30
0.0
 10
35.7836
 20
23.0269
 30
0.0
 10
35.7836
 20
23.0269
 30
0.0
 10
35.7126
 20
23.0245
 30
0.0
 10
35.7126
 20
23.0245
 30
0.0
 10
35.7126
 20
23.0245
 30
0.0
 10
35.7126
 20
23.0245
 30
0.0
 10
35.6013
 20
23.0506
 30
0.0
 10
35.6013
 20
23.0506
 30
0.0
  0
SPLINE
  5
BE
330
1F
100
AcDbEntity
  8
AXIS
 62
   250
100
AcDbSpline
210
0.0
220
0.0
230
1.0
 70
    24
 71
     3
 72
     8
 73
     4
 74
     0
 42
0.0000000001
 43
0.0000000001
 40
0.0
 40
0.0
 40
0.0
 40
0.0
 40
1.0
 40
1.0
 40
1.0
 40
1.0
 10
34.3844
 20
29.8428
 30
0.0
 10
34.3844
 20
29.8428
 30
0.0
 10
36.2792
 20
29.6293
 30
0.0
 10
36.2792
 20
29.6293
 30
0.0
  0
SPLINE
  5
BF
330
1F
100
AcDbEntity
  8
AXIS
 62
   250
100
AcDbSpline
210
0.0
220
0.0
230
1.0
 70
     8
 71
     3
 72
    16
 73
    12
 74
     0
 42
0.0000000001
 43
0.0000000001
 40
0.0
 40
0.0
 40
0.0
 40
0.0
 40
0.25
 40
0.25
 40
0.25
 40
0.25
 40
0.5
 40
0.5
 40
0.5
 40
0.5
 40
1.0
 40
1.0
 40
1.0
 40
1.0
 10
35.8394
 20
25.7159
 30
0.0
 10
35.8394
 20
25.7159
 30
0.0
 10
34.8611
 20
25.8261
 30
0.0
 10
34.8611
 20
25.8261
 30
0.0
 10
34.8611
 20
25.8261
 30
0.0
 10
34.8611
 20
25.8261
 30
0.0
 10
34.8774
 20
25.9751
 30
0.0
 10
34.8774
 20
25.9751
 30
0.0
 10
34.8774
 20
25.9751
 30
0.0
 10
34.8774
 20
25.9751
 30
0.0
 10
35.8483
 20
25.86
 30
0.0
 10
35.8483
 20
25.86
 30
0.0
  0
SPLINE
  5
C0
330
1F
100
AcDbEntity
  8
AXIS
 62
   250
100
AcDbSpline
210
0.0
220
0.0
230
1.0
 70
    11
 71
     3
 72
    20
 73
    16
 74
     0
 42
0.0000000001
 43
0.0000000001
 40
0.0
 40
0.0
 40
0.0
 40
0.0
 40
0.2
 40
0.2
 40
0.2
 40
0.2
 40
0.4
 40
0.4
 40
0.4
 40
0.4
 40
0.6
 40
0.6
 40
0.6
 40
0.6
 40
1.0
 40
1.0
 40
1.0
 40
1.0
 10
36.6847
 20
26.8832
 30
0.0
 10
36.6847
 20
26.8832
 30
0.0
 10
36.5499
 20
25.7868
 30
0.0
 10
36.5499
 20
25.7868
 30
0.0
 10
36.5499
 20
25.7868
 30
0.0
 10
36.5499
 20
25.7868
 30
0.0
 10
36.1348
 20
25.8241
 30
0.0
 10
36.1348
 20
25.8241
 30
0.0
 10
36.1348
 20
25.8241
 30
0.0
 10
36.1348
 20
25.8241
 30
0.0
 10
36.2608
 20
26.9422
 30
0.0
 10
36.2608
 20
26.9422
 30
0.0
 10
36.2608
 20
26.9422
 30
0.0
 10
36.2608
 20
26.9422
 30
0.0
 10
36.6847
 20
26.8832
 30
0.0
 10
36.6847
 20
26.8832
 30
0.0
  0
SPLINE
  5
C1
330
1F
100
AcDbEntity
  8
AXIS
  6
NEW_LINE4
 62
   250
100
AcDbSpline
210
0.0
220
0.0
230
1.0
 70
    24
 71
     3
 72
     8
 73
     4
 74
     0
 42
0.0000000001
 43
0.0000000001
 40
0.0
 40
0.0
 40
0.0
 40
0.0
 40
1.0
 40
1.0
 40
1.0
 40
1.0
 10
25.1142
 20
27.6324
 30
0.0
 10
25.1142
 20
27.6324
 30
0.0
 10
37.3622
 20
26.252
 30
0.0
 10
37.3622
 20
26.252
 30
0.0
  0
SPLINE
  5
C3
330
1F
100
AcDbEntity
  8
AXIS
 62
   250
100
AcDbSpline
210
0.0
220
0.0
230
1.0
 70
    11
 71
     3
 72
    40
 73
    36
 74
     0
 42
0.0000000001
 43
0.0000000001
 40
0.0
 40
0.0
 40
0.0
 40
0.0
 40
0.1
 40
0.1
 40
0.1
 40
0.1
 40
0.2
 40
0.2
 40
0.2
 40
0.2
 40
0.3
 40
0.3
 40
0.3
 40
0.3
 40
0.4
 40
0.4
 40
0.4
 40
0.4
 40
0.5
 40
0.5
 40
0.5
 40
0.5
 40
0.6
 40
0.6
 40
0.6
 40
0.6
 40
0.7
 40
0.7
 40
0.7
 40
0.7
 40
0.8
 40
0.8
 40
0.8
 40
0.8
 40
1.0
 40
1.0
 40
1.0
 40
1.0
 10
-22.6793
 20
-38.5226
 30
0.0
 10
-22.6793
 20
-38.5226
 30
0.0
 10
-22.6802
 20
-38.7705
 30
0.0
 10
-22.6802
 20
-38.7705
 30
0.0
 10
-22.6802
 20
-38.7705
 30
0.0
 10
-22.6802
 20
-38.7705
 30
0.0
 10
-24.2606
 20
-38.7646
 30
0.0
 10
-24.2606
 20
-38.7646
 30
0.0
 10
-24.2606
 20
-38.7646
 30
0.0
 10
-24.2039
 20
-38.8247
 30
0.0
 10
-24.1473
 20
-38.9029
 30
0.0
 10
-24.0908
 20
-39.0
 30
0.0
 10
-24.0908
 20
-39.0
 30
0.0
 10
-24.0342
 20
-39.0976
 30
0.0
 10
-23.9918
 20
-39.1847
 30
0.0
 10
-23.9638
 20
-39.262
 30
0.0
 10
-23.9638
 20
-39.262
 30
0.0
 10
-23.9638
 20
-39.262
 30
0.0
 10
-24.2032
 20
-39.2612
 30
0.0
 10
-24.2032
 20
-39.2612
 30
0.0
 10
-24.2032
 20
-39.2612
 30
0.0
 10
-24.268
 20
-39.1221
 30
0.0
 10
-24.3467
 20
-39.0004
 30
0.0
 10
-24.4389
 20
-38.8962
 30
0.0
 10
-24.4389
 20
-38.8962
 30
0.0
 10
-24.5317
 20
-38.7923
 30
0.0
 10
-24.6212
 20
-38.7182
 30
0.0
 10
-24.7086
 20
-38.6746
 30
0.0
 10
-24.7086
 20
-38.6746
 30
0.0
 10
-24.7086
 20
-38.6746
 30
0.0
 10
-24.708
 20
-38.5151
 30
0.0
 10
-24.708
 20
-38.5151
 30
0.0
 10
-24.708
 20
-38.5151
 30
0.0
 10
-24.708
 20
-38.5151
 30
0.0
 10
-22.6793
 20
-38.5226
 30
0.0
 10
-22.6793
 20
-38.5226
 30
0.0
  0
SPLINE
  5
C4
330
1F
100
AcDbEntity
  8
AXIS
 62
   250
100
AcDbSpline
210
0.0
220
0.0
230
1.0
 70
    11
 71
     3
 72
    92
 73
    88
 74
     0
 42
0.0000000001
 43
0.0000000001
 40
0.0
 40
0.0
 40
0.0
 40
0.0
 40
0.0434782608695652
 40
0.0434782608695652
 40
0.0434782608695652
 40
0.0434782608695652
 40
0.0869565217391304
 40
0.0869565217391304
 40
0.0869565217391304
 40
0.0869565217391304
 40
0.1304347826086956
 40
0.1304347826086956
 40
0.1304347826086956
 40
0.1304347826086956
 40
0.1739130434782609
 40
0.1739130434782609
 40
0.1739130434782609
 40
0.1739130434782609
 40
0.2173913043478261
 40
0.2173913043478261
 40
0.2173913043478261
 40
0.2173913043478261
 40
0.2608695652173913
 40
0.2608695652173913
 40
0.2608695652173913
 40
0.2608695652173913
 40
0.3043478260869565
 40
0.3043478260869565
 40
0.3043478260869565
 40
0.3043478260869565
 40
0.3478260869565217
 40
0.3478260869565217
 40
0.3478260869565217
 40
0.3478260869565217
 40
0.391304347826087
 40
0.391304347826087
 40
0.391304347826087
 40
0.391304347826087
 40
0.4347826086956522
 40
0.4347826086956522
 40
0.4347826086956522
 40
0.4347826086956522
 40
0.4782608695652174
 40
0.4782608695652174
 40
0.4782608695652174
 40
0.4782608695652174
 40
0.5217391304347826
 40
0.5217391304347826
 40
0.5217391304347826
 40
0.5217391304347826
 40
0.5652173913043478
 40
0.5652173913043478
 40
0.5652173913043478
 40
0.5652173913043478
 40
0.6086956521739131
 40
0.6086956521739131
 40
0.6086956521739131
 40
0.6086956521739131
 40
0.6521739130434783
 40
0.6521739130434783
 40
0.6521739130434783
 40
0.6521739130434783
 40
0.6956521739130435
 40
0.6956521739130435
 40
0.6956521739130435
 40
0.6956521739130435
 40
0.7391304347826086
 40
0.7391304347826086
 40
0.7391304347826086
 40
0.7391304347826086
 40
0.782608695652174
 40
0.782608695652174
 40
0.782608695652174
 40
0.782608695652174
 40
0.8260869565217391
 40
0.8260869565217391
 40
0.8260869565217391
 40
0.8260869565217391
 40
0.8695652173913043
 40
0.8695652173913043
 40
0.8695652173913043
 40
0.8695652173913043
 40
0.9130434782608695
 40
0.9130434782608695
 40
0.9130434782608695
 40
0.9130434782608695
 40
1.0
 40
1.0
 40
1.0
 40
1.0
 10
-22.9106
 20
-36.5824
 30
0.0
 10
-22.9106
 20
-36.5824
 30
0.0
 10
-22.6721
 20
-36.5833
 30
0.0
 10
-22.6721
 20
-36.5833
 30
0.0
 10
-22.6721
 20
-36.5833
 30
0.0
 10
-22.6721
 20
-36.5833
 30
0.0
 10
-22.6771
 20
-37.9187
 30
0.0
 10
-22.6771
 20
-37.9187
 30
0.0
 10
-22.6771
 20
-37.9187
 30
0.0
 10
-22.7368
 20
-37.9204
 30
0.0
 10
-22.7941
 20
-37.9108
 30
0.0
 10
-22.8492
 20
-37.8894
 30
0.0
 10
-22.8492
 20
-37.8894
 30
0.0
 10
-22.9402
 20
-37.8551
 30
0.0
 10
-23.0294
 20
-37.8003
 30
0.0
 10
-23.1175
 20
-37.7252
 30
0.0
 10
-23.1175
 20
-37.7252
 30
0.0
 10
-23.2053
 20
-37.6496
 30
0.0
 10
-23.3069
 20
-37.541
 30
0.0
 10
-23.422
 20
-37.3994
 30
0.0
 10
-23.422
 20
-37.3994
 30
0.0
 10
-23.6014
 20
-37.1792
 30
0.0
 10
-23.7434
 20
-37.03
 30
0.0
 10
-23.8485
 20
-36.9525
 30
0.0
 10
-23.8485
 20
-36.9525
 30
0.0
 10
-23.9531
 20
-36.875
 30
0.0
 10
-24.0527
 20
-36.836
 30
0.0
 10
-24.1463
 20
-36.8357
 30
0.0
 10
-24.1463
 20
-36.8357
 30
0.0
 10
-24.2446
 20
-36.8353
 30
0.0
 10
-24.3275
 20
-36.8703
 30
0.0
 10
-24.3954
 20
-36.94
 30
0.0
 10
-24.3954
 20
-36.94
 30
0.0
 10
-24.463
 20
-37.0104
 30
0.0
 10
-24.4971
 20
-37.102
 30
0.0
 10
-24.4976
 20
-37.2149
 30
0.0
 10
-24.4976
 20
-37.2149
 30
0.0
 10
-24.498
 20
-37.3344
 30
0.0
 10
-24.4627
 20
-37.43
 30
0.0
 10
-24.3909
 20
-37.5018
 30
0.0
 10
-24.3909
 20
-37.5018
 30
0.0
 10
-24.3197
 20
-37.5739
 30
0.0
 10
-24.2206
 20
-37.6105
 30
0.0
 10
-24.0941
 20
-37.612
 30
0.0
 10
-24.0941
 20
-37.612
 30
0.0
 10
-24.0941
 20
-37.612
 30
0.0
 10
-24.1209
 20
-37.8668
 30
0.0
 10
-24.1209
 20
-37.8668
 30
0.0
 10
-24.1209
 20
-37.8668
 30
0.0
 10
-24.3113
 20
-37.8486
 30
0.0
 10
-24.456
 20
-37.7823
 30
0.0
 10
-24.5552
 20
-37.668
 30
0.0
 10
-24.5552
 20
-37.668
 30
0.0
 10
-24.6545
 20
-37.5539
 30
0.0
 10
-24.7039
 20
-37.4004
 30
0.0
 10
-24.7031
 20
-37.2085
 30
0.0
 10
-24.7031
 20
-37.2085
 30
0.0
 10
-24.7024
 20
-37.0147
 30
0.0
 10
-24.6478
 20
-36.8615
 30
0.0
 10
-24.5401
 20
-36.749
 30
0.0
 10
-24.5401
 20
-36.749
 30
0.0
 10
-24.4319
 20
-36.6361
 30
0.0
 10
-24.2986
 20
-36.5801
 30
0.0
 10
-24.1396
 20
-36.5807
 30
0.0
 10
-24.1396
 20
-36.5807
 30
0.0
 10
-24.0587
 20
-36.581
 30
0.0
 10
-23.9793
 20
-36.5978
 30
0.0
 10
-23.9014
 20
-36.6315
 30
0.0
 10
-23.9014
 20
-36.6315
 30
0.0
 10
-23.8234
 20
-36.6647
 30
0.0
 10
-23.7413
 20
-36.7201
 30
0.0
 10
-23.6555
 20
-36.797
 30
0.0
 10
-23.6555
 20
-36.797
 30
0.0
 10
-23.5692
 20
-36.874
 30
0.0
 10
-23.4512
 20
-37.0019
 30
0.0
 10
-23.3013
 20
-37.1807
 30
0.0
 10
-23.3013
 20
-37.1807
 30
0.0
 10
-23.1768
 20
-37.3299
 30
0.0
 10
-23.0924
 20
-37.4257
 30
0.0
 10
-23.0479
 20
-37.4681
 30
0.0
 10
-23.0479
 20
-37.4681
 30
0.0
 10
-23.0038
 20
-37.5106
 30
0.0
 10
-22.9593
 20
-37.5456
 30
0.0
 10
-22.9143
 20
-37.5735
 30
0.0
 10
-22.9143
 20
-37.5735
 30
0.0
 10
-22.9143
 20
-37.5735
 30
0.0
 10
-22.9106
 20
-36.5824
 30
0.0
 10
-22.9106
 20
-36.5824
 30
0.0
  0
SPLINE
  5
C5
330
1F
100
AcDbEntity
  8
AXIS
 62
   250
100
AcDbSpline
210
0.0
220
0.0
230
1.0
 70
    11
 71
     3
 72
    52
 73
    48
 74
     0
 42
0.0000000001
 43
0.0000000001
 40
0.0
 40
0.0
 40
0.0
 40
0.0
 40
0.0769230769230769
 40
0.0769230769230769
 40
0.0769230769230769
 40
0.0769230769230769
 40
0.1538461538461539
 40
0.1538461538461539
 40
0.1538461538461539
 40
0.1538461538461539
 40
0.2307692307692308
 40
0.2307692307692308
 40
0.2307692307692308
 40
0.2307692307692308
 40
0.3076923076923077
 40
0.3076923076923077
 40
0.3076923076923077
 40
0.3076923076923077
 40
0.3846153846153846
 40
0.3846153846153846
 40
0.3846153846153846
 40
0.3846153846153846
 40
0.4615384615384616
 40
0.4615384615384616
 40
0.4615384615384616
 40
0.4615384615384616
 40
0.5384615384615384
 40
0.5384615384615384
 40
0.5384615384615384
 40
0.5384615384615384
 40
0.6153846153846154
 40
0.6153846153846154
 40
0.6153846153846154
 40
0.6153846153846154
 40
0.6923076923076923
 40
0.6923076923076923
 40
0.6923076923076923
 40
0.6923076923076923
 40
0.7692307692307693
 40
0.7692307692307693
 40
0.7692307692307693
 40
0.7692307692307693
 40
0.8461538461538461
 40
0.8461538461538461
 40
0.8461538461538461
 40
0.8461538461538461
 40
1.0
 40
1.0
 40
1.0
 40
1.0
 10
-23.6673
 20
-36.3139
 30
0.0
 10
-23.9063
 20
-36.313
 30
0.0
 10
-24.0986
 20
-36.2878
 30
0.0
 10
-24.2437
 20
-36.2379
 30
0.0
 10
-24.2437
 20
-36.2379
 30
0.0
 10
-24.3894
 20
-36.1884
 30
0.0
 10
-24.5015
 20
-36.1146
 30
0.0
 10
-24.5802
 20
-36.0174
 30
0.0
 10
-24.5802
 20
-36.0174
 30
0.0
 10
-24.6589
 20
-35.9202
 30
0.0
 10
-24.6979
 20
-35.7983
 30
0.0
 10
-24.6974
 20
-35.6516
 30
0.0
 10
-24.6974
 20
-35.6516
 30
0.0
 10
-24.697
 20
-35.5429
 30
0.0
 10
-24.6745
 20
-35.448
 30
0.0
 10
-24.6304
 20
-35.3663
 30
0.0
 10
-24.6304
 20
-35.3663
 30
0.0
 10
-24.5869
 20
-35.2846
 30
0.0
 10
-24.5236
 20
-35.2175
 30
0.0
 10
-24.4411
 20
-35.1643
 30
0.0
 10
-24.4411
 20
-35.1643
 30
0.0
 10
-24.3586
 20
-35.1115
 30
0.0
 10
-24.2582
 20
-35.0699
 30
0.0
 10
-24.1401
 20
-35.0403
 30
0.0
 10
-24.1401
 20
-35.0403
 30
0.0
 10
-24.0219
 20
-35.0101
 30
0.0
 10
-23.8628
 20
-34.9957
 30
0.0
 10
-23.6624
 20
-34.9964
 30
0.0
 10
-23.6624
 20
-34.9964
 30
0.0
 10
-23.4254
 20
-34.9973
 30
0.0
 10
-23.2345
 20
-35.0224
 30
0.0
 10
-23.0889
 20
-35.0715
 30
0.0
 10
-23.0889
 20
-35.0715
 30
0.0
 10
-22.9433
 20
-35.1209
 30
0.0
 10
-22.8312
 20
-35.1942
 30
0.0
 10
-22.752
 20
-35.2914
 30
0.0
 10
-22.752
 20
-35.2914
 30
0.0
 10
-22.6729
 20
-35.3886
 30
0.0
 10
-22.6338
 20
-35.5111
 30
0.0
 10
-22.6344
 20
-35.6593
 30
0.0
 10
-22.6344
 20
-35.6593
 30
0.0
 10
-22.6351
 20
-35.854
 30
0.0
 10
-22.7053
 20
-36.0066
 30
0.0
 10
-22.8454
 20
-36.1171
 30
0.0
 10
-22.8454
 20
-36.1171
 30
0.0
 10
-23.0138
 20
-36.2496
 30
0.0
 10
-23.2882
 20
-36.3153
 30
0.0
 10
-23.6673
 20
-36.3139
 30
0.0
  0
SPLINE
  5
C6
330
1F
100
AcDbEntity
  8
AXIS
 62
   250
100
AcDbSpline
210
0.0
220
0.0
230
1.0
 70
    11
 71
     3
 72
    36
 73
    32
 74
     0
 42
0.0000000001
 43
0.0000000001
 40
0.0
 40
0.0
 40
0.0
 40
0.0
 40
0.1111111111111111
 40
0.1111111111111111
 40
0.1111111111111111
 40
0.1111111111111111
 40
0.2222222222222222
 40
0.2222222222222222
 40
0.2222222222222222
 40
0.2222222222222222
 40
0.3333333333333333
 40
0.3333333333333333
 40
0.3333333333333333
 40
0.3333333333333333
 40
0.4444444444444444
 40
0.4444444444444444
 40
0.4444444444444444
 40
0.4444444444444444
 40
0.5555555555555556
 40
0.5555555555555556
 40
0.5555555555555556
 40
0.5555555555555556
 40
0.6666666666666666
 40
0.6666666666666666
 40
0.6666666666666666
 40
0.6666666666666666
 40
0.7777777777777778
 40
0.7777777777777778
 40
0.7777777777777778
 40
0.7777777777777778
 40
1.0
 40
1.0
 40
1.0
 40
1.0
 10
-23.6664
 20
-36.0589
 30
0.0
 10
-23.3348
 20
-36.0602
 30
0.0
 10
-23.114
 20
-36.022
 30
0.0
 10
-23.0037
 20
-35.9448
 30
0.0
 10
-23.0037
 20
-35.9448
 30
0.0
 10
-22.8939
 20
-35.8676
 30
0.0
 10
-22.8384
 20
-35.7723
 30
0.0
 10
-22.838
 20
-35.6585
 30
0.0
 10
-22.838
 20
-35.6585
 30
0.0
 10
-22.8376
 20
-35.5442
 30
0.0
 10
-22.8927
 20
-35.4485
 30
0.0
 10
-23.0025
 20
-35.3705
 30
0.0
 10
-23.0025
 20
-35.3705
 30
0.0
 10
-23.1123
 20
-35.2925
 30
0.0
 10
-23.3328
 20
-35.2526
 30
0.0
 10
-23.6634
 20
-35.2513
 30
0.0
 10
-23.6634
 20
-35.2513
 30
0.0
 10
-23.996
 20
-35.2501
 30
0.0
 10
-24.2172
 20
-35.2884
 30
0.0
 10
-24.3266
 20
-35.3656
 30
0.0
 10
-24.3266
 20
-35.3656
 30
0.0
 10
-24.4365
 20
-35.4428
 30
0.0
 10
-24.4913
 20
-35.539
 30
0.0
 10
-24.4918
 20
-35.6547
 30
0.0
 10
-24.4918
 20
-35.6547
 30
0.0
 10
-24.4922
 20
-35.769
 30
0.0
 10
-24.4441
 20
-35.8599
 30
0.0
 10
-24.348
 20
-35.9285
 30
0.0
 10
-24.348
 20
-35.9285
 30
0.0
 10
-24.2255
 20
-36.0141
 30
0.0
 10
-23.998
 20
-36.0577
 30
0.0
 10
-23.6664
 20
-36.0589
 30
0.0
  0
SPLINE
  5
C7
330
1F
100
AcDbEntity
  8
AXIS
 62
   250
100
AcDbSpline
210
0.0
220
0.0
230
1.0
 70
    11
 71
     3
 72
    84
 73
    80
 74
     0
 42
0.0000000001
 43
0.0000000001
 40
0.0
 40
0.0
 40
0.0
 40
0.0
 40
0.0476190476190476
 40
0.0476190476190476
 40
0.0476190476190476
 40
0.0476190476190476
 40
0.0952380952380952
 40
0.0952380952380952
 40
0.0952380952380952
 40
0.0952380952380952
 40
0.1428571428571428
 40
0.1428571428571428
 40
0.1428571428571428
 40
0.1428571428571428
 40
0.1904761904761905
 40
0.1904761904761905
 40
0.1904761904761905
 40
0.1904761904761905
 40
0.2380952380952381
 40
0.2380952380952381
 40
0.2380952380952381
 40
0.2380952380952381
 40
0.2857142857142857
 40
0.2857142857142857
 40
0.2857142857142857
 40
0.2857142857142857
 40
0.3333333333333333
 40
0.3333333333333333
 40
0.3333333333333333
 40
0.3333333333333333
 40
0.3809523809523809
 40
0.3809523809523809
 40
0.3809523809523809
 40
0.3809523809523809
 40
0.4285714285714285
 40
0.4285714285714285
 40
0.4285714285714285
 40
0.4285714285714285
 40
0.4761904761904762
 40
0.4761904761904762
 40
0.4761904761904762
 40
0.4761904761904762
 40
0.5238095238095238
 40
0.5238095238095238
 40
0.5238095238095238
 40
0.5238095238095238
 40
0.5714285714285714
 40
0.5714285714285714
 40
0.5714285714285714
 40
0.5714285714285714
 40
0.6190476190476191
 40
0.6190476190476191
 40
0.6190476190476191
 40
0.6190476190476191
 40
0.6666666666666666
 40
0.6666666666666666
 40
0.6666666666666666
 40
0.6666666666666666
 40
0.7142857142857143
 40
0.7142857142857143
 40
0.7142857142857143
 40
0.7142857142857143
 40
0.7619047619047619
 40
0.7619047619047619
 40
0.7619047619047619
 40
0.7619047619047619
 40
0.8095238095238095
 40
0.8095238095238095
 40
0.8095238095238095
 40
0.8095238095238095
 40
0.8571428571428571
 40
0.8571428571428571
 40
0.8571428571428571
 40
0.8571428571428571
 40
0.9047619047619048
 40
0.9047619047619048
 40
0.9047619047619048
 40
0.9047619047619048
 40
1.0
 40
1.0
 40
1.0
 40
1.0
 10
-4.3541
 20
-4.8392
 30
0.0
 10
-4.3541
 20
-4.8392
 30
0.0
 10
-4.1227
 20
-4.5801
 30
0.0
 10
-4.1227
 20
-4.5801
 30
0.0
 10
-4.1227
 20
-4.5801
 30
0.0
 10
-4.1227
 20
-4.5801
 30
0.0
 10
-3.9863
 20
-4.6958
 30
0.0
 10
-3.9863
 20
-4.6958
 30
0.0
 10
-3.9863
 20
-4.6958
 30
0.0
 10
-3.9863
 20
-4.6958
 30
0.0
 10
-4.2285
 20
-4.9686
 30
0.0
 10
-4.2285
 20
-4.9686
 30
0.0
 10
-4.2285
 20
-4.9686
 30
0.0
 10
-4.1495
 20
-5.0862
 30
0.0
 10
-4.0964
 20
-5.1892
 30
0.0
 10
-4.0686
 20
-5.2771
 30
0.0
 10
-4.0686
 20
-5.2771
 30
0.0
 10
-4.0319
 20
-5.3929
 30
0.0
 10
-4.0136
 20
-5.5227
 30
0.0
 10
-4.0136
 20
-5.6657
 30
0.0
 10
-4.0136
 20
-5.6657
 30
0.0
 10
-4.0136
 20
-5.8726
 30
0.0
 10
-4.0554
 20
-6.057
 30
0.0
 10
-4.1392
 20
-6.2183
 30
0.0
 10
-4.1392
 20
-6.2183
 30
0.0
 10
-4.2229
 20
-6.3802
 30
0.0
 10
-4.34
 20
-6.5024
 30
0.0
 10
-4.491
 20
-6.5852
 30
0.0
 10
-4.491
 20
-6.5852
 30
0.0
 10
-4.6425
 20
-6.6675
 30
0.0
 10
-4.8028
 20
-6.7089
 30
0.0
 10
-4.9726
 20
-6.7089
 30
0.0
 10
-4.9726
 20
-6.7089
 30
0.0
 10
-5.0996
 20
-6.7089
 30
0.0
 10
-5.2144
 20
-6.6911
 30
0.0
 10
-5.3174
 20
-6.6553
 30
0.0
 10
-5.3174
 20
-6.6553
 30
0.0
 10
-5.3964
 20
-6.6276
 30
0.0
 10
-5.4886
 20
-6.5749
 30
0.0
 10
-5.5945
 20
-6.4968
 30
0.0
 10
-5.5945
 20
-6.4968
 30
0.0
 10
-5.5945
 20
-6.4968
 30
0.0
 10
-5.8259
 20
-6.756
 30
0.0
 10
-5.8259
 20
-6.756
 30
0.0
 10
-5.8259
 20
-6.756
 30
0.0
 10
-5.8259
 20
-6.756
 30
0.0
 10
-5.9623
 20
-6.6403
 30
0.0
 10
-5.9623
 20
-6.6403
 30
0.0
 10
-5.9623
 20
-6.6403
 30
0.0
 10
-5.9623
 20
-6.6403
 30
0.0
 10
-5.7196
 20
-6.3689
 30
0.0
 10
-5.7196
 20
-6.3689
 30
0.0
 10
-5.7196
 20
-6.3689
 30
0.0
 10
-5.8099
 20
-6.232
 30
0.0
 10
-5.8701
 20
-6.1149
 30
0.0
 10
-5.9002
 20
-6.018
 30
0.0
 10
-5.9002
 20
-6.018
 30
0.0
 10
-5.9303
 20
-5.9211
 30
0.0
 10
-5.9458
 20
-5.8044
 30
0.0
 10
-5.9458
 20
-5.6685
 30
0.0
 10
-5.9458
 20
-5.6685
 30
0.0
 10
-5.9458
 20
-5.4611
 30
0.0
 10
-5.9044
 20
-5.2762
 30
0.0
 10
-5.8217
 20
-5.1139
 30
0.0
 10
-5.8217
 20
-5.1139
 30
0.0
 10
-5.7389
 20
-4.9516
 30
0.0
 10
-5.6232
 20
-4.8289
 30
0.0
 10
-5.4736
 20
-4.7452
 30
0.0
 10
-5.4736
 20
-4.7452
 30
0.0
 10
-5.3245
 20
-4.6619
 30
0.0
 10
-5.1584
 20
-4.62
 30
0.0
 10
-4.9755
 20
-4.62
 30
0.0
 10
-4.9755
 20
-4.62
 30
0.0
 10
-4.8522
 20
-4.62
 30
0.0
 10
-4.7445
 20
-4.636
 30
0.0
 10
-4.6523
 20
-4.669
 30
0.0
 10
-4.6523
 20
-4.669
 30
0.0
 10
-4.5601
 20
-4.7014
 30
0.0
 10
-4.4604
 20
-4.7583
 30
0.0
 10
-4.3541
 20
-4.8392
 30
0.0
  0
SPLINE
  5
C8
330
1F
100
AcDbEntity
  8
AXIS
 62
   250
100
AcDbSpline
210
0.0
220
0.0
230
1.0
 70
    11
 71
     3
 72
    32
 73
    28
 74
     0
 42
0.0000000001
 43
0.0000000001
 40
0.0
 40
0.0
 40
0.0
 40
0.0
 40
0.125
 40
0.125
 40
0.125
 40
0.125
 40
0.25
 40
0.25
 40
0.25
 40
0.25
 40
0.375
 40
0.375
 40
0.375
 40
0.375
 40
0.5
 40
0.5
 40
0.5
 40
0.5
 40
0.625
 40
0.625
 40
0.625
 40
0.625
 40
0.75
 40
0.75
 40
0.75
 40
0.75
 40
1.0
 40
1.0
 40
1.0
 40
1.0
 10
-4.5192
 20
-5.025
 30
0.0
 10
-4.6058
 20
-4.9573
 30
0.0
 10
-4.6815
 20
-4.9107
 30
0.0
 10
-4.7459
 20
-4.8858
 30
0.0
 10
-4.7459
 20
-4.8858
 30
0.0
 10
-4.8108
 20
-4.8613
 30
0.0
 10
-4.887
 20
-4.8486
 30
0.0
 10
-4.9741
 20
-4.8486
 30
0.0
 10
-4.9741
 20
-4.8486
 30
0.0
 10
-5.1754
 20
-4.8486
 30
0.0
 10
-5.3414
 20
-4.9168
 30
0.0
 10
-5.4731
 20
-5.0532
 30
0.0
 10
-5.4731
 20
-5.0532
 30
0.0
 10
-5.6044
 20
-5.1897
 30
0.0
 10
-5.6702
 20
-5.3933
 30
0.0
 10
-5.6702
 20
-5.6647
 30
0.0
 10
-5.6702
 20
-5.6647
 30
0.0
 10
-5.6702
 20
-5.771
 30
0.0
 10
-5.6599
 20
-5.8656
 30
0.0
 10
-5.6396
 20
-5.9484
 30
0.0
 10
-5.6396
 20
-5.9484
 30
0.0
 10
-5.625
 20
-6.01
 30
0.0
 10
-5.5945
 20
-6.0857
 30
0.0
 10
-5.5474
 20
-6.1755
 30
0.0
 10
-5.5474
 20
-6.1755
 30
0.0
 10
-5.5474
 20
-6.1755
 30
0.0
 10
-4.5192
 20
-5.025
 30
0.0
 10
-4.5192
 20
-5.025
 30
0.0
  0
SPLINE
  5
C9
330
1F
100
AcDbEntity
  8
AXIS
 62
   250
100
AcDbSpline
210
0.0
220
0.0
230
1.0
 70
    11
 71
     3
 72
    28
 73
    24
 74
     0
 42
0.0000000001
 43
0.0000000001
 40
0.0
 40
0.0
 40
0.0
 40
0.0
 40
0.1428571428571428
 40
0.1428571428571428
 40
0.1428571428571428
 40
0.1428571428571428
 40
0.2857142857142857
 40
0.2857142857142857
 40
0.2857142857142857
 40
0.2857142857142857
 40
0.4285714285714285
 40
0.4285714285714285
 40
0.4285714285714285
 40
0.4285714285714285
 40
0.5714285714285714
 40
0.5714285714285714
 40
0.5714285714285714
 40
0.5714285714285714
 40
0.7142857142857143
 40
0.7142857142857143
 40
0.7142857142857143
 40
0.7142857142857143
 40
1.0
 40
1.0
 40
1.0
 40
1.0
 10
-4.4063
 20
-5.1671
 30
0.0
 10
-4.4063
 20
-5.1671
 30
0.0
 10
-5.4303
 20
-6.3134
 30
0.0
 10
-5.4303
 20
-6.3134
 30
0.0
 10
-5.4303
 20
-6.3134
 30
0.0
 10
-5.3598
 20
-6.3712
 30
0.0
 10
-5.2944
 20
-6.4117
 30
0.0
 10
-5.2346
 20
-6.4347
 30
0.0
 10
-5.2346
 20
-6.4347
 30
0.0
 10
-5.1566
 20
-6.4653
 30
0.0
 10
-5.0719
 20
-6.4803
 30
0.0
 10
-4.9811
 20
-6.4803
 30
0.0
 10
-4.9811
 20
-6.4803
 30
0.0
 10
-4.7807
 20
-6.4803
 30
0.0
 10
-4.6156
 20
-6.4098
 30
0.0
 10
-4.4849
 20
-6.2682
 30
0.0
 10
-4.4849
 20
-6.2682
 30
0.0
 10
-4.3546
 20
-6.1266
 30
0.0
 10
-4.2892
 20
-5.9281
 30
0.0
 10
-4.2892
 20
-5.6727
 30
0.0
 10
-4.2892
 20
-5.6727
 30
0.0
 10
-4.2892
 20
-5.4818
 30
0.0
 10
-4.3282
 20
-5.3129
 30
0.0
 10
-4.4063
 20
-5.1671
 30
0.0
  0
SPLINE
  5
CA
330
1F
100
AcDbEntity
  8
AXIS
 62
   250
100
AcDbSpline
210
0.0
220
0.0
230
1.0
 70
    11
 71
     3
 72
    48
 73
    44
 74
     0
 42
0.0000000001
 43
0.0000000001
 40
0.0
 40
0.0
 40
0.0
 40
0.0
 40
0.0833333333333333
 40
0.0833333333333333
 40
0.0833333333333333
 40
0.0833333333333333
 40
0.1666666666666667
 40
0.1666666666666667
 40
0.1666666666666667
 40
0.1666666666666667
 40
0.25
 40
0.25
 40
0.25
 40
0.25
 40
0.3333333333333333
 40
0.3333333333333333
 40
0.3333333333333333
 40
0.3333333333333333
 40
0.4166666666666667
 40
0.4166666666666667
 40
0.4166666666666667
 40
0.4166666666666667
 40
0.5
 40
0.5
 40
0.5
 40
0.5
 40
0.5833333333333334
 40
0.5833333333333334
 40
0.5833333333333334
 40
0.5833333333333334
 40
0.6666666666666666
 40
0.6666666666666666
 40
0.6666666666666666
 40
0.6666666666666666
 40
0.75
 40
0.75
 40
0.75
 40
0.75
 40
0.8333333333333334
 40
0.8333333333333334
 40
0.8333333333333334
 40
0.8333333333333334
 40
1.0
 40
1.0
 40
1.0
 40
1.0
 10
-2.9694
 20
-6.6746
 30
0.0
 10
-2.9694
 20
-6.6746
 30
0.0
 10
-2.9694
 20
-6.1911
 30
0.0
 10
-2.9694
 20
-6.1911
 30
0.0
 10
-2.9694
 20
-6.1911
 30
0.0
 10
-2.9694
 20
-6.1911
 30
0.0
 10
-3.8457
 20
-6.1911
 30
0.0
 10
-3.8457
 20
-6.1911
 30
0.0
 10
-3.8457
 20
-6.1911
 30
0.0
 10
-3.8457
 20
-6.1911
 30
0.0
 10
-3.8457
 20
-5.9634
 30
0.0
 10
-3.8457
 20
-5.9634
 30
0.0
 10
-3.8457
 20
-5.9634
 30
0.0
 10
-3.8457
 20
-5.9634
 30
0.0
 10
-2.9237
 20
-4.6544
 30
0.0
 10
-2.9237
 20
-4.6544
 30
0.0
 10
-2.9237
 20
-4.6544
 30
0.0
 10
-2.9237
 20
-4.6544
 30
0.0
 10
-2.721
 20
-4.6544
 30
0.0
 10
-2.721
 20
-4.6544
 30
0.0
 10
-2.721
 20
-4.6544
 30
0.0
 10
-2.721
 20
-4.6544
 30
0.0
 10
-2.721
 20
-5.9634
 30
0.0
 10
-2.721
 20
-5.9634
 30
0.0
 10
-2.721
 20
-5.9634
 30
0.0
 10
-2.721
 20
-5.9634
 30
0.0
 10
-2.4482
 20
-5.9634
 30
0.0
 10
-2.4482
 20
-5.9634
 30
0.0
 10
-2.4482
 20
-5.9634
 30
0.0
 10
-2.4482
 20
-5.9634
 30
0.0
 10
-2.4482
 20
-6.1911
 30
0.0
 10
-2.4482
 20
-6.1911
 30
0.0
 10
-2.4482
 20
-6.1911
 30
0.0
 10
-2.4482
 20
-6.1911
 30
0.0
 10
-2.721
 20
-6.1911
 30
0.0
 10
-2.721
 20
-6.1911
 30
0.0
 10
-2.721
 20
-6.1911
 30
0.0
 10
-2.721
 20
-6.1911
 30
0.0
 10
-2.721
 20
-6.6746
 30
0.0
 10
-2.721
 20
-6.6746
 30
0.0
 10
-2.721
 20
-6.6746
 30
0.0
 10
-2.721
 20
-6.6746
 30
0.0
 10
-2.9694
 20
-6.6746
 30
0.0
 10
-2.9694
 20
-6.6746
 30
0.0
  0
SPLINE
  5
CB
330
1F
100
AcDbEntity
  8
AXIS
 62
   250
100
AcDbSpline
210
0.0
220
0.0
230
1.0
 70
    11
 71
     3
 72
    16
 73
    12
 74
     0
 42
0.0000000001
 43
0.0000000001
 40
0.0
 40
0.0
 40
0.0
 40
0.0
 40
0.25
 40
0.25
 40
0.25
 40
0.25
 40
0.5
 40
0.5
 40
0.5
 40
0.5
 40
1.0
 40
1.0
 40
1.0
 40
1.0
 10
-2.9694
 20
-5.9634
 30
0.0
 10
-2.9694
 20
-5.9634
 30
0.0
 10
-2.9694
 20
-5.0528
 30
0.0
 10
-2.9694
 20
-5.0528
 30
0.0
 10
-2.9694
 20
-5.0528
 30
0.0
 10
-2.9694
 20
-5.0528
 30
0.0
 10
-3.6015
 20
-5.9634
 30
0.0
 10
-3.6015
 20
-5.9634
 30
0.0
 10
-3.6015
 20
-5.9634
 30
0.0
 10
-3.6015
 20
-5.9634
 30
0.0
 10
-2.9694
 20
-5.9634
 30
0.0
 10
-2.9694
 20
-5.9634
 30
0.0
  0
SPLINE
  5
CC
330
1F
100
AcDbEntity
  8
AXIS
 62
   250
100
AcDbSpline
210
0.0
220
0.0
230
1.0
 70
    11
 71
     3
 72
    92
 73
    88
 74
     0
 42
0.0000000001
 43
0.0000000001
 40
0.0
 40
0.0
 40
0.0
 40
0.0
 40
0.0434782608695652
 40
0.0434782608695652
 40
0.0434782608695652
 40
0.0434782608695652
 40
0.0869565217391304
 40
0.0869565217391304
 40
0.0869565217391304
 40
0.0869565217391304
 40
0.1304347826086956
 40
0.1304347826086956
 40
0.1304347826086956
 40
0.1304347826086956
 40
0.1739130434782609
 40
0.1739130434782609
 40
0.1739130434782609
 40
0.1739130434782609
 40
0.2173913043478261
 40
0.2173913043478261
 40
0.2173913043478261
 40
0.2173913043478261
 40
0.2608695652173913
 40
0.2608695652173913
 40
0.2608695652173913
 40
0.2608695652173913
 40
0.3043478260869565
 40
0.3043478260869565
 40
0.3043478260869565
 40
0.3043478260869565
 40
0.3478260869565217
 40
0.3478260869565217
 40
0.3478260869565217
 40
0.3478260869565217
 40
0.391304347826087
 40
0.391304347826087
 40
0.391304347826087
 40
0.391304347826087
 40
0.4347826086956522
 40
0.4347826086956522
 40
0.4347826086956522
 40
0.4347826086956522
 40
0.4782608695652174
 40
0.4782608695652174
 40
0.4782608695652174
 40
0.4782608695652174
 40
0.5217391304347826
 40
0.5217391304347826
 40
0.5217391304347826
 40
0.5217391304347826
 40
0.5652173913043478
 40
0.5652173913043478
 40
0.5652173913043478
 40
0.5652173913043478
 40
0.6086956521739131
 40
0.6086956521739131
 40
0.6086956521739131
 40
0.6086956521739131
 40
0.6521739130434783
 40
0.6521739130434783
 40
0.6521739130434783
 40
0.6521739130434783
 40
0.6956521739130435
 40
0.6956521739130435
 40
0.6956521739130435
 40
0.6956521739130435
 40
0.7391304347826086
 40
0.7391304347826086
 40
0.7391304347826086
 40
0.7391304347826086
 40
0.782608695652174
 40
0.782608695652174
 40
0.782608695652174
 40
0.782608695652174
 40
0.8260869565217391
 40
0.8260869565217391
 40
0.8260869565217391
 40
0.8260869565217391
 40
0.8695652173913043
 40
0.8695652173913043
 40
0.8695652173913043
 40
0.8695652173913043
 40
0.9130434782608695
 40
0.9130434782608695
 40
0.9130434782608695
 40
0.9130434782608695
 40
1.0
 40
1.0
 40
1.0
 40
1.0
 10
-2.1947
 20
-6.1454
 30
0.0
 10
-2.1947
 20
-6.1454
 30
0.0
 10
-1.9341
 20
-6.1233
 30
0.0
 10
-1.9341
 20
-6.1233
 30
0.0
 10
-1.9341
 20
-6.1233
 30
0.0
 10
-1.9148
 20
-6.2503
 30
0.0
 10
-1.8701
 20
-6.3453
 30
0.0
 10
-1.8
 20
-6.4093
 30
0.0
 10
-1.8
 20
-6.4093
 30
0.0
 10
-1.7295
 20
-6.4733
 30
0.0
 10
-1.6448
 20
-6.5053
 30
0.0
 10
-1.5456
 20
-6.5053
 30
0.0
 10
-1.5456
 20
-6.5053
 30
0.0
 10
-1.4261
 20
-6.5053
 30
0.0
 10
-1.325
 20
-6.4601
 30
0.0
 10
-1.2427
 20
-6.3703
 30
0.0
 10
-1.2427
 20
-6.3703
 30
0.0
 10
-1.1599
 20
-6.28
 30
0.0
 10
-1.1185
 20
-6.1605
 30
0.0
 10
-1.1185
 20
-6.0119
 30
0.0
 10
-1.1185
 20
-6.0119
 30
0.0
 10
-1.1185
 20
-5.8703
 30
0.0
 10
-1.158
 20
-5.7588
 30
0.0
 10
-1.2375
 20
-5.677
 30
0.0
 10
-1.2375
 20
-5.677
 30
0.0
 10
-1.317
 20
-5.5951
 30
0.0
 10
-1.4209
 20
-5.5542
 30
0.0
 10
-1.5498
 20
-5.5542
 30
0.0
 10
-1.5498
 20
-5.5542
 30
0.0
 10
-1.6298
 20
-5.5542
 30
0.0
 10
-1.7017
 20
-5.5725
 30
0.0
 10
-1.7662
 20
-5.6087
 30
0.0
 10
-1.7662
 20
-5.6087
 30
0.0
 10
-1.8306
 20
-5.645
 30
0.0
 10
-1.8809
 20
-5.692
 30
0.0
 10
-1.9176
 20
-5.7499
 30
0.0
 10
-1.9176
 20
-5.7499
 30
0.0
 10
-1.9176
 20
-5.7499
 30
0.0
 10
-2.1505
 20
-5.7198
 30
0.0
 10
-2.1505
 20
-5.7198
 30
0.0
 10
-2.1505
 20
-5.7198
 30
0.0
 10
-2.1505
 20
-5.7198
 30
0.0
 10
-1.9548
 20
-4.6821
 30
0.0
 10
-1.9548
 20
-4.6821
 30
0.0
 10
-1.9548
 20
-4.6821
 30
0.0
 10
-1.9548
 20
-4.6821
 30
0.0
 10
-0.9501
 20
-4.6821
 30
0.0
 10
-0.9501
 20
-4.6821
 30
0.0
 10
-0.9501
 20
-4.6821
 30
0.0
 10
-0.9501
 20
-4.6821
 30
0.0
 10
-0.9501
 20
-4.9192
 30
0.0
 10
-0.9501
 20
-4.9192
 30
0.0
 10
-0.9501
 20
-4.9192
 30
0.0
 10
-0.9501
 20
-4.9192
 30
0.0
 10
-1.7563
 20
-4.9192
 30
0.0
 10
-1.7563
 20
-4.9192
 30
0.0
 10
-1.7563
 20
-4.9192
 30
0.0
 10
-1.7563
 20
-4.9192
 30
0.0
 10
-1.8654
 20
-5.462
 30
0.0
 10
-1.8654
 20
-5.462
 30
0.0
 10
-1.8654
 20
-5.462
 30
0.0
 10
-1.7441
 20
-5.3773
 30
0.0
 10
-1.6166
 20
-5.335
 30
0.0
 10
-1.4835
 20
-5.335
 30
0.0
 10
-1.4835
 20
-5.335
 30
0.0
 10
-1.3071
 20
-5.335
 30
0.0
 10
-1.1585
 20
-5.3961
 30
0.0
 10
-1.0371
 20
-5.5184
 30
0.0
 10
-1.0371
 20
-5.5184
 30
0.0
 10
-0.9158
 20
-5.6407
 30
0.0
 10
-0.8551
 20
-5.7978
 30
0.0
 10
-0.8551
 20
-5.9897
 30
0.0
 10
-0.8551
 20
-5.9897
 30
0.0
 10
-0.8551
 20
-6.1727
 30
0.0
 10
-0.9087
 20
-6.3308
 30
0.0
 10
-1.015
 20
-6.4639
 30
0.0
 10
-1.015
 20
-6.4639
 30
0.0
 10
-1.1448
 20
-6.6271
 30
0.0
 10
-1.3217
 20
-6.7089
 30
0.0
 10
-1.5456
 20
-6.7089
 30
0.0
 10
-1.5456
 20
-6.7089
 30
0.0
 10
-1.7295
 20
-6.7089
 30
0.0
 10
-1.8795
 20
-6.6577
 30
0.0
 10
-1.9957
 20
-6.5547
 30
0.0
 10
-1.9957
 20
-6.5547
 30
0.0
 10
-2.1119
 20
-6.4516
 30
0.0
 10
-2.1782
 20
-6.3152
 30
0.0
 10
-2.1947
 20
-6.1454
 30
0.0
  0
SPLINE
  5
CD
330
1F
100
AcDbEntity
  8
AXIS
 62
   250
100
AcDbSpline
210
0.0
220
0.0
230
1.0
 70
    11
 71
     3
 72
    84
 73
    80
 74
     0
 42
0.0000000001
 43
0.0000000001
 40
0.0
 40
0.0
 40
0.0
 40
0.0
 40
0.0476190476190476
 40
0.0476190476190476
 40
0.0476190476190476
 40
0.0476190476190476
 40
0.0952380952380952
 40
0.0952380952380952
 40
0.0952380952380952
 40
0.0952380952380952
 40
0.1428571428571428
 40
0.1428571428571428
 40
0.1428571428571428
 40
0.1428571428571428
 40
0.1904761904761905
 40
0.1904761904761905
 40
0.1904761904761905
 40
0.1904761904761905
 40
0.2380952380952381
 40
0.2380952380952381
 40
0.2380952380952381
 40
0.2380952380952381
 40
0.2857142857142857
 40
0.2857142857142857
 40
0.2857142857142857
 40
0.2857142857142857
 40
0.3333333333333333
 40
0.3333333333333333
 40
0.3333333333333333
 40
0.3333333333333333
 40
0.3809523809523809
 40
0.3809523809523809
 40
0.3809523809523809
 40
0.3809523809523809
 40
0.4285714285714285
 40
0.4285714285714285
 40
0.4285714285714285
 40
0.4285714285714285
 40
0.4761904761904762
 40
0.4761904761904762
 40
0.4761904761904762
 40
0.4761904761904762
 40
0.5238095238095238
 40
0.5238095238095238
 40
0.5238095238095238
 40
0.5238095238095238
 40
0.5714285714285714
 40
0.5714285714285714
 40
0.5714285714285714
 40
0.5714285714285714
 40
0.6190476190476191
 40
0.6190476190476191
 40
0.6190476190476191
 40
0.6190476190476191
 40
0.6666666666666666
 40
0.6666666666666666
 40
0.6666666666666666
 40
0.6666666666666666
 40
0.7142857142857143
 40
0.7142857142857143
 40
0.7142857142857143
 40
0.7142857142857143
 40
0.7619047619047619
 40
0.7619047619047619
 40
0.7619047619047619
 40
0.7619047619047619
 40
0.8095238095238095
 40
0.8095238095238095
 40
0.8095238095238095
 40
0.8095238095238095
 40
0.8571428571428571
 40
0.8571428571428571
 40
0.8571428571428571
 40
0.8571428571428571
 40
0.9047619047619048
 40
0.9047619047619048
 40
0.9047619047619048
 40
0.9047619047619048
 40
1.0
 40
1.0
 40
1.0
 40
1.0
 10
15.2034
 20
28.1247
 30
0.0
 10
15.2034
 20
28.1247
 30
0.0
 10
14.9802
 20
28.391
 30
0.0
 10
14.9802
 20
28.391
 30
0.0
 10
14.9802
 20
28.391
 30
0.0
 10
14.9802
 20
28.391
 30
0.0
 10
15.1143
 20
28.5093
 30
0.0
 10
15.1143
 20
28.5093
 30
0.0
 10
15.1143
 20
28.5093
 30
0.0
 10
15.1143
 20
28.5093
 30
0.0
 10
15.3495
 20
28.2305
 30
0.0
 10
15.3495
 20
28.2305
 30
0.0
 10
15.3495
 20
28.2305
 30
0.0
 10
15.4772
 20
28.2917
 30
0.0
 10
15.5868
 20
28.3295
 30
0.0
 10
15.6778
 20
28.3444
 30
0.0
 10
15.6778
 20
28.3444
 30
0.0
 10
15.7976
 20
28.3641
 30
0.0
 10
15.9287
 20
28.3635
 30
0.0
 10
16.0702
 20
28.343
 30
0.0
 10
16.0702
 20
28.343
 30
0.0
 10
16.275
 20
28.3133
 30
0.0
 10
16.4515
 20
28.2454
 30
0.0
 10
16.5991
 20
28.1393
 30
0.0
 10
16.5991
 20
28.1393
 30
0.0
 10
16.7472
 20
28.0332
 30
0.0
 10
16.8514
 20
27.8998
 30
0.0
 10
16.9116
 20
27.7385
 30
0.0
 10
16.9116
 20
27.7385
 30
0.0
 10
16.9713
 20
27.5767
 30
0.0
 10
16.9892
 20
27.4121
 30
0.0
 10
16.9648
 20
27.2441
 30
0.0
 10
16.9648
 20
27.2441
 30
0.0
 10
16.9466
 20
27.1184
 30
0.0
 10
16.9125
 20
27.0073
 30
0.0
 10
16.8623
 20
26.9106
 30
0.0
 10
16.8623
 20
26.9106
 30
0.0
 10
16.8235
 20
26.8364
 30
0.0
 10
16.7581
 20
26.7527
 30
0.0
 10
16.6656
 20
26.6591
 30
0.0
 10
16.6656
 20
26.6591
 30
0.0
 10
16.6656
 20
26.6591
 30
0.0
 10
16.8889
 20
26.3929
 30
0.0
 10
16.8889
 20
26.3929
 30
0.0
 10
16.8889
 20
26.3929
 30
0.0
 10
16.8889
 20
26.3929
 30
0.0
 10
16.7548
 20
26.2745
 30
0.0
 10
16.7548
 20
26.2745
 30
0.0
 10
16.7548
 20
26.2745
 30
0.0
 10
16.7548
 20
26.2745
 30
0.0
 10
16.5211
 20
26.5537
 30
0.0
 10
16.5211
 20
26.5537
 30
0.0
 10
16.5211
 20
26.5537
 30
0.0
 10
16.3726
 20
26.484
 30
0.0
 10
16.2481
 20
26.4412
 30
0.0
 10
16.1479
 20
26.4253
 30
0.0
 10
16.1479
 20
26.4253
 30
0.0
 10
16.0476
 20
26.4095
 30
0.0
 10
15.9299
 20
26.4109
 30
0.0
 10
15.7954
 20
26.4304
 30
0.0
 10
15.7954
 20
26.4304
 30
0.0
 10
15.5902
 20
26.4602
 30
0.0
 10
15.4132
 20
26.5277
 30
0.0
 10
15.2644
 20
26.6329
 30
0.0
 10
15.2644
 20
26.6329
 30
0.0
 10
15.1157
 20
26.7382
 30
0.0
 10
15.0109
 20
26.8703
 30
0.0
 10
14.9495
 20
27.0304
 30
0.0
 10
14.9495
 20
27.0304
 30
0.0
 10
14.8885
 20
27.1899
 30
0.0
 10
14.8709
 20
27.3603
 30
0.0
 10
14.8972
 20
27.5413
 30
0.0
 10
14.8972
 20
27.5413
 30
0.0
 10
14.9149
 20
27.6633
 30
0.0
 10
14.9462
 20
27.7676
 30
0.0
 10
14.9921
 20
27.8541
 30
0.0
 10
14.9921
 20
27.8541
 30
0.0
 10
15.0374
 20
27.9407
 30
0.0
 10
15.1081
 20
28.0312
 30
0.0
 10
15.2034
 20
28.1247
 30
0.0
  0
SPLINE
  5
CE
330
1F
100
AcDbEntity
  8
AXIS
 62
   250
100
AcDbSpline
210
0.0
220
0.0
230
1.0
 70
    11
 71
     3
 72
    32
 73
    28
 74
     0
 42
0.0000000001
 43
0.0000000001
 40
0.0
 40
0.0
 40
0.0
 40
0.0
 40
0.125
 40
0.125
 40
0.125
 40
0.125
 40
0.25
 40
0.25
 40
0.25
 40
0.25
 40
0.375
 40
0.375
 40
0.375
 40
0.375
 40
0.5
 40
0.5
 40
0.5
 40
0.5
 40
0.625
 40
0.625
 40
0.625
 40
0.625
 40
0.75
 40
0.75
 40
0.75
 40
0.75
 40
1.0
 40
1.0
 40
1.0
 40
1.0
 10
15.3635
 20
27.9347
 30
0.0
 10
15.2841
 20
27.8587
 30
0.0
 10
15.2271
 20
27.7905
 30
0.0
 10
15.1932
 20
27.7303
 30
0.0
 10
15.1932
 20
27.7303
 30
0.0
 10
15.1597
 20
27.6696
 30
0.0
 10
15.1361
 20
27.596
 30
0.0
 10
15.1236
 20
27.5098
 30
0.0
 10
15.1236
 20
27.5098
 30
0.0
 10
15.0947
 20
27.3106
 30
0.0
 10
15.1384
 20
27.1365
 30
0.0
 10
15.2544
 20
26.9866
 30
0.0
 10
15.2544
 20
26.9866
 30
0.0
 10
15.3706
 20
26.8371
 30
0.0
 10
15.5627
 20
26.7427
 30
0.0
 10
15.8313
 20
26.7037
 30
0.0
 10
15.8313
 20
26.7037
 30
0.0
 10
15.9365
 20
26.6884
 30
0.0
 10
16.0316
 20
26.685
 30
0.0
 10
16.1164
 20
26.6932
 30
0.0
 10
16.1164
 20
26.6932
 30
0.0
 10
16.1795
 20
26.6988
 30
0.0
 10
16.2588
 20
26.7181
 30
0.0
 10
16.3544
 20
26.7519
 30
0.0
 10
16.3544
 20
26.7519
 30
0.0
 10
16.3544
 20
26.7519
 30
0.0
 10
15.3635
 20
27.9347
 30
0.0
 10
15.3635
 20
27.9347
 30
0.0
  0
SPLINE
  5
CF
330
1F
100
AcDbEntity
  8
AXIS
 62
   250
100
AcDbSpline
210
0.0
220
0.0
230
1.0
 70
    11
 71
     3
 72
    28
 73
    24
 74
     0
 42
0.0000000001
 43
0.0000000001
 40
0.0
 40
0.0
 40
0.0
 40
0.0
 40
0.1428571428571428
 40
0.1428571428571428
 40
0.1428571428571428
 40
0.1428571428571428
 40
0.2857142857142857
 40
0.2857142857142857
 40
0.2857142857142857
 40
0.2857142857142857
 40
0.4285714285714285
 40
0.4285714285714285
 40
0.4285714285714285
 40
0.4285714285714285
 40
0.5714285714285714
 40
0.5714285714285714
 40
0.5714285714285714
 40
0.5714285714285714
 40
0.7142857142857143
 40
0.7142857142857143
 40
0.7142857142857143
 40
0.7142857142857143
 40
1.0
 40
1.0
 40
1.0
 40
1.0
 10
15.5204
 20
28.026
 30
0.0
 10
15.5204
 20
28.026
 30
0.0
 10
16.5077
 20
26.8479
 30
0.0
 10
16.5077
 20
26.8479
 30
0.0
 10
16.5077
 20
26.8479
 30
0.0
 10
16.575
 20
26.9094
 30
0.0
 10
16.6245
 20
26.9683
 30
0.0
 10
16.6559
 20
27.0242
 30
0.0
 10
16.6559
 20
27.0242
 30
0.0
 10
16.6973
 20
27.097
 30
0.0
 10
16.7244
 20
27.1786
 30
0.0
 10
16.7374
 20
27.2685
 30
0.0
 10
16.7374
 20
27.2685
 30
0.0
 10
16.7662
 20
27.4668
 30
0.0
 10
16.7201
 20
27.6403
 30
0.0
 10
16.5988
 20
27.79
 30
0.0
 10
16.5988
 20
27.79
 30
0.0
 10
16.4774
 20
27.9393
 30
0.0
 10
16.2903
 20
28.0326
 30
0.0
 10
16.0376
 20
28.0692
 30
0.0
 10
16.0376
 20
28.0692
 30
0.0
 10
15.8486
 20
28.0967
 30
0.0
 10
15.6759
 20
28.0823
 30
0.0
 10
15.5204
 20
28.026
 30
0.0
  0
SPLINE
  5
D0
330
1F
100
AcDbEntity
  8
AXIS
 62
   250
100
AcDbSpline
210
0.0
220
0.0
230
1.0
 70
    11
 71
     3
 72
    48
 73
    44
 74
     0
 42
0.0000000001
 43
0.0000000001
 40
0.0
 40
0.0
 40
0.0
 40
0.0
 40
0.0833333333333333
 40
0.0833333333333333
 40
0.0833333333333333
 40
0.0833333333333333
 40
0.1666666666666667
 40
0.1666666666666667
 40
0.1666666666666667
 40
0.1666666666666667
 40
0.25
 40
0.25
 40
0.25
 40
0.25
 40
0.3333333333333333
 40
0.3333333333333333
 40
0.3333333333333333
 40
0.3333333333333333
 40
0.4166666666666667
 40
0.4166666666666667
 40
0.4166666666666667
 40
0.4166666666666667
 40
0.5
 40
0.5
 40
0.5
 40
0.5
 40
0.5833333333333334
 40
0.5833333333333334
 40
0.5833333333333334
 40
0.5833333333333334
 40
0.6666666666666666
 40
0.6666666666666666
 40
0.6666666666666666
 40
0.6666666666666666
 40
0.75
 40
0.75
 40
0.75
 40
0.75
 40
0.8333333333333334
 40
0.8333333333333334
 40
0.8333333333333334
 40
0.8333333333333334
 40
1.0
 40
1.0
 40
1.0
 40
1.0
 10
15.3696
 20
28.7133
 30
0.0
 10
15.3696
 20
28.7133
 30
0.0
 10
15.1336
 20
28.7475
 30
0.0
 10
15.1336
 20
28.7475
 30
0.0
 10
15.1336
 20
28.7475
 30
0.0
 10
15.1336
 20
28.7475
 30
0.0
 10
15.3215
 20
30.0416
 30
0.0
 10
15.3215
 20
30.0416
 30
0.0
 10
15.3215
 20
30.0416
 30
0.0
 10
15.3215
 20
30.0416
 30
0.0
 10
15.5124
 20
30.0139
 30
0.0
 10
15.5124
 20
30.0139
 30
0.0
 10
15.5124
 20
30.0139
 30
0.0
 10
15.6293
 20
29.8671
 30
0.0
 10
15.7912
 20
29.7148
 30
0.0
 10
15.9974
 20
29.557
 30
0.0
 10
15.9974
 20
29.557
 30
0.0
 10
16.2036
 20
29.3997
 30
0.0
 10
16.4209
 20
29.2693
 30
0.0
 10
16.648
 20
29.1669
 30
0.0
 10
16.648
 20
29.1669
 30
0.0
 10
16.8084
 20
29.0933
 30
0.0
 10
16.9868
 20
29.0356
 30
0.0
 10
17.1841
 20
28.9931
 30
0.0
 10
17.1841
 20
28.9931
 30
0.0
 10
17.1841
 20
28.9931
 30
0.0
 10
17.1475
 20
28.7409
 30
0.0
 10
17.1475
 20
28.7409
 30
0.0
 10
17.1475
 20
28.7409
 30
0.0
 10
16.9905
 20
28.7665
 30
0.0
 10
16.805
 20
28.8247
 30
0.0
 10
16.5907
 20
28.9163
 30
0.0
 10
16.5907
 20
28.9163
 30
0.0
 10
16.3768
 20
29.0076
 30
0.0
 10
16.174
 20
29.1236
 30
0.0
 10
15.9833
 20
29.2639
 30
0.0
 10
15.9833
 20
29.2639
 30
0.0
 10
15.7928
 20
29.4047
 30
0.0
 10
15.6352
 20
29.5474
 30
0.0
 10
15.5118
 20
29.6926
 30
0.0
 10
15.5118
 20
29.6926
 30
0.0
 10
15.5118
 20
29.6926
 30
0.0
 10
15.3696
 20
28.7133
 30
0.0
 10
15.3696
 20
28.7133
 30
0.0
  0
SPLINE
  5
D1
330
1F
100
AcDbEntity
  8
AXIS
 62
   250
100
AcDbSpline
210
0.0
220
0.0
230
1.0
 70
    11
 71
     3
 72
    68
 73
    64
 74
     0
 42
0.0000000001
 43
0.0000000001
 40
0.0
 40
0.0
 40
0.0
 40
0.0
 40
0.0588235294117647
 40
0.0588235294117647
 40
0.0588235294117647
 40
0.0588235294117647
 40
0.1176470588235294
 40
0.1176470588235294
 40
0.1176470588235294
 40
0.1176470588235294
 40
0.1764705882352941
 40
0.1764705882352941
 40
0.1764705882352941
 40
0.1764705882352941
 40
0.2352941176470588
 40
0.2352941176470588
 40
0.2352941176470588
 40
0.2352941176470588
 40
0.2941176470588235
 40
0.2941176470588235
 40
0.2941176470588235
 40
0.2941176470588235
 40
0.3529411764705883
 40
0.3529411764705883
 40
0.3529411764705883
 40
0.3529411764705883
 40
0.4117647058823529
 40
0.4117647058823529
 40
0.4117647058823529
 40
0.4117647058823529
 40
0.4705882352941176
 40
0.4705882352941176
 40
0.4705882352941176
 40
0.4705882352941176
 40
0.5294117647058824
 40
0.5294117647058824
 40
0.5294117647058824
 40
0.5294117647058824
 40
0.5882352941176471
 40
0.5882352941176471
 40
0.5882352941176471
 40
0.5882352941176471
 40
0.6470588235294118
 40
0.6470588235294118
 40
0.6470588235294118
 40
0.6470588235294118
 40
0.7058823529411765
 40
0.7058823529411765
 40
0.7058823529411765
 40
0.7058823529411765
 40
0.7647058823529411
 40
0.7647058823529411
 40
0.7647058823529411
 40
0.7647058823529411
 40
0.8235294117647058
 40
0.8235294117647058
 40
0.8235294117647058
 40
0.8235294117647058
 40
0.8823529411764706
 40
0.8823529411764706
 40
0.8823529411764706
 40
0.8823529411764706
 40
1.0
 40
1.0
 40
1.0
 40
1.0
 10
16.3007
 20
30.5335
 30
0.0
 10
16.2487
 20
30.4369
 30
0.0
 10
16.1847
 20
30.3692
 30
0.0
 10
16.1081
 20
30.3299
 30
0.0
 10
16.1081
 20
30.3299
 30
0.0
 10
16.0322
 20
30.2911
 30
0.0
 10
15.9457
 20
30.2785
 30
0.0
 10
15.8494
 20
30.2924
 30
0.0
 10
15.8494
 20
30.2924
 30
0.0
 10
15.7037
 20
30.3136
 30
0.0
 10
15.5892
 20
30.3834
 30
0.0
 10
15.5053
 20
30.5025
 30
0.0
 10
15.5053
 20
30.5025
 30
0.0
 10
15.4213
 20
30.6216
 30
0.0
 10
15.3917
 20
30.7676
 30
0.0
 10
15.4169
 20
30.9412
 30
0.0
 10
15.4169
 20
30.9412
 30
0.0
 10
15.4422
 20
31.1158
 30
0.0
 10
15.5134
 20
31.249
 30
0.0
 10
15.6303
 20
31.3409
 30
0.0
 10
15.6303
 20
31.3409
 30
0.0
 10
15.7472
 20
31.4322
 30
0.0
 10
15.8783
 20
31.4675
 30
0.0
 10
16.0239
 20
31.4463
 30
0.0
 10
16.0239
 20
31.4463
 30
0.0
 10
16.1166
 20
31.4329
 30
0.0
 10
16.1936
 20
31.3969
 30
0.0
 10
16.2555
 20
31.3385
 30
0.0
 10
16.2555
 20
31.3385
 30
0.0
 10
16.3168
 20
31.2797
 30
0.0
 10
16.3592
 20
31.1985
 30
0.0
 10
16.382
 20
31.0939
 30
0.0
 10
16.382
 20
31.0939
 30
0.0
 10
16.4399
 20
31.2105
 30
0.0
 10
16.5177
 20
31.2947
 30
0.0
 10
16.6164
 20
31.346
 30
0.0
 10
16.6164
 20
31.346
 30
0.0
 10
16.7145
 20
31.3969
 30
0.0
 10
16.8257
 20
31.4135
 30
0.0
 10
16.9491
 20
31.3956
 30
0.0
 10
16.9491
 20
31.3956
 30
0.0
 10
17.1204
 20
31.3707
 30
0.0
 10
17.2551
 20
31.2894
 30
0.0
 10
17.3539
 20
31.152
 30
0.0
 10
17.3539
 20
31.152
 30
0.0
 10
17.4527
 20
31.0141
 30
0.0
 10
17.4877
 20
30.8464
 30
0.0
 10
17.4591
 20
30.6491
 30
0.0
 10
17.4591
 20
30.6491
 30
0.0
 10
17.4304
 20
30.4517
 30
0.0
 10
17.3492
 20
30.3014
 30
0.0
 10
17.2149
 20
30.1973
 30
0.0
 10
17.2149
 20
30.1973
 30
0.0
 10
17.0804
 20
30.0932
 30
0.0
 10
16.926
 20
30.0539
 30
0.0
 10
16.7514
 20
30.0792
 30
0.0
 10
16.7514
 20
30.0792
 30
0.0
 10
16.6216
 20
30.0981
 30
0.0
 10
16.5174
 20
30.147
 30
0.0
 10
16.439
 20
30.2258
 30
0.0
 10
16.439
 20
30.2258
 30
0.0
 10
16.3611
 20
30.3041
 30
0.0
 10
16.3146
 20
30.4069
 30
0.0
 10
16.3007
 20
30.5335
 30
0.0
  0
SPLINE
  5
D2
330
1F
100
AcDbEntity
  8
AXIS
 62
   250
100
AcDbSpline
210
0.0
220
0.0
230
1.0
 70
    11
 71
     3
 72
    36
 73
    32
 74
     0
 42
0.0000000001
 43
0.0000000001
 40
0.0
 40
0.0
 40
0.0
 40
0.0
 40
0.1111111111111111
 40
0.1111111111111111
 40
0.1111111111111111
 40
0.1111111111111111
 40
0.2222222222222222
 40
0.2222222222222222
 40
0.2222222222222222
 40
0.2222222222222222
 40
0.3333333333333333
 40
0.3333333333333333
 40
0.3333333333333333
 40
0.3333333333333333
 40
0.4444444444444444
 40
0.4444444444444444
 40
0.4444444444444444
 40
0.4444444444444444
 40
0.5555555555555556
 40
0.5555555555555556
 40
0.5555555555555556
 40
0.5555555555555556
 40
0.6666666666666666
 40
0.6666666666666666
 40
0.6666666666666666
 40
0.6666666666666666
 40
0.7777777777777778
 40
0.7777777777777778
 40
0.7777777777777778
 40
0.7777777777777778
 40
1.0
 40
1.0
 40
1.0
 40
1.0
 10
15.8774
 20
30.5445
 30
0.0
 10
15.9719
 20
30.5308
 30
0.0
 10
16.0536
 20
30.5503
 30
0.0
 10
16.1225
 20
30.6021
 30
0.0
 10
16.1225
 20
30.6021
 30
0.0
 10
16.1913
 20
30.6544
 30
0.0
 10
16.2331
 20
30.7291
 30
0.0
 10
16.2472
 20
30.8264
 30
0.0
 10
16.2472
 20
30.8264
 30
0.0
 10
16.2609
 20
30.9209
 30
0.0
 10
16.2424
 20
31.0029
 30
0.0
 10
16.1916
 20
31.0722
 30
0.0
 10
16.1916
 20
31.0722
 30
0.0
 10
16.1408
 20
31.1413
 30
0.0
 10
16.072
 20
31.1817
 30
0.0
 10
15.9859
 20
31.1942
 30
0.0
 10
15.9859
 20
31.1942
 30
0.0
 10
15.8957
 20
31.2073
 30
0.0
 10
15.8158
 20
31.1875
 30
0.0
 10
15.7453
 20
31.134
 30
0.0
 10
15.7453
 20
31.134
 30
0.0
 10
15.6748
 20
31.0806
 30
0.0
 10
15.6328
 20
31.0078
 30
0.0
 10
15.6193
 20
30.9147
 30
0.0
 10
15.6193
 20
30.9147
 30
0.0
 10
15.6057
 20
30.8211
 30
0.0
 10
15.6247
 20
30.739
 30
0.0
 10
15.6753
 20
30.6684
 30
0.0
 10
15.6753
 20
30.6684
 30
0.0
 10
15.7264
 20
30.5978
 30
0.0
 10
15.794
 20
30.5566
 30
0.0
 10
15.8774
 20
30.5445
 30
0.0
  0
SPLINE
  5
D3
330
1F
100
AcDbEntity
  8
AXIS
 62
   250
100
AcDbSpline
210
0.0
220
0.0
230
1.0
 70
    11
 71
     3
 72
    40
 73
    36
 74
     0
 42
0.0000000001
 43
0.0000000001
 40
0.0
 40
0.0
 40
0.0
 40
0.0
 40
0.1
 40
0.1
 40
0.1
 40
0.1
 40
0.2
 40
0.2
 40
0.2
 40
0.2
 40
0.3
 40
0.3
 40
0.3
 40
0.3
 40
0.4
 40
0.4
 40
0.4
 40
0.4
 40
0.5
 40
0.5
 40
0.5
 40
0.5
 40
0.6
 40
0.6
 40
0.6
 40
0.6
 40
0.7
 40
0.7
 40
0.7
 40
0.7
 40
0.8
 40
0.8
 40
0.8
 40
0.8
 40
1.0
 40
1.0
 40
1.0
 40
1.0
 10
16.7894
 20
30.3313
 30
0.0
 10
16.8593
 20
30.3212
 30
0.0
 10
16.9296
 20
30.3281
 30
0.0
 10
16.9996
 20
30.3517
 30
0.0
 10
16.9996
 20
30.3517
 30
0.0
 10
17.07
 20
30.3752
 30
0.0
 10
17.1279
 20
30.4172
 30
0.0
 10
17.1733
 20
30.4776
 30
0.0
 10
17.1733
 20
30.4776
 30
0.0
 10
17.2187
 20
30.5381
 30
0.0
 10
17.2471
 20
30.6057
 30
0.0
 10
17.258
 20
30.6811
 30
0.0
 10
17.258
 20
30.6811
 30
0.0
 10
17.275
 20
30.7984
 30
0.0
 10
17.2514
 20
30.9007
 30
0.0
 10
17.1866
 20
30.9881
 30
0.0
 10
17.1866
 20
30.9881
 30
0.0
 10
17.1222
 20
31.0753
 30
0.0
 10
17.0319
 20
31.1274
 30
0.0
 10
16.9155
 20
31.1443
 30
0.0
 10
16.9155
 20
31.1443
 30
0.0
 10
16.7972
 20
31.1615
 30
0.0
 10
16.6939
 20
31.1366
 30
0.0
 10
16.6052
 20
31.0691
 30
0.0
 10
16.6052
 20
31.0691
 30
0.0
 10
16.5165
 20
31.0017
 30
0.0
 10
16.4636
 20
30.9086
 30
0.0
 10
16.4464
 20
30.7903
 30
0.0
 10
16.4464
 20
30.7903
 30
0.0
 10
16.4296
 20
30.6749
 30
0.0
 10
16.4539
 20
30.5739
 30
0.0
 10
16.5193
 20
30.487
 30
0.0
 10
16.5193
 20
30.487
 30
0.0
 10
16.585
 20
30.4
 30
0.0
 10
16.6749
 20
30.3479
 30
0.0
 10
16.7894
 20
30.3313
 30
0.0
  0
SPLINE
  5
D4
330
1F
100
AcDbEntity
  8
AXIS
 62
   250
100
AcDbSpline
210
0.0
220
0.0
230
1.0
 70
    24
 71
     3
 72
     8
 73
     4
 74
     0
 42
0.0000000001
 43
0.0000000001
 40
0.0
 40
0.0
 40
0.0
 40
0.0
 40
1.0
 40
1.0
 40
1.0
 40
1.0
 10
29.6491
 20
26.9867
 30
0.0
 10
29.6491
 20
26.9867
 30
0.0
 10
19.2707
 20
26.9867
 30
0.0
 10
19.2707
 20
26.9867
 30
0.0
  0
SPLINE
  5
D5
330
1F
100
AcDbEntity
  8
AXIS
  6
NEW_LINE5
 62
   250
100
AcDbSpline
210
0.0
220
0.0
230
1.0
 70
    24
 71
     3
 72
     8
 73
     4
 74
     0
 42
0.0000000001
 43
0.0000000001
 40
0.0
 40
0.0
 40
0.0
 40
0.0
 40
1.0
 40
1.0
 40
1.0
 40
1.0
 10
-3.5171
 20
37.3506
 30
0.0
 10
-3.5171
 20
37.3506
 30
0.0
 10
-3.5171
 20
2.3618
 30
0.0
 10
-3.5171
 20
2.3618
 30
0.0
  0
SPLINE
  5
D7
330
1F
100
AcDbEntity
  8
AXIS
  6
NEW_LINE6
 62
   250
100
AcDbSpline
210
0.0
220
0.0
230
1.0
 70
    24
 71
     3
 72
     8
 73
     4
 74
     0
 42
0.0000000001
 43
0.0000000001
 40
0.0
 40
0.0
 40
0.0
 40
0.0
 40
1.0
 40
1.0
 40
1.0
 40
1.0
 10
29.8228
 20
37.3434
 30
0.0
 10
29.8228
 20
37.3434
 30
0.0
 10
29.8228
 20
34.8376
 30
0.0
 10
29.8228
 20
34.8376
 30
0.0
  0
SPLINE
  5
D9
330
1F
100
AcDbEntity
  8
AXIS
 62
   250
100
AcDbSpline
210
0.0
220
0.0
230
1.0
 70
    24
 71
     3
 72
     8
 73
     4
 74
     0
 42
0.0000000001
 43
0.0000000001
 40
0.0
 40
0.0
 40
0.0
 40
0.0
 40
1.0
 40
1.0
 40
1.0
 40
1.0
 10
-3.4767
 20
36.764
 30
0.0
 10
-3.4767
 20
36.764
 30
0.0
 10
28.5024
 20
36.764
 30
0.0
 10
28.5024
 20
36.764
 30
0.0
  0
SPLINE
  5
DA
330
1F
100
AcDbEntity
  8
AXIS
  6
NEW_LINE7
 62
   250
100
AcDbSpline
210
0.0
220
0.0
230
1.0
 70
    24
 71
     3
 72
     8
 73
     4
 74
     0
 42
0.0000000001
 43
0.0000000001
 40
0.0
 40
0.0
 40
0.0
 40
0.0
 40
1.0
 40
1.0
 40
1.0
 40
1.0
 10
32.8626
 20
26.9931
 30
0.0
 10
32.8626
 20
26.9931
 30
0.0
 10
26.9979
 20
-25.0405
 30
0.0
 10
26.9979
 20
-25.0405
 30
0.0
  0
SPLINE
  5
DC
330
1F
100
AcDbEntity
  8
AXIS
  6
NEW_LINE8
 62
   250
100
AcDbSpline
210
0.0
220
0.0
230
1.0
 70
    24
 71
     3
 72
     8
 73
     4
 74
     0
 42
0.0000000001
 43
0.0000000001
 40
0.0
 40
0.0
 40
0.0
 40
0.0
 40
1.0
 40
1.0
 40
1.0
 40
1.0
 10
-4.2273
 20
-27.2508
 30
0.0
 10
-4.2273
 20
-27.2508
 30
0.0
 10
24.2841
 20
-27.2508
 30
0.0
 10
24.2841
 20
-27.2508
 30
0.0
  0
SPLINE
  5
DE
330
1F
100
AcDbEntity
  8
AXIS
 62
   250
100
AcDbSpline
210
0.0
220
0.0
230
1.0
 70
    24
 71
     3
 72
     8
 73
     4
 74
     0
 42
0.0000000001
 43
0.0000000001
 40
0.0
 40
0.0
 40
0.0
 40
0.0
 40
1.0
 40
1.0
 40
1.0
 40
1.0
 10
-3.9154
 20
-15.5899
 30
0.0
 10
-3.9154
 20
-15.5899
 30
0.0
 10
-3.9154
 20
-15.45
 30
0.0
 10
-3.9154
 20
-15.45
 30
0.0
  0
SPLINE
  5
DF
330
1F
100
AcDbEntity
  8
AXIS
 62
   250
100
AcDbSpline
210
0.0
220
0.0
230
1.0
 70
    24
 71
     3
 72
     8
 73
     4
 74
     0
 42
0.0000000001
 43
0.0000000001
 40
0.0
 40
0.0
 40
0.0
 40
0.0
 40
1.0
 40
1.0
 40
1.0
 40
1.0
 10
-3.9154
 20
-17.8273
 30
0.0
 10
-3.9154
 20
-17.8273
 30
0.0
 10
-3.9154
 20
-16.1492
 30
0.0
 10
-3.9154
 20
-16.1492
 30
0.0
  0
SPLINE
  5
E0
330
1F
100
AcDbEntity
  8
AXIS
 62
   250
100
AcDbSpline
210
0.0
220
0.0
230
1.0
 70
    24
 71
     3
 72
     8
 73
     4
 74
     0
 42
0.0000000001
 43
0.0000000001
 40
0.0
 40
0.0
 40
0.0
 40
0.0
 40
1.0
 40
1.0
 40
1.0
 40
1.0
 10
-3.9079
 20
-15.5593
 30
0.0
 10
-3.9079
 20
-15.5593
 30
0.0
 10
-3.0696
 20
-15.5112
 30
0.0
 10
-3.0696
 20
-15.5112
 30
0.0
  0
SPLINE
  5
E1
330
1F
100
AcDbEntity
  8
AXIS
 62
   250
100
AcDbSpline
210
0.0
220
0.0
230
1.0
 70
    24
 71
     3
 72
     8
 73
     4
 74
     0
 42
0.0000000001
 43
0.0000000001
 40
0.0
 40
0.0
 40
0.0
 40
0.0
 40
1.0
 40
1.0
 40
1.0
 40
1.0
 10
-3.9402
 20
-16.421
 30
0.0
 10
-3.9402
 20
-16.421
 30
0.0
 10
-3.1018
 20
-16.3729
 30
0.0
 10
-3.1018
 20
-16.3729
 30
0.0
  0
SPLINE
  5
E2
330
1F
100
AcDbEntity
  8
AXIS
 62
   250
100
AcDbSpline
210
0.0
220
0.0
230
1.0
 70
    24
 71
     3
 72
     8
 73
     4
 74
     0
 42
0.0000000001
 43
0.0000000001
 40
0.0
 40
0.0
 40
0.0
 40
0.0
 40
1.0
 40
1.0
 40
1.0
 40
1.0
 10
-3.9292
 20
-16.7823
 30
0.0
 10
-3.9292
 20
-16.7823
 30
0.0
 10
-3.0908
 20
-16.7341
 30
0.0
 10
-3.0908
 20
-16.7341
 30
0.0
  0
SPLINE
  5
E3
330
1F
100
AcDbEntity
  8
AXIS
 62
   250
100
AcDbSpline
210
0.0
220
0.0
230
1.0
 70
    24
 71
     3
 72
     8
 73
     4
 74
     0
 42
0.0000000001
 43
0.0000000001
 40
0.0
 40
0.0
 40
0.0
 40
0.0
 40
1.0
 40
1.0
 40
1.0
 40
1.0
 10
-3.9456
 20
-17.16
 30
0.0
 10
-3.9456
 20
-17.16
 30
0.0
 10
-3.1072
 20
-17.1118
 30
0.0
 10
-3.1072
 20
-17.1118
 30
0.0
  0
SPLINE
  5
E4
330
1F
100
AcDbEntity
  8
AXIS
 62
   250
100
AcDbSpline
210
0.0
220
0.0
230
1.0
 70
    24
 71
     3
 72
     8
 73
     4
 74
     0
 42
0.0000000001
 43
0.0000000001
 40
0.0
 40
0.0
 40
0.0
 40
0.0
 40
1.0
 40
1.0
 40
1.0
 40
1.0
 10
-3.9511
 20
-17.5486
 30
0.0
 10
-3.9511
 20
-17.5486
 30
0.0
 10
-3.1127
 20
-17.5004
 30
0.0
 10
-3.1127
 20
-17.5004
 30
0.0
  0
SPLINE
  5
E5
330
1F
100
AcDbEntity
  8
AXIS
 62
   250
100
AcDbSpline
210
0.0
220
0.0
230
1.0
 70
    11
 71
     3
 72
    44
 73
    40
 74
     0
 42
0.0000000001
 43
0.0000000001
 40
0.0
 40
0.0
 40
0.0
 40
0.0
 40
0.0909090909090909
 40
0.0909090909090909
 40
0.0909090909090909
 40
0.0909090909090909
 40
0.1818181818181818
 40
0.1818181818181818
 40
0.1818181818181818
 40
0.1818181818181818
 40
0.2727272727272727
 40
0.2727272727272727
 40
0.2727272727272727
 40
0.2727272727272727
 40
0.3636363636363636
 40
0.3636363636363636
 40
0.3636363636363636
 40
0.3636363636363636
 40
0.4545454545454545
 40
0.4545454545454545
 40
0.4545454545454545
 40
0.4545454545454545
 40
0.5454545454545454
 40
0.5454545454545454
 40
0.5454545454545454
 40
0.5454545454545454
 40
0.6363636363636364
 40
0.6363636363636364
 40
0.6363636363636364
 40
0.6363636363636364
 40
0.7272727272727273
 40
0.7272727272727273
 40
0.7272727272727273
 40
0.7272727272727273
 40
0.8181818181818182
 40
0.8181818181818182
 40
0.8181818181818182
 40
0.8181818181818182
 40
1.0
 40
1.0
 40
1.0
 40
1.0
 10
-3.0104
 20
-18.2445
 30
0.0
 10
-3.0104
 20
-18.2445
 30
0.0
 10
-3.3988
 20
-18.2488
 30
0.0
 10
-3.3988
 20
-18.2488
 30
0.0
 10
-3.3988
 20
-18.2488
 30
0.0
 10
-3.3988
 20
-18.2488
 30
0.0
 10
-3.4031
 20
-18.0331
 30
0.0
 10
-3.4031
 20
-18.0331
 30
0.0
 10
-3.4031
 20
-18.0331
 30
0.0
 10
-3.4031
 20
-18.0331
 30
0.0
 10
-3.5843
 20
-18.0374
 30
0.0
 10
-3.5843
 20
-18.0374
 30
0.0
 10
-3.5843
 20
-18.0374
 30
0.0
 10
-3.5843
 20
-18.0374
 30
0.0
 10
-3.5798
 20
-18.2468
 30
0.0
 10
-3.5798
 20
-18.2468
 30
0.0
 10
-3.5798
 20
-18.2468
 30
0.0
 10
-3.5798
 20
-18.2468
 30
0.0
 10
-3.9853
 20
-18.2468
 30
0.0
 10
-3.9853
 20
-18.2468
 30
0.0
 10
-3.9853
 20
-18.2468
 30
0.0
 10
-3.9853
 20
-18.2468
 30
0.0
 10
-4.059
 20
-18.1755
 30
0.0
 10
-4.059
 20
-18.1755
 30
0.0
 10
-4.059
 20
-18.1755
 30
0.0
 10
-4.059
 20
-18.1755
 30
0.0
 10
-4.0547
 20
-17.8346
 30
0.0
 10
-4.0547
 20
-17.8346
 30
0.0
 10
-4.0547
 20
-17.8346
 30
0.0
 10
-4.0547
 20
-17.8346
 30
0.0
 10
-2.9371
 20
-17.8389
 30
0.0
 10
-2.9371
 20
-17.8389
 30
0.0
 10
-2.9371
 20
-17.8389
 30
0.0
 10
-2.9371
 20
-17.8389
 30
0.0
 10
-2.9328
 20
-18.1755
 30
0.0
 10
-2.9328
 20
-18.1755
 30
0.0
 10
-2.9328
 20
-18.1755
 30
0.0
 10
-2.9328
 20
-18.1755
 30
0.0
 10
-3.0104
 20
-18.2445
 30
0.0
 10
-3.0104
 20
-18.2445
 30
0.0
  0
SPLINE
  5
E6
330
1F
100
AcDbEntity
  8
AXIS
 62
   250
100
AcDbSpline
210
0.0
220
0.0
230
1.0
 70
    24
 71
     3
 72
     8
 73
     4
 74
     0
 42
0.0000000001
 43
0.0000000001
 40
0.0
 40
0.0
 40
0.0
 40
0.0
 40
1.0
 40
1.0
 40
1.0
 40
1.0
 10
-3.0764
 20
-15.5899
 30
0.0
 10
-3.0764
 20
-15.5899
 30
0.0
 10
-3.0764
 20
-15.45
 30
0.0
 10
-3.0764
 20
-15.45
 30
0.0
  0
SPLINE
  5
E7
330
1F
100
AcDbEntity
  8
AXIS
 62
   250
100
AcDbSpline
210
0.0
220
0.0
230
1.0
 70
    24
 71
     3
 72
     8
 73
     4
 74
     0
 42
0.0000000001
 43
0.0000000001
 40
0.0
 40
0.0
 40
0.0
 40
0.0
 40
1.0
 40
1.0
 40
1.0
 40
1.0
 10
-3.0764
 20
-17.8273
 30
0.0
 10
-3.0764
 20
-17.8273
 30
0.0
 10
-3.0764
 20
-16.1492
 30
0.0
 10
-3.0764
 20
-16.1492
 30
0.0
  0
SPLINE
  5
E8
330
1F
100
AcDbEntity
  8
AXIS
 62
   250
100
AcDbSpline
210
0.0
220
0.0
230
1.0
 70
    24
 71
     3
 72
     8
 73
     4
 74
     0
 42
0.0000000001
 43
0.0000000001
 40
0.0
 40
0.0
 40
0.0
 40
0.0
 40
1.0
 40
1.0
 40
1.0
 40
1.0
 10
-3.5082
 20
-15.5985
 30
0.0
 10
-3.5082
 20
-15.5985
 30
0.0
 10
-3.5082
 20
-16.1469
 30
0.0
 10
-3.5082
 20
-16.1469
 30
0.0
  0
SPLINE
  5
E9
330
1F
100
AcDbEntity
  8
AXIS
 62
   250
100
AcDbSpline
210
0.0
220
0.0
230
1.0
 70
    11
 71
     3
 72
    36
 73
    32
 74
     0
 42
0.0000000001
 43
0.0000000001
 40
0.0
 40
0.0
 40
0.0
 40
0.0
 40
0.1111111111111111
 40
0.1111111111111111
 40
0.1111111111111111
 40
0.1111111111111111
 40
0.2222222222222222
 40
0.2222222222222222
 40
0.2222222222222222
 40
0.2222222222222222
 40
0.3333333333333333
 40
0.3333333333333333
 40
0.3333333333333333
 40
0.3333333333333333
 40
0.4444444444444444
 40
0.4444444444444444
 40
0.4444444444444444
 40
0.4444444444444444
 40
0.5555555555555556
 40
0.5555555555555556
 40
0.5555555555555556
 40
0.5555555555555556
 40
0.6666666666666666
 40
0.6666666666666666
 40
0.6666666666666666
 40
0.6666666666666666
 40
0.7777777777777778
 40
0.7777777777777778
 40
0.7777777777777778
 40
0.7777777777777778
 40
1.0
 40
1.0
 40
1.0
 40
1.0
 10
-3.9579
 20
-15.592
 30
0.0
 10
-3.9579
 20
-15.592
 30
0.0
 10
-3.0353
 20
-15.592
 30
0.0
 10
-3.0353
 20
-15.592
 30
0.0
 10
-3.0353
 20
-15.592
 30
0.0
 10
-2.9817
 20
-15.592
 30
0.0
 10
-2.9379
 20
-15.6358
 30
0.0
 10
-2.9379
 20
-15.6895
 30
0.0
 10
-2.9379
 20
-15.6895
 30
0.0
 10
-2.9379
 20
-15.6895
 30
0.0
 10
-2.9379
 20
-16.0534
 30
0.0
 10
-2.9379
 20
-16.0534
 30
0.0
 10
-2.9379
 20
-16.0534
 30
0.0
 10
-2.9379
 20
-16.107
 30
0.0
 10
-2.9817
 20
-16.1508
 30
0.0
 10
-3.0353
 20
-16.1508
 30
0.0
 10
-3.0353
 20
-16.1508
 30
0.0
 10
-3.0353
 20
-16.1508
 30
0.0
 10
-3.9579
 20
-16.1508
 30
0.0
 10
-3.9579
 20
-16.1508
 30
0.0
 10
-3.9579
 20
-16.1508
 30
0.0
 10
-4.0115
 20
-16.1508
 30
0.0
 10
-4.0553
 20
-16.107
 30
0.0
 10
-4.0553
 20
-16.0534
 30
0.0
 10
-4.0553
 20
-16.0534
 30
0.0
 10
-4.0553
 20
-16.0534
 30
0.0
 10
-4.0553
 20
-15.6895
 30
0.0
 10
-4.0553
 20
-15.6895
 30
0.0
 10
-4.0553
 20
-15.6895
 30
0.0
 10
-4.0553
 20
-15.6358
 30
0.0
 10
-4.0115
 20
-15.592
 30
0.0
 10
-3.9579
 20
-15.592
 30
0.0
  0
SPLINE
  5
EA
330
1F
100
AcDbEntity
  8
AXIS
 62
   250
100
AcDbSpline
210
0.0
220
0.0
230
1.0
 70
    11
 71
     3
 72
    20
 73
    16
 74
     0
 42
0.0000000001
 43
0.0000000001
 40
0.0
 40
0.0
 40
0.0
 40
0.0
 40
0.2
 40
0.2
 40
0.2
 40
0.2
 40
0.4
 40
0.4
 40
0.4
 40
0.4
 40
0.6
 40
0.6
 40
0.6
 40
0.6
 40
1.0
 40
1.0
 40
1.0
 40
1.0
 10
-28.0052
 20
-25.1113
 30
0.0
 10
-28.0052
 20
-25.1113
 30
0.0
 10
-28.2016
 20
-27.9451
 30
0.0
 10
-28.2016
 20
-27.9451
 30
0.0
 10
-28.2016
 20
-27.9451
 30
0.0
 10
-28.2016
 20
-27.9451
 30
0.0
 10
-28.3039
 20
-27.9548
 30
0.0
 10
-28.3039
 20
-27.9548
 30
0.0
 10
-28.3039
 20
-27.9548
 30
0.0
 10
-28.3039
 20
-27.9548
 30
0.0
 10
-29.0592
 20
-25.2111
 30
0.0
 10
-29.0592
 20
-25.2111
 30
0.0
 10
-29.0592
 20
-25.2111
 30
0.0
 10
-29.0592
 20
-25.2111
 30
0.0
 10
-28.0052
 20
-25.1113
 30
0.0
 10
-28.0052
 20
-25.1113
 30
0.0
  0
SPLINE
  5
EB
330
1F
100
AcDbEntity
  8
AXIS
 62
   250
100
AcDbSpline
210
0.0
220
0.0
230
1.0
 70
    11
 71
     3
 72
    20
 73
    16
 74
     0
 42
0.0000000001
 43
0.0000000001
 40
0.0
 40
0.0
 40
0.0
 40
0.0
 40
0.2
 40
0.2
 40
0.2
 40
0.2
 40
0.4
 40
0.4
 40
0.4
 40
0.4
 40
0.6
 40
0.6
 40
0.6
 40
0.6
 40
1.0
 40
1.0
 40
1.0
 40
1.0
 10
-28.0118
 20
-36.4781
 30
0.0
 10
-28.0118
 20
-36.4781
 30
0.0
 10
-27.8019
 20
-33.6453
 30
0.0
 10
-27.8019
 20
-33.6453
 30
0.0
 10
-27.8019
 20
-33.6453
 30
0.0
 10
-27.8019
 20
-33.6453
 30
0.0
 10
-27.6995
 20
-33.6361
 30
0.0
 10
-27.6995
 20
-33.6361
 30
0.0
 10
-27.6995
 20
-33.6361
 30
0.0
 10
-27.6995
 20
-33.6361
 30
0.0
 10
-26.9573
 20
-36.3834
 30
0.0
 10
-26.9573
 20
-36.3834
 30
0.0
 10
-26.9573
 20
-36.3834
 30
0.0
 10
-26.9573
 20
-36.3834
 30
0.0
 10
-28.0118
 20
-36.4781
 30
0.0
 10
-28.0118
 20
-36.4781
 30
0.0
  0
SPLINE
  5
EC
330
1F
100
AcDbEntity
  8
AXIS
 62
   250
100
AcDbSpline
210
0.0
220
0.0
230
1.0
 70
    11
 71
     3
 72
    20
 73
    16
 74
     0
 42
0.0000000001
 43
0.0000000001
 40
0.0
 40
0.0
 40
0.0
 40
0.0
 40
0.2
 40
0.2
 40
0.2
 40
0.2
 40
0.4
 40
0.4
 40
0.4
 40
0.4
 40
0.6
 40
0.6
 40
0.6
 40
0.6
 40
1.0
 40
1.0
 40
1.0
 40
1.0
 10
-33.9334
 20
-24.843
 30
0.0
 10
-33.9334
 20
-24.843
 30
0.0
 10
-34.1298
 20
-27.6768
 30
0.0
 10
-34.1298
 20
-27.6768
 30
0.0
 10
-34.1298
 20
-27.6768
 30
0.0
 10
-34.1298
 20
-27.6768
 30
0.0
 10
-34.2321
 20
-27.6865
 30
0.0
 10
-34.2321
 20
-27.6865
 30
0.0
 10
-34.2321
 20
-27.6865
 30
0.0
 10
-34.2321
 20
-27.6865
 30
0.0
 10
-34.9874
 20
-24.9428
 30
0.0
 10
-34.9874
 20
-24.9428
 30
0.0
 10
-34.9874
 20
-24.9428
 30
0.0
 10
-34.9874
 20
-24.9428
 30
0.0
 10
-33.9334
 20
-24.843
 30
0.0
 10
-33.9334
 20
-24.843
 30
0.0
  0
SPLINE
  5
ED
330
1F
100
AcDbEntity
  8
AXIS
 62
   250
100
AcDbSpline
210
0.0
220
0.0
230
1.0
 70
    11
 71
     3
 72
    20
 73
    16
 74
     0
 42
0.0000000001
 43
0.0000000001
 40
0.0
 40
0.0
 40
0.0
 40
0.0
 40
0.2
 40
0.2
 40
0.2
 40
0.2
 40
0.4
 40
0.4
 40
0.4
 40
0.4
 40
0.6
 40
0.6
 40
0.6
 40
0.6
 40
1.0
 40
1.0
 40
1.0
 40
1.0
 10
-33.7828
 20
-37.6947
 30
0.0
 10
-33.7828
 20
-37.6947
 30
0.0
 10
-33.5729
 20
-34.8619
 30
0.0
 10
-33.5729
 20
-34.8619
 30
0.0
 10
-33.5729
 20
-34.8619
 30
0.0
 10
-33.5729
 20
-34.8619
 30
0.0
 10
-33.4705
 20
-34.8527
 30
0.0
 10
-33.4705
 20
-34.8527
 30
0.0
 10
-33.4705
 20
-34.8527
 30
0.0
 10
-33.4705
 20
-34.8527
 30
0.0
 10
-32.7283
 20
-37.6
 30
0.0
 10
-32.7283
 20
-37.6
 30
0.0
 10
-32.7283
 20
-37.6
 30
0.0
 10
-32.7283
 20
-37.6
 30
0.0
 10
-33.7828
 20
-37.6947
 30
0.0
 10
-33.7828
 20
-37.6947
 30
0.0
  0
SPLINE
  5
EE
330
1F
100
AcDbEntity
  8
AXIS
 62
   250
100
AcDbSpline
210
0.0
220
0.0
230
1.0
 70
    11
 71
     3
 72
    20
 73
    16
 74
     0
 42
0.0000000001
 43
0.0000000001
 40
0.0
 40
0.0
 40
0.0
 40
0.0
 40
0.2
 40
0.2
 40
0.2
 40
0.2
 40
0.4
 40
0.4
 40
0.4
 40
0.4
 40
0.6
 40
0.6
 40
0.6
 40
0.6
 40
1.0
 40
1.0
 40
1.0
 40
1.0
 10
-21.2946
 20
-19.7076
 30
0.0
 10
-21.2946
 20
-19.7076
 30
0.0
 10
-21.7572
 20
-22.5103
 30
0.0
 10
-21.7572
 20
-22.5103
 30
0.0
 10
-21.7572
 20
-22.5103
 30
0.0
 10
-21.7572
 20
-22.5103
 30
0.0
 10
-21.86
 20
-22.5103
 30
0.0
 10
-21.86
 20
-22.5103
 30
0.0
 10
-21.86
 20
-22.5103
 30
0.0
 10
-21.86
 20
-22.5103
 30
0.0
 10
-22.3534
 20
-19.7076
 30
0.0
 10
-22.3534
 20
-19.7076
 30
0.0
 10
-22.3534
 20
-19.7076
 30
0.0
 10
-22.3534
 20
-19.7076
 30
0.0
 10
-21.2946
 20
-19.7076
 30
0.0
 10
-21.2946
 20
-19.7076
 30
0.0
  0
SPLINE
  5
EF
330
1F
100
AcDbEntity
  8
AXIS
 62
   250
100
AcDbSpline
210
0.0
220
0.0
230
1.0
 70
    11
 71
     3
 72
    20
 73
    16
 74
     0
 42
0.0000000001
 43
0.0000000001
 40
0.0
 40
0.0
 40
0.0
 40
0.0
 40
0.2
 40
0.2
 40
0.2
 40
0.2
 40
0.4
 40
0.4
 40
0.4
 40
0.4
 40
0.6
 40
0.6
 40
0.6
 40
0.6
 40
1.0
 40
1.0
 40
1.0
 40
1.0
 10
-22.2935
 20
23.9927
 30
0.0
 10
-22.2935
 20
23.9927
 30
0.0
 10
-21.8308
 20
26.7953
 30
0.0
 10
-21.8308
 20
26.7953
 30
0.0
 10
-21.8308
 20
26.7953
 30
0.0
 10
-21.8308
 20
26.7953
 30
0.0
 10
-21.7281
 20
26.7953
 30
0.0
 10
-21.7281
 20
26.7953
 30
0.0
 10
-21.7281
 20
26.7953
 30
0.0
 10
-21.7281
 20
26.7953
 30
0.0
 10
-21.2347
 20
23.9927
 30
0.0
 10
-21.2347
 20
23.9927
 30
0.0
 10
-21.2347
 20
23.9927
 30
0.0
 10
-21.2347
 20
23.9927
 30
0.0
 10
-22.2935
 20
23.9927
 30
0.0
 10
-22.2935
 20
23.9927
 30
0.0
  0
SPLINE
  5
F0
330
1F
100
AcDbEntity
  8
AXIS
 62
   250
100
AcDbSpline
210
0.0
220
0.0
230
1.0
 70
    11
 71
     3
 72
    20
 73
    16
 74
     0
 42
0.0000000001
 43
0.0000000001
 40
0.0
 40
0.0
 40
0.0
 40
0.0
 40
0.2
 40
0.2
 40
0.2
 40
0.2
 40
0.4
 40
0.4
 40
0.4
 40
0.4
 40
0.6
 40
0.6
 40
0.6
 40
0.6
 40
1.0
 40
1.0
 40
1.0
 40
1.0
 10
-21.3388
 20
-37.2857
 30
0.0
 10
-21.3388
 20
-37.2857
 30
0.0
 10
-21.8014
 20
-40.0884
 30
0.0
 10
-21.8014
 20
-40.0884
 30
0.0
 10
-21.8014
 20
-40.0884
 30
0.0
 10
-21.8014
 20
-40.0884
 30
0.0
 10
-21.9042
 20
-40.0884
 30
0.0
 10
-21.9042
 20
-40.0884
 30
0.0
 10
-21.9042
 20
-40.0884
 30
0.0
 10
-21.9042
 20
-40.0884
 30
0.0
 10
-22.3976
 20
-37.2857
 30
0.0
 10
-22.3976
 20
-37.2857
 30
0.0
 10
-22.3976
 20
-37.2857
 30
0.0
 10
-22.3976
 20
-37.2857
 30
0.0
 10
-21.3388
 20
-37.2857
 30
0.0
 10
-21.3388
 20
-37.2857
 30
0.0
  0
SPLINE
  5
F1
330
1F
100
AcDbEntity
  8
AXIS
 62
   250
100
AcDbSpline
210
0.0
220
0.0
230
1.0
 70
    11
 71
     3
 72
    20
 73
    16
 74
     0
 42
0.0000000001
 43
0.0000000001
 40
0.0
 40
0.0
 40
0.0
 40
0.0
 40
0.2
 40
0.2
 40
0.2
 40
0.2
 40
0.4
 40
0.4
 40
0.4
 40
0.4
 40
0.6
 40
0.6
 40
0.6
 40
0.6
 40
1.0
 40
1.0
 40
1.0
 40
1.0
 10
-22.3471
 20
-25.4876
 30
0.0
 10
-22.3471
 20
-25.4876
 30
0.0
 10
-21.8844
 20
-22.685
 30
0.0
 10
-21.8844
 20
-22.685
 30
0.0
 10
-21.8844
 20
-22.685
 30
0.0
 10
-21.8844
 20
-22.685
 30
0.0
 10
-21.7817
 20
-22.685
 30
0.0
 10
-21.7817
 20
-22.685
 30
0.0
 10
-21.7817
 20
-22.685
 30
0.0
 10
-21.7817
 20
-22.685
 30
0.0
 10
-21.2883
 20
-25.4876
 30
0.0
 10
-21.2883
 20
-25.4876
 30
0.0
 10
-21.2883
 20
-25.4876
 30
0.0
 10
-21.2883
 20
-25.4876
 30
0.0
 10
-22.3471
 20
-25.4876
 30
0.0
 10
-22.3471
 20
-25.4876
 30
0.0
  0
SPLINE
  5
F2
330
1F
100
AcDbEntity
  8
AXIS
 62
   250
100
AcDbSpline
210
0.0
220
0.0
230
1.0
 70
    11
 71
     3
 72
    20
 73
    16
 74
     0
 42
0.0000000001
 43
0.0000000001
 40
0.0
 40
0.0
 40
0.0
 40
0.0
 40
0.2
 40
0.2
 40
0.2
 40
0.2
 40
0.4
 40
0.4
 40
0.4
 40
0.4
 40
0.6
 40
0.6
 40
0.6
 40
0.6
 40
1.0
 40
1.0
 40
1.0
 40
1.0
 10
-11.2602
 20
-2.1886
 30
0.0
 10
-11.2602
 20
-2.1886
 30
0.0
 10
-8.4575
 20
-2.6512
 30
0.0
 10
-8.4575
 20
-2.6512
 30
0.0
 10
-8.4575
 20
-2.6512
 30
0.0
 10
-8.4575
 20
-2.6512
 30
0.0
 10
-8.4575
 20
-2.754
 30
0.0
 10
-8.4575
 20
-2.754
 30
0.0
 10
-8.4575
 20
-2.754
 30
0.0
 10
-8.4575
 20
-2.754
 30
0.0
 10
-11.2602
 20
-3.2474
 30
0.0
 10
-11.2602
 20
-3.2474
 30
0.0
 10
-11.2602
 20
-3.2474
 30
0.0
 10
-11.2602
 20
-3.2474
 30
0.0
 10
-11.2602
 20
-2.1886
 30
0.0
 10
-11.2602
 20
-2.1886
 30
0.0
  0
SPLINE
  5
F3
330
1F
100
AcDbEntity
  8
AXIS
 62
   250
100
AcDbSpline
210
0.0
220
0.0
230
1.0
 70
    11
 71
     3
 72
    20
 73
    16
 74
     0
 42
0.0000000001
 43
0.0000000001
 40
0.0
 40
0.0
 40
0.0
 40
0.0
 40
0.2
 40
0.2
 40
0.2
 40
0.2
 40
0.4
 40
0.4
 40
0.4
 40
0.4
 40
0.6
 40
0.6
 40
0.6
 40
0.6
 40
1.0
 40
1.0
 40
1.0
 40
1.0
 10
4.2607
 20
-3.1904
 30
0.0
 10
4.2607
 20
-3.1904
 30
0.0
 10
1.458
 20
-2.7278
 30
0.0
 10
1.458
 20
-2.7278
 30
0.0
 10
1.458
 20
-2.7278
 30
0.0
 10
1.458
 20
-2.7278
 30
0.0
 10
1.458
 20
-2.625
 30
0.0
 10
1.458
 20
-2.625
 30
0.0
 10
1.458
 20
-2.625
 30
0.0
 10
1.458
 20
-2.625
 30
0.0
 10
4.2607
 20
-2.1316
 30
0.0
 10
4.2607
 20
-2.1316
 30
0.0
 10
4.2607
 20
-2.1316
 30
0.0
 10
4.2607
 20
-2.1316
 30
0.0
 10
4.2607
 20
-3.1904
 30
0.0
 10
4.2607
 20
-3.1904
 30
0.0
  0
SPLINE
  5
F4
330
1F
100
AcDbEntity
  8
AXIS
 62
   250
100
AcDbSpline
210
0.0
220
0.0
230
1.0
 70
    11
 71
     3
 72
    20
 73
    16
 74
     0
 42
0.0000000001
 43
0.0000000001
 40
0.0
 40
0.0
 40
0.0
 40
0.0
 40
0.2
 40
0.2
 40
0.2
 40
0.2
 40
0.4
 40
0.4
 40
0.4
 40
0.4
 40
0.6
 40
0.6
 40
0.6
 40
0.6
 40
1.0
 40
1.0
 40
1.0
 40
1.0
 10
-9.5262
 20
-6.8814
 30
0.0
 10
-9.5262
 20
-6.8814
 30
0.0
 10
-6.7235
 20
-7.344
 30
0.0
 10
-6.7235
 20
-7.344
 30
0.0
 10
-6.7235
 20
-7.344
 30
0.0
 10
-6.7235
 20
-7.344
 30
0.0
 10
-6.7235
 20
-7.4468
 30
0.0
 10
-6.7235
 20
-7.4468
 30
0.0
 10
-6.7235
 20
-7.4468
 30
0.0
 10
-6.7235
 20
-7.4468
 30
0.0
 10
-9.5262
 20
-7.9402
 30
0.0
 10
-9.5262
 20
-7.9402
 30
0.0
 10
-9.5262
 20
-7.9402
 30
0.0
 10
-9.5262
 20
-7.9402
 30
0.0
 10
-9.5262
 20
-6.8814
 30
0.0
 10
-9.5262
 20
-6.8814
 30
0.0
  0
SPLINE
  5
F5
330
1F
100
AcDbEntity
  8
AXIS
 62
   250
100
AcDbSpline
210
0.0
220
0.0
230
1.0
 70
    11
 71
     3
 72
    20
 73
    16
 74
     0
 42
0.0000000001
 43
0.0000000001
 40
0.0
 40
0.0
 40
0.0
 40
0.0
 40
0.2
 40
0.2
 40
0.2
 40
0.2
 40
0.4
 40
0.4
 40
0.4
 40
0.4
 40
0.6
 40
0.6
 40
0.6
 40
0.6
 40
1.0
 40
1.0
 40
1.0
 40
1.0
 10
2.5471
 20
-7.9032
 30
0.0
 10
2.5471
 20
-7.9032
 30
0.0
 10
-0.2556
 20
-7.4406
 30
0.0
 10
-0.2556
 20
-7.4406
 30
0.0
 10
-0.2556
 20
-7.4406
 30
0.0
 10
-0.2556
 20
-7.4406
 30
0.0
 10
-0.2556
 20
-7.3378
 30
0.0
 10
-0.2556
 20
-7.3378
 30
0.0
 10
-0.2556
 20
-7.3378
 30
0.0
 10
-0.2556
 20
-7.3378
 30
0.0
 10
2.5471
 20
-6.8444
 30
0.0
 10
2.5471
 20
-6.8444
 30
0.0
 10
2.5471
 20
-6.8444
 30
0.0
 10
2.5471
 20
-6.8444
 30
0.0
 10
2.5471
 20
-7.9032
 30
0.0
 10
2.5471
 20
-7.9032
 30
0.0
  0
SPLINE
  5
F6
330
1F
100
AcDbEntity
  8
AXIS
 62
   250
100
AcDbSpline
210
0.0
220
0.0
230
1.0
 70
    11
 71
     3
 72
    20
 73
    16
 74
     0
 42
0.0000000001
 43
0.0000000001
 40
0.0
 40
0.0
 40
0.0
 40
0.0
 40
0.2
 40
0.2
 40
0.2
 40
0.2
 40
0.4
 40
0.4
 40
0.4
 40
0.4
 40
0.6
 40
0.6
 40
0.6
 40
0.6
 40
1.0
 40
1.0
 40
1.0
 40
1.0
 10
26.9431
 20
37.2845
 30
0.0
 10
26.9431
 20
37.2845
 30
0.0
 10
29.7458
 20
36.8219
 30
0.0
 10
29.7458
 20
36.8219
 30
0.0
 10
29.7458
 20
36.8219
 30
0.0
 10
29.7458
 20
36.8219
 30
0.0
 10
29.7458
 20
36.7191
 30
0.0
 10
29.7458
 20
36.7191
 30
0.0
 10
29.7458
 20
36.7191
 30
0.0
 10
29.7458
 20
36.7191
 30
0.0
 10
26.9431
 20
36.2257
 30
0.0
 10
26.9431
 20
36.2257
 30
0.0
 10
26.9431
 20
36.2257
 30
0.0
 10
26.9431
 20
36.2257
 30
0.0
 10
26.9431
 20
37.2845
 30
0.0
 10
26.9431
 20
37.2845
 30
0.0
  0
SPLINE
  5
F7
330
1F
100
AcDbEntity
  8
AXIS
 62
   250
100
AcDbSpline
210
0.0
220
0.0
230
1.0
 70
    11
 71
     3
 72
    20
 73
    16
 74
     0
 42
0.0000000001
 43
0.0000000001
 40
0.0
 40
0.0
 40
0.0
 40
0.0
 40
0.2
 40
0.2
 40
0.2
 40
0.2
 40
0.4
 40
0.4
 40
0.4
 40
0.4
 40
0.6
 40
0.6
 40
0.6
 40
0.6
 40
1.0
 40
1.0
 40
1.0
 40
1.0
 10
-0.6642
 20
36.2944
 30
0.0
 10
-0.6642
 20
36.2944
 30
0.0
 10
-3.4669
 20
36.757
 30
0.0
 10
-3.4669
 20
36.757
 30
0.0
 10
-3.4669
 20
36.757
 30
0.0
 10
-3.4669
 20
36.757
 30
0.0
 10
-3.4669
 20
36.8598
 30
0.0
 10
-3.4669
 20
36.8598
 30
0.0
 10
-3.4669
 20
36.8598
 30
0.0
 10
-3.4669
 20
36.8598
 30
0.0
 10
-0.6642
 20
37.3532
 30
0.0
 10
-0.6642
 20
37.3532
 30
0.0
 10
-0.6642
 20
37.3532
 30
0.0
 10
-0.6642
 20
37.3532
 30
0.0
 10
-0.6642
 20
36.2944
 30
0.0
 10
-0.6642
 20
36.2944
 30
0.0
  0
SPLINE
  5
F8
330
1F
100
AcDbEntity
  8
AXIS
 62
   250
100
AcDbSpline
210
0.0
220
0.0
230
1.0
 70
    11
 71
     3
 72
    20
 73
    16
 74
     0
 42
0.0000000001
 43
0.0000000001
 40
0.0
 40
0.0
 40
0.0
 40
0.0
 40
0.2
 40
0.2
 40
0.2
 40
0.2
 40
0.4
 40
0.4
 40
0.4
 40
0.4
 40
0.6
 40
0.6
 40
0.6
 40
0.6
 40
1.0
 40
1.0
 40
1.0
 40
1.0
 10
17.8801
 20
30.9527
 30
0.0
 10
17.8801
 20
30.9527
 30
0.0
 10
18.61
 20
33.6979
 30
0.0
 10
18.61
 20
33.6979
 30
0.0
 10
18.61
 20
33.6979
 30
0.0
 10
18.61
 20
33.6979
 30
0.0
 10
18.7123
 20
33.688
 30
0.0
 10
18.7123
 20
33.688
 30
0.0
 10
18.7123
 20
33.688
 30
0.0
 10
18.7123
 20
33.688
 30
0.0
 10
18.9339
 20
30.8509
 30
0.0
 10
18.9339
 20
30.8509
 30
0.0
 10
18.9339
 20
30.8509
 30
0.0
 10
18.9339
 20
30.8509
 30
0.0
 10
17.8801
 20
30.9527
 30
0.0
 10
17.8801
 20
30.9527
 30
0.0
  0
SPLINE
  5
F9
330
1F
100
AcDbEntity
  8
AXIS
 62
   250
100
AcDbSpline
210
0.0
220
0.0
230
1.0
 70
    11
 71
     3
 72
    20
 73
    16
 74
     0
 42
0.0000000001
 43
0.0000000001
 40
0.0
 40
0.0
 40
0.0
 40
0.0
 40
0.2
 40
0.2
 40
0.2
 40
0.2
 40
0.4
 40
0.4
 40
0.4
 40
0.4
 40
0.6
 40
0.6
 40
0.6
 40
0.6
 40
1.0
 40
1.0
 40
1.0
 40
1.0
 10
18.2966
 20
25.8863
 30
0.0
 10
18.2966
 20
25.8863
 30
0.0
 10
17.5245
 20
23.1527
 30
0.0
 10
17.5245
 20
23.1527
 30
0.0
 10
17.5245
 20
23.1527
 30
0.0
 10
17.5245
 20
23.1527
 30
0.0
 10
17.4224
 20
23.1641
 30
0.0
 10
17.4224
 20
23.1641
 30
0.0
 10
17.4224
 20
23.1641
 30
0.0
 10
17.4224
 20
23.1641
 30
0.0
 10
17.2445
 20
26.0043
 30
0.0
 10
17.2445
 20
26.0043
 30
0.0
 10
17.2445
 20
26.0043
 30
0.0
 10
17.2445
 20
26.0043
 30
0.0
 10
18.2966
 20
25.8863
 30
0.0
 10
18.2966
 20
25.8863
 30
0.0
  0
SPLINE
  5
FA
330
1F
100
AcDbEntity
  8
AXIS
 62
   250
100
AcDbSpline
210
0.0
220
0.0
230
1.0
 70
    24
 71
     3
 72
     8
 73
     4
 74
     0
 42
0.0000000001
 43
0.0000000001
 40
0.0
 40
0.0
 40
0.0
 40
0.0
 40
1.0
 40
1.0
 40
1.0
 40
1.0
 10
-6.8593
 20
-20.2979
 30
0.0
 10
-6.8593
 20
-20.2979
 30
0.0
 10
0.1859
 20
-20.3248
 30
0.0
 10
0.1859
 20
-20.3248
 30
0.0
  0
SPLINE
  5
FB
330
1F
100
AcDbEntity
  8
AXIS
 62
   250
100
AcDbSpline
210
0.0
220
0.0
230
1.0
 70
    24
 71
     3
 72
     8
 73
     4
 74
     0
 42
0.0000000001
 43
0.0000000001
 40
0.0
 40
0.0
 40
0.0
 40
0.0
 40
1.0
 40
1.0
 40
1.0
 40
1.0
 10
-8.3903
 20
-8.884
 30
0.0
 10
-8.3903
 20
-8.884
 30
0.0
 10
-8.3903
 20
-18.9757
 30
0.0
 10
-8.3903
 20
-18.9757
 30
0.0
  0
SPLINE
  5
FC
330
1F
100
AcDbEntity
  8
AXIS
 62
   250
100
AcDbSpline
210
0.0
220
0.0
230
1.0
 70
    24
 71
     3
 72
     8
 73
     4
 74
     0
 42
0.0000000001
 43
0.0000000001
 40
0.0
 40
0.0
 40
0.0
 40
0.0
 40
1.0
 40
1.0
 40
1.0
 40
1.0
 10
1.3984
 20
-8.7222
 30
0.0
 10
1.3984
 20
-8.7222
 30
0.0
 10
1.3984
 20
-19.0027
 30
0.0
 10
1.3984
 20
-19.0027
 30
0.0
  0
SPLINE
  5
FD
330
1F
100
AcDbEntity
  8
AXIS
 62
   250
100
AcDbSpline
210
0.0
220
0.0
230
1.0
 70
    11
 71
     3
 72
    28
 73
    24
 74
     0
 42
0.0000000001
 43
0.0000000001
 40
0.0
 40
0.0
 40
0.0
 40
0.0
 40
0.1428571428571428
 40
0.1428571428571428
 40
0.1428571428571428
 40
0.1428571428571428
 40
0.2857142857142857
 40
0.2857142857142857
 40
0.2857142857142857
 40
0.2857142857142857
 40
0.4285714285714285
 40
0.4285714285714285
 40
0.4285714285714285
 40
0.4285714285714285
 40
0.5714285714285714
 40
0.5714285714285714
 40
0.5714285714285714
 40
0.5714285714285714
 40
0.7142857142857143
 40
0.7142857142857143
 40
0.7142857142857143
 40
0.7142857142857143
 40
1.0
 40
1.0
 40
1.0
 40
1.0
 10
13.0304
 20
37.2502
 30
0.0
 10
13.0304
 20
37.2502
 30
0.0
 10
13.0304
 20
40.2558
 30
0.0
 10
13.0304
 20
40.2558
 30
0.0
 10
13.0304
 20
40.2558
 30
0.0
 10
13.0304
 20
40.2558
 30
0.0
 10
13.6421
 20
40.2558
 30
0.0
 10
13.6421
 20
40.2558
 30
0.0
 10
13.6421
 20
40.2558
 30
0.0
 10
13.6421
 20
40.2558
 30
0.0
 10
13.6421
 20
37.761
 30
0.0
 10
13.6421
 20
37.761
 30
0.0
 10
13.6421
 20
37.761
 30
0.0
 10
13.6421
 20
37.761
 30
0.0
 10
15.1632
 20
37.761
 30
0.0
 10
15.1632
 20
37.761
 30
0.0
 10
15.1632
 20
37.761
 30
0.0
 10
15.1632
 20
37.761
 30
0.0
 10
15.1632
 20
37.2502
 30
0.0
 10
15.1632
 20
37.2502
 30
0.0
 10
15.1632
 20
37.2502
 30
0.0
 10
15.1632
 20
37.2502
 30
0.0
 10
13.0304
 20
37.2502
 30
0.0
 10
13.0304
 20
37.2502
 30
0.0
  0
SPLINE
  5
FE
330
1F
100
AcDbEntity
  8
AXIS
 62
   250
100
AcDbSpline
210
0.0
220
0.0
230
1.0
 70
    11
 71
     3
 72
    52
 73
    48
 74
     0
 42
0.0000000001
 43
0.0000000001
 40
0.0
 40
0.0
 40
0.0
 40
0.0
 40
0.0769230769230769
 40
0.0769230769230769
 40
0.0769230769230769
 40
0.0769230769230769
 40
0.1538461538461539
 40
0.1538461538461539
 40
0.1538461538461539
 40
0.1538461538461539
 40
0.2307692307692308
 40
0.2307692307692308
 40
0.2307692307692308
 40
0.2307692307692308
 40
0.3076923076923077
 40
0.3076923076923077
 40
0.3076923076923077
 40
0.3076923076923077
 40
0.3846153846153846
 40
0.3846153846153846
 40
0.3846153846153846
 40
0.3846153846153846
 40
0.4615384615384616
 40
0.4615384615384616
 40
0.4615384615384616
 40
0.4615384615384616
 40
0.5384615384615384
 40
0.5384615384615384
 40
0.5384615384615384
 40
0.5384615384615384
 40
0.6153846153846154
 40
0.6153846153846154
 40
0.6153846153846154
 40
0.6153846153846154
 40
0.6923076923076923
 40
0.6923076923076923
 40
0.6923076923076923
 40
0.6923076923076923
 40
0.7692307692307693
 40
0.7692307692307693
 40
0.7692307692307693
 40
0.7692307692307693
 40
0.8461538461538461
 40
0.8461538461538461
 40
0.8461538461538461
 40
0.8461538461538461
 40
1.0
 40
1.0
 40
1.0
 40
1.0
 10
-22.3216
 20
-3.4115
 30
0.0
 10
-22.3216
 20
-3.4115
 30
0.0
 10
-25.3518
 20
-3.4212
 30
0.0
 10
-25.3518
 20
-3.4212
 30
0.0
 10
-25.3518
 20
-3.4212
 30
0.0
 10
-25.3518
 20
-3.4212
 30
0.0
 10
-25.3538
 20
-2.8087
 30
0.0
 10
-25.3538
 20
-2.8087
 30
0.0
 10
-25.3538
 20
-2.8087
 30
0.0
 10
-25.3538
 20
-2.8087
 30
0.0
 10
-24.1615
 20
-2.8049
 30
0.0
 10
-24.1615
 20
-2.8049
 30
0.0
 10
-24.1615
 20
-2.8049
 30
0.0
 10
-24.1615
 20
-2.8049
 30
0.0
 10
-24.1654
 20
-1.6062
 30
0.0
 10
-24.1654
 20
-1.6062
 30
0.0
 10
-24.1654
 20
-1.6062
 30
0.0
 10
-24.1654
 20
-1.6062
 30
0.0
 10
-25.3576
 20
-1.61
 30
0.0
 10
-25.3576
 20
-1.61
 30
0.0
 10
-25.3576
 20
-1.61
 30
0.0
 10
-25.3576
 20
-1.61
 30
0.0
 10
-25.3596
 20
-0.9983
 30
0.0
 10
-25.3596
 20
-0.9983
 30
0.0
 10
-25.3596
 20
-0.9983
 30
0.0
 10
-25.3596
 20
-0.9983
 30
0.0
 10
-22.3293
 20
-0.9886
 30
0.0
 10
-22.3293
 20
-0.9886
 30
0.0
 10
-22.3293
 20
-0.9886
 30
0.0
 10
-22.3293
 20
-0.9886
 30
0.0
 10
-22.3274
 20
-1.6003
 30
0.0
 10
-22.3274
 20
-1.6003
 30
0.0
 10
-22.3274
 20
-1.6003
 30
0.0
 10
-22.3274
 20
-1.6003
 30
0.0
 10
-23.6524
 20
-1.6045
 30
0.0
 10
-23.6524
 20
-1.6045
 30
0.0
 10
-23.6524
 20
-1.6045
 30
0.0
 10
-23.6524
 20
-1.6045
 30
0.0
 10
-23.6485
 20
-2.8032
 30
0.0
 10
-23.6485
 20
-2.8032
 30
0.0
 10
-23.6485
 20
-2.8032
 30
0.0
 10
-23.6485
 20
-2.8032
 30
0.0
 10
-22.3235
 20
-2.799
 30
0.0
 10
-22.3235
 20
-2.799
 30
0.0
 10
-22.3235
 20
-2.799
 30
0.0
 10
-22.3235
 20
-2.799
 30
0.0
 10
-22.3216
 20
-3.4115
 30
0.0
 10
-22.3216
 20
-3.4115
 30
0.0
  0
SPLINE
  5
FF
330
1F
100
AcDbEntity
  8
AXIS
 62
   250
100
AcDbSpline
210
0.0
220
0.0
230
1.0
 70
    11
 71
     3
 72
    92
 73
    88
 74
     0
 42
0.0000000001
 43
0.0000000001
 40
0.0
 40
0.0
 40
0.0
 40
0.0
 40
0.0434782608695652
 40
0.0434782608695652
 40
0.0434782608695652
 40
0.0434782608695652
 40
0.0869565217391304
 40
0.0869565217391304
 40
0.0869565217391304
 40
0.0869565217391304
 40
0.1304347826086956
 40
0.1304347826086956
 40
0.1304347826086956
 40
0.1304347826086956
 40
0.1739130434782609
 40
0.1739130434782609
 40
0.1739130434782609
 40
0.1739130434782609
 40
0.2173913043478261
 40
0.2173913043478261
 40
0.2173913043478261
 40
0.2173913043478261
 40
0.2608695652173913
 40
0.2608695652173913
 40
0.2608695652173913
 40
0.2608695652173913
 40
0.3043478260869565
 40
0.3043478260869565
 40
0.3043478260869565
 40
0.3043478260869565
 40
0.3478260869565217
 40
0.3478260869565217
 40
0.3478260869565217
 40
0.3478260869565217
 40
0.391304347826087
 40
0.391304347826087
 40
0.391304347826087
 40
0.391304347826087
 40
0.4347826086956522
 40
0.4347826086956522
 40
0.4347826086956522
 40
0.4347826086956522
 40
0.4782608695652174
 40
0.4782608695652174
 40
0.4782608695652174
 40
0.4782608695652174
 40
0.5217391304347826
 40
0.5217391304347826
 40
0.5217391304347826
 40
0.5217391304347826
 40
0.5652173913043478
 40
0.5652173913043478
 40
0.5652173913043478
 40
0.5652173913043478
 40
0.6086956521739131
 40
0.6086956521739131
 40
0.6086956521739131
 40
0.6086956521739131
 40
0.6521739130434783
 40
0.6521739130434783
 40
0.6521739130434783
 40
0.6521739130434783
 40
0.6956521739130435
 40
0.6956521739130435
 40
0.6956521739130435
 40
0.6956521739130435
 40
0.7391304347826086
 40
0.7391304347826086
 40
0.7391304347826086
 40
0.7391304347826086
 40
0.782608695652174
 40
0.782608695652174
 40
0.782608695652174
 40
0.782608695652174
 40
0.8260869565217391
 40
0.8260869565217391
 40
0.8260869565217391
 40
0.8260869565217391
 40
0.8695652173913043
 40
0.8695652173913043
 40
0.8695652173913043
 40
0.8695652173913043
 40
0.9130434782608695
 40
0.9130434782608695
 40
0.9130434782608695
 40
0.9130434782608695
 40
1.0
 40
1.0
 40
1.0
 40
1.0
 10
35.6109
 20
34.3866
 30
0.0
 10
35.6109
 20
34.3866
 30
0.0
 10
35.5901
 20
34.1491
 30
0.0
 10
35.5901
 20
34.1491
 30
0.0
 10
35.5901
 20
34.1491
 30
0.0
 10
35.5901
 20
34.1491
 30
0.0
 10
34.2598
 20
34.2654
 30
0.0
 10
34.2598
 20
34.2654
 30
0.0
 10
34.2598
 20
34.2654
 30
0.0
 10
34.2631
 20
34.3251
 30
0.0
 10
34.2774
 20
34.3814
 30
0.0
 10
34.3034
 20
34.4345
 30
0.0
 10
34.3034
 20
34.4345
 30
0.0
 10
34.3451
 20
34.5224
 30
0.0
 10
34.4072
 20
34.6067
 30
0.0
 10
34.4894
 20
34.6882
 30
0.0
 10
34.4894
 20
34.6882
 30
0.0
 10
34.5721
 20
34.7693
 30
0.0
 10
34.6887
 20
34.8615
 30
0.0
 10
34.8394
 20
34.9645
 30
0.0
 10
34.8394
 20
34.9645
 30
0.0
 10
35.0739
 20
35.1249
 30
0.0
 10
35.2344
 20
35.2539
 30
0.0
 10
35.3204
 20
35.3521
 30
0.0
 10
35.3204
 20
35.3521
 30
0.0
 10
35.4064
 20
35.4499
 30
0.0
 10
35.4535
 20
35.5459
 30
0.0
 10
35.4617
 20
35.6391
 30
0.0
 10
35.4617
 20
35.6391
 30
0.0
 10
35.4702
 20
35.737
 30
0.0
 10
35.4423
 20
35.8226
 30
0.0
 10
35.3784
 20
35.8961
 30
0.0
 10
35.3784
 20
35.8961
 30
0.0
 10
35.314
 20
35.9693
 30
0.0
 10
35.2256
 20
36.011
 30
0.0
 10
35.1131
 20
36.0209
 30
0.0
 10
35.1131
 20
36.0209
 30
0.0
 10
34.9941
 20
36.0313
 30
0.0
 10
34.8958
 20
36.004
 30
0.0
 10
34.8183
 20
35.9385
 30
0.0
 10
34.8183
 20
35.9385
 30
0.0
 10
34.7405
 20
35.8736
 30
0.0
 10
34.6957
 20
35.7779
 30
0.0
 10
34.6837
 20
35.652
 30
0.0
 10
34.6837
 20
35.652
 30
0.0
 10
34.6837
 20
35.652
 30
0.0
 10
34.432
 20
35.6999
 30
0.0
 10
34.432
 20
35.6999
 30
0.0
 10
34.432
 20
35.6999
 30
0.0
 10
34.466
 20
35.8881
 30
0.0
 10
34.5442
 20
36.0268
 30
0.0
 10
34.6663
 20
36.1162
 30
0.0
 10
34.6663
 20
36.1162
 30
0.0
 10
34.7884
 20
36.2056
 30
0.0
 10
34.9454
 20
36.2419
 30
0.0
 10
35.1366
 20
36.2252
 30
0.0
 10
35.1366
 20
36.2252
 30
0.0
 10
35.3297
 20
36.2083
 30
0.0
 10
35.4778
 20
36.141
 30
0.0
 10
35.5809
 20
36.0244
 30
0.0
 10
35.5809
 20
36.0244
 30
0.0
 10
35.6844
 20
35.9071
 30
0.0
 10
35.7291
 20
35.7696
 30
0.0
 10
35.7152
 20
35.6112
 30
0.0
 10
35.7152
 20
35.6112
 30
0.0
 10
35.7081
 20
35.5306
 30
0.0
 10
35.6848
 20
35.4529
 30
0.0
 10
35.6447
 20
35.3781
 30
0.0
 10
35.6447
 20
35.3781
 30
0.0
 10
35.6051
 20
35.3031
 30
0.0
 10
35.5431
 20
35.226
 30
0.0
 10
35.4592
 20
35.1469
 30
0.0
 10
35.4592
 20
35.1469
 30
0.0
 10
35.3753
 20
35.0673
 30
0.0
 10
35.238
 20
34.9603
 30
0.0
 10
35.0473
 20
34.8259
 30
0.0
 10
35.0473
 20
34.8259
 30
0.0
 10
34.8883
 20
34.7143
 30
0.0
 10
34.7858
 20
34.6382
 30
0.0
 10
34.7397
 20
34.5974
 30
0.0
 10
34.7397
 20
34.5974
 30
0.0
 10
34.6937
 20
34.557
 30
0.0
 10
34.6552
 20
34.5155
 30
0.0
 10
34.6235
 20
34.473
 30
0.0
 10
34.6235
 20
34.473
 30
0.0
 10
34.6235
 20
34.473
 30
0.0
 10
35.6109
 20
34.3866
 30
0.0
 10
35.6109
 20
34.3866
 30
0.0
  0
SPLINE
  5
100
330
1F
100
AcDbEntity
  8
AXIS
 62
   250
100
AcDbSpline
210
0.0
220
0.0
230
1.0
 70
    11
 71
     3
 72
   124
 73
   120
 74
     0
 42
0.0000000001
 43
0.0000000001
 40
0.0
 40
0.0
 40
0.0
 40
0.0
 40
0.032258064516129
 40
0.032258064516129
 40
0.032258064516129
 40
0.032258064516129
 40
0.0645161290322581
 40
0.0645161290322581
 40
0.0645161290322581
 40
0.0645161290322581
 40
0.0967741935483871
 40
0.0967741935483871
 40
0.0967741935483871
 40
0.0967741935483871
 40
0.1290322580645161
 40
0.1290322580645161
 40
0.1290322580645161
 40
0.1290322580645161
 40
0.1612903225806452
 40
0.1612903225806452
 40
0.1612903225806452
 40
0.1612903225806452
 40
0.1935483870967742
 40
0.1935483870967742
 40
0.1935483870967742
 40
0.1935483870967742
 40
0.2258064516129032
 40
0.2258064516129032
 40
0.2258064516129032
 40
0.2258064516129032
 40
0.2580645161290323
 40
0.2580645161290323
 40
0.2580645161290323
 40
0.2580645161290323
 40
0.2903225806451613
 40
0.2903225806451613
 40
0.2903225806451613
 40
0.2903225806451613
 40
0.3225806451612903
 40
0.3225806451612903
 40
0.3225806451612903
 40
0.3225806451612903
 40
0.3548387096774194
 40
0.3548387096774194
 40
0.3548387096774194
 40
0.3548387096774194
 40
0.3870967741935484
 40
0.3870967741935484
 40
0.3870967741935484
 40
0.3870967741935484
 40
0.4193548387096774
 40
0.4193548387096774
 40
0.4193548387096774
 40
0.4193548387096774
 40
0.4516129032258064
 40
0.4516129032258064
 40
0.4516129032258064
 40
0.4516129032258064
 40
0.4838709677419355
 40
0.4838709677419355
 40
0.4838709677419355
 40
0.4838709677419355
 40
0.5161290322580645
 40
0.5161290322580645
 40
0.5161290322580645
 40
0.5161290322580645
 40
0.5483870967741935
 40
0.5483870967741935
 40
0.5483870967741935
 40
0.5483870967741935
 40
0.5806451612903226
 40
0.5806451612903226
 40
0.5806451612903226
 40
0.5806451612903226
 40
0.6129032258064516
 40
0.6129032258064516
 40
0.6129032258064516
 40
0.6129032258064516
 40
0.6451612903225806
 40
0.6451612903225806
 40
0.6451612903225806
 40
0.6451612903225806
 40
0.6774193548387096
 40
0.6774193548387096
 40
0.6774193548387096
 40
0.6774193548387096
 40
0.7096774193548387
 40
0.7096774193548387
 40
0.7096774193548387
 40
0.7096774193548387
 40
0.7419354838709677
 40
0.7419354838709677
 40
0.7419354838709677
 40
0.7419354838709677
 40
0.7741935483870968
 40
0.7741935483870968
 40
0.7741935483870968
 40
0.7741935483870968
 40
0.8064516129032258
 40
0.8064516129032258
 40
0.8064516129032258
 40
0.8064516129032258
 40
0.8387096774193549
 40
0.8387096774193549
 40
0.8387096774193549
 40
0.8387096774193549
 40
0.8709677419354839
 40
0.8709677419354839
 40
0.8709677419354839
 40
0.8709677419354839
 40
0.9032258064516129
 40
0.9032258064516129
 40
0.9032258064516129
 40
0.9032258064516129
 40
0.9354838709677419
 40
0.9354838709677419
 40
0.9354838709677419
 40
0.9354838709677419
 40
1.0
 40
1.0
 40
1.0
 40
1.0
 10
35.9027
 20
34.6571
 30
0.0
 10
35.9027
 20
34.6571
 30
0.0
 10
36.1525
 20
34.6683
 30
0.0
 10
36.1525
 20
34.6683
 30
0.0
 10
36.1525
 20
34.6683
 30
0.0
 10
36.1688
 20
34.5257
 30
0.0
 10
36.2083
 20
34.4208
 30
0.0
 10
36.2708
 20
34.353
 30
0.0
 10
36.2708
 20
34.353
 30
0.0
 10
36.3338
 20
34.2852
 30
0.0
 10
36.414
 20
34.2469
 30
0.0
 10
36.512
 20
34.2383
 30
0.0
 10
36.512
 20
34.2383
 30
0.0
 10
36.6281
 20
34.2282
 30
0.0
 10
36.7301
 20
34.2599
 30
0.0
 10
36.8173
 20
34.3335
 30
0.0
 10
36.8173
 20
34.3335
 30
0.0
 10
36.904
 20
34.4071
 30
0.0
 10
36.9531
 20
34.5034
 30
0.0
 10
36.9635
 20
34.6225
 30
0.0
 10
36.9635
 20
34.6225
 30
0.0
 10
36.9734
 20
34.7358
 30
0.0
 10
36.9445
 20
34.8328
 30
0.0
 10
36.8769
 20
34.9128
 30
0.0
 10
36.8769
 20
34.9128
 30
0.0
 10
36.8089
 20
34.9928
 30
0.0
 10
36.718
 20
35.0381
 30
0.0
 10
36.6036
 20
35.0481
 30
0.0
 10
36.6036
 20
35.0481
 30
0.0
 10
36.5568
 20
35.0522
 30
0.0
 10
36.4978
 20
35.048
 30
0.0
 10
36.4269
 20
35.0358
 30
0.0
 10
36.4269
 20
35.0358
 30
0.0
 10
36.4269
 20
35.0358
 30
0.0
 10
36.4735
 20
35.2503
 30
0.0
 10
36.4735
 20
35.2503
 30
0.0
 10
36.4735
 20
35.2503
 30
0.0
 10
36.4897
 20
35.247
 30
0.0
 10
36.5028
 20
35.2449
 30
0.0
 10
36.513
 20
35.244
 30
0.0
 10
36.513
 20
35.244
 30
0.0
 10
36.618
 20
35.2348
 30
0.0
 10
36.7151
 20
35.2542
 30
0.0
 10
36.8043
 20
35.3016
 30
0.0
 10
36.8043
 20
35.3016
 30
0.0
 10
36.8934
 20
35.349
 30
0.0
 10
36.943
 20
35.4302
 30
0.0
 10
36.953
 20
35.5445
 30
0.0
 10
36.953
 20
35.5445
 30
0.0
 10
36.9609
 20
35.6349
 30
0.0
 10
36.9365
 20
35.7131
 30
0.0
 10
36.8803
 20
35.7775
 30
0.0
 10
36.8803
 20
35.7775
 30
0.0
 10
36.8242
 20
35.8423
 30
0.0
 10
36.7476
 20
35.8794
 30
0.0
 10
36.6506
 20
35.8878
 30
0.0
 10
36.6506
 20
35.8878
 30
0.0
 10
36.5545
 20
35.8962
 30
0.0
 10
36.4718
 20
35.8728
 30
0.0
 10
36.4028
 20
35.8184
 30
0.0
 10
36.4028
 20
35.8184
 30
0.0
 10
36.3333
 20
35.7635
 30
0.0
 10
36.2841
 20
35.6762
 30
0.0
 10
36.2552
 20
35.5569
 30
0.0
 10
36.2552
 20
35.5569
 30
0.0
 10
36.2552
 20
35.5569
 30
0.0
 10
36.0122
 20
35.6226
 30
0.0
 10
36.0122
 20
35.6226
 30
0.0
 10
36.0122
 20
35.6226
 30
0.0
 10
36.0567
 20
35.7858
 30
0.0
 10
36.1368
 20
35.9082
 30
0.0
 10
36.2516
 20
35.9897
 30
0.0
 10
36.2516
 20
35.9897
 30
0.0
 10
36.3669
 20
36.0713
 30
0.0
 10
36.504
 20
36.1056
 30
0.0
 10
36.6633
 20
36.0916
 30
0.0
 10
36.6633
 20
36.0916
 30
0.0
 10
36.7729
 20
36.082
 30
0.0
 10
36.872
 20
36.0493
 30
0.0
 10
36.9602
 20
35.9944
 30
0.0
 10
36.9602
 20
35.9944
 30
0.0
 10
37.0484
 20
35.939
 30
0.0
 10
37.1135
 20
35.8685
 30
0.0
 10
37.1556
 20
35.7827
 30
0.0
 10
37.1556
 20
35.7827
 30
0.0
 10
37.1972
 20
35.6969
 30
0.0
 10
37.2145
 20
35.6085
 30
0.0
 10
37.2064
 20
35.5167
 30
0.0
 10
37.2064
 20
35.5167
 30
0.0
 10
37.1988
 20
35.43
 30
0.0
 10
37.1685
 20
35.3529
 30
0.0
 10
37.1154
 20
35.2852
 30
0.0
 10
37.1154
 20
35.2852
 30
0.0
 10
37.0623
 20
35.2181
 30
0.0
 10
36.9885
 20
35.1675
 30
0.0
 10
36.8934
 20
35.1333
 30
0.0
 10
36.8934
 20
35.1333
 30
0.0
 10
37.01
 20
35.0957
 30
0.0
 10
37.0973
 20
35.0304
 30
0.0
 10
37.1558
 20
34.938
 30
0.0
 10
37.1558
 20
34.938
 30
0.0
 10
37.2139
 20
34.846
 30
0.0
 10
37.2372
 20
34.7349
 30
0.0
 10
37.2259
 20
34.6051
 30
0.0
 10
37.2259
 20
34.6051
 30
0.0
 10
37.2105
 20
34.4294
 30
0.0
 10
37.1337
 20
34.2859
 30
0.0
 10
36.9947
 20
34.1749
 30
0.0
 10
36.9947
 20
34.1749
 30
0.0
 10
36.856
 20
34.0638
 30
0.0
 10
36.6886
 20
34.0171
 30
0.0
 10
36.4927
 20
34.0343
 30
0.0
 10
36.4927
 20
34.0343
 30
0.0
 10
36.3161
 20
34.0497
 30
0.0
 10
36.1739
 20
34.1149
 30
0.0
 10
36.0665
 20
34.2306
 30
0.0
 10
36.0665
 20
34.2306
 30
0.0
 10
35.959
 20
34.3457
 30
0.0
 10
35.9044
 20
34.488
 30
0.0
 10
35.9027
 20
34.6571
 30
0.0
  0
SPLINE
  5
101
330
1F
100
AcDbEntity
  8
AXIS
 62
   250
100
AcDbSpline
210
0.0
220
0.0
230
1.0
 70
    24
 71
     3
 72
     8
 73
     4
 74
     0
 42
0.0000000001
 43
0.0000000001
 40
0.0
 40
0.0
 40
0.0
 40
0.0
 40
1.0
 40
1.0
 40
1.0
 40
1.0
 10
29.989
 20
34.5903
 30
0.0
 10
29.989
 20
34.5903
 30
0.0
 10
29.7475
 20
31.8303
 30
0.0
 10
29.7475
 20
31.8303
 30
0.0
  0
SPLINE
  5
102
330
1F
100
AcDbEntity
  8
AXIS
 62
   250
100
AcDbSpline
210
0.0
220
0.0
230
1.0
 70
    24
 71
     3
 72
     8
 73
     4
 74
     0
 42
0.0000000001
 43
0.0000000001
 40
0.0
 40
0.0
 40
0.0
 40
0.0
 40
1.0
 40
1.0
 40
1.0
 40
1.0
 10
26.5573
 20
35.04
 30
0.0
 10
26.5573
 20
35.04
 30
0.0
 10
25.8894
 20
27.4051
 30
0.0
 10
25.8894
 20
27.4051
 30
0.0
  0
SPLINE
  5
103
330
1F
100
AcDbEntity
  8
AXIS
 62
   250
100
AcDbSpline
210
0.0
220
0.0
230
1.0
 70
    24
 71
     3
 72
     8
 73
     4
 74
     0
 42
0.0000000001
 43
0.0000000001
 40
0.0
 40
0.0
 40
0.0
 40
0.0
 40
1.0
 40
1.0
 40
1.0
 40
1.0
 10
22.3308
 20
34.9281
 30
0.0
 10
22.3308
 20
34.9281
 30
0.0
 10
38.79
 20
33.4881
 30
0.0
 10
38.79
 20
33.4881
 30
0.0
  0
SPLINE
  5
104
330
1F
100
AcDbEntity
  8
AXIS
 62
   250
100
AcDbSpline
210
0.0
220
0.0
230
1.0
 70
    11
 71
     3
 72
    20
 73
    16
 74
     0
 42
0.0000000001
 43
0.0000000001
 40
0.0
 40
0.0
 40
0.0
 40
0.0
 40
0.2
 40
0.2
 40
0.2
 40
0.2
 40
0.4
 40
0.4
 40
0.4
 40
0.4
 40
0.6
 40
0.6
 40
0.6
 40
0.6
 40
1.0
 40
1.0
 40
1.0
 40
1.0
 10
23.4637
 20
35.3621
 30
0.0
 10
23.4637
 20
35.3621
 30
0.0
 10
26.4091
 20
34.6074
 30
0.0
 10
26.4091
 20
34.6074
 30
0.0
 10
26.4091
 20
34.6074
 30
0.0
 10
26.4091
 20
34.6074
 30
0.0
 10
26.3995
 20
34.4978
 30
0.0
 10
26.3995
 20
34.4978
 30
0.0
 10
26.3995
 20
34.4978
 30
0.0
 10
26.3995
 20
34.4978
 30
0.0
 10
23.3649
 20
34.2332
 30
0.0
 10
23.3649
 20
34.2332
 30
0.0
 10
23.3649
 20
34.2332
 30
0.0
 10
23.3649
 20
34.2332
 30
0.0
 10
23.4637
 20
35.3621
 30
0.0
 10
23.4637
 20
35.3621
 30
0.0
  0
SPLINE
  5
105
330
1F
100
AcDbEntity
  8
AXIS
 62
   250
100
AcDbSpline
210
0.0
220
0.0
230
1.0
 70
    11
 71
     3
 72
    20
 73
    16
 74
     0
 42
0.0000000001
 43
0.0000000001
 40
0.0
 40
0.0
 40
0.0
 40
0.0
 40
0.2
 40
0.2
 40
0.2
 40
0.2
 40
0.4
 40
0.4
 40
0.4
 40
0.4
 40
0.6
 40
0.6
 40
0.6
 40
0.6
 40
1.0
 40
1.0
 40
1.0
 40
1.0
 10
33.0013
 20
33.4177
 30
0.0
 10
33.0013
 20
33.4177
 30
0.0
 10
30.0559
 20
34.1724
 30
0.0
 10
30.0559
 20
34.1724
 30
0.0
 10
30.0559
 20
34.1724
 30
0.0
 10
30.0559
 20
34.1724
 30
0.0
 10
30.0655
 20
34.282
 30
0.0
 10
30.0655
 20
34.282
 30
0.0
 10
30.0655
 20
34.282
 30
0.0
 10
30.0655
 20
34.282
 30
0.0
 10
33.1001
 20
34.5466
 30
0.0
 10
33.1001
 20
34.5466
 30
0.0
 10
33.1001
 20
34.5466
 30
0.0
 10
33.1001
 20
34.5466
 30
0.0
 10
33.0013
 20
33.4177
 30
0.0
 10
33.0013
 20
33.4177
 30
0.0
  0
SPLINE
  5
106
330
1F
100
AcDbEntity
  8
AXIS
  6
NEW_LINE9
 62
   250
100
AcDbSpline
210
0.0
220
0.0
230
1.0
 70
    24
 71
     3
 72
     8
 73
     4
 74
     0
 42
0.0000000001
 43
0.0000000001
 40
0.0
 40
0.0
 40
0.0
 40
0.0
 40
1.0
 40
1.0
 40
1.0
 40
1.0
 10
29.8228
 20
32.1917
 30
0.0
 10
29.8228
 20
32.1917
 30
0.0
 10
29.8228
 20
27.0544
 30
0.0
 10
29.8228
 20
27.0544
 30
0.0
  0
ENDSEC
  0
SECTION
  2
OBJECTS
  0
DICTIONARY
  5
C
330
0
100
AcDbDictionary
  3
ACAD_GROUP
350
D
  3
ACAD_LAYOUT
350
1A
  3
ACAD_MATERIAL
350
3B
  3
ACAD_MLEADERSTYLE
350
12A
  3
ACAD_MLINESTYLE
350
17
  3
ACAD_PLOTSETTINGS
350
19
  3
ACAD_VISUALSTYLE
350
2A
  3
ACDBHEADERROUNDTRIPXREC
350
108
  3
ACDBVARIABLEDICTIONARY
350
128
  0
DICTIONARY
  5
D
102
{ACAD_REACTORS
330
C
102
}
330
C
100
AcDbDictionary
  0
DICTIONARY
  5
1A
102
{ACAD_REACTORS
330
C
102
}
330
C
100
AcDbDictionary
  0
DICTIONARY
  5
3B
102
{ACAD_REACTORS
330
C
102
}
330
C
100
AcDbDictionary
  3
BYBLOCK
350
3D
  3
BYLAYER
350
3C
  3
GLOBAL
350
3E
  0
DICTIONARY
  5
12A
102
{ACAD_REACTORS
330
C
102
}
330
C
100
AcDbDictionary
  0
DICTIONARY
  5
17
102
{ACAD_REACTORS
330
C
102
}
330
C
100
AcDbDictionary
  3
STANDARD
350
18
  0
DICTIONARY
  5
19
102
{ACAD_REACTORS
330
C
102
}
330
C
100
AcDbDictionary
  0
DICTIONARY
  5
2A
102
{ACAD_REACTORS
330
C
102
}
330
C
100
AcDbDictionary
  3
2DWIREFRAME
350
2F
  3
3D_HIDDEN
350
31
  3
3DWIREFRAME
350
30
  3
BASIC
350
32
  3
BRIGHTEN
350
36
  3
COLORCHANGE
350
3A
  3
CONCEPTUAL
350
34
  3
DIM
350
35
  3
FACEPATTERN
350
39
  3
FLAT
350
2B
  3
FLATWITHEDGES
350
2C
  3
GOURAUD
350
2D
  3
GOURAUDWITHEDGES
350
2E
  3
LINEPATTERN
350
38
  3
REALISTIC
350
33
  3
THICKEN
350
37
  0
DICTIONARY
  5
108
102
{ACAD_REACTORS
330
C
102
}
330
C
100
AcDbDictionary
  3
CEPSNTYPE
350
111
  3
DIMSTYLEDATA
350
127
  3
FINGERPRINTGUID
350
112
  3
HYPERLINKBASE
350
10B
  3
INSUNITS
350
110
  3
LAYOUTDICT
350
10D
  3
LWETCUNION
350
10F
  3
PLOTSETDICT
350
10E
  3
PSVPSCALE
350
114
  3
PUCSBASE
350
117
  3
PUCSORGBACK
350
11D
  3
PUCSORGBOTTOM
350
119
  3
PUCSORGFRONT
350
11C
  3
PUCSORGLEFT
350
11A
  3
PUCSORGRIGHT
350
11B
  3
PUCSORGTOP
350
118
  3
PUCSORTHOREF
350
115
  3
PUCSORTHOVIEW
350
116
  3
STYLESHEET
350
10C
  3
TSTACKALIGN
350
109
  3
TSTACKSIZE
350
10A
  3
UCSBASE
350
120
  3
UCSORGBACK
350
126
  3
UCSORGBOTTOM
350
122
  3
UCSORGFRONT
350
125
  3
UCSORGLEFT
350
123
  3
UCSORGRIGHT
350
124
  3
UCSORGTOP
350
121
  3
UCSORTHOREF
350
11E
  3
UCSORTHOVIEW
350
11F
  3
VERSIONGUID
350
113
  0
DICTIONARY
  5
128
102
{ACAD_REACTORS
330
C
102
}
330
C
100
AcDbDictionary
  3
DIMASSOC
350
12B
  3
HIDETEXT
350
12C
  0
MATERIAL
  5
3D
102
{ACAD_REACTORS
330
3B
102
}
102
{ACAD_XDICTIONARY
360
12F
102
}
330
3B
100
AcDbMaterial
  1
ByBlock
  0
MATERIAL
  5
3C
102
{ACAD_REACTORS
330
3B
102
}
102
{ACAD_XDICTIONARY
360
12D
102
}
330
3B
100
AcDbMaterial
  1
ByLayer
  0
MATERIAL
  5
3E
102
{ACAD_REACTORS
330
3B
102
}
102
{ACAD_XDICTIONARY
360
131
102
}
330
3B
100
AcDbMaterial
  1
Global
  0
MLINESTYLE
  5
18
102
{ACAD_REACTORS
330
17
102
}
330
17
100
AcDbMlineStyle
  2
Standard
 70
     0
  3

 62
   256
 51
90.0
 52
90.0
 71
     2
 49
0.5
 62
   256
  6
BYLAYER
 49
-0.5
 62
   256
  6
BYLAYER
  0
ACAD_PROXY_OBJECT
  5
2F
102
{ACAD_REACTORS
330
2A
102
}
330
2A
100
AcDbProxyObject
 90
      499
 91
      501
 93
      436
310
42CC9915DA5C99599C985B595049028333333333333E3BF0000000000000FB0107901411070040501600405405064090741402480A0340
1001
ACAD
1000
AcDbSavedByObjectVersion
1070
     0
  0
ACAD_PROXY_OBJECT
  5
31
102
{ACAD_REACTORS
330
2A
102
}
330
2A
100
AcDbProxyObject
 90
      499
 91
      501
 93
      500
310
424CD108121A5919195B90640502408333333333333E3BF0000000000000FB01079024090700405020000000000001110200405405064090740C02480A0340
1001
ACAD
1000
AcDbSavedByObjectVersion
1070
     0
  0
ACAD_PROXY_OBJECT
  5
30
102
{ACAD_REACTORS
330
2A
102
}
330
2A
100
AcDbProxyObject
 90
      499
 91
      501
 93
      436
310
42CCD915DA5C99599C985B595059028333333333333E3BF0000000000000FB0107901411070040501600405405064090741402480A0340
1001
ACAD
1000
AcDbSavedByObjectVersion
1070
     0
  0
ACAD_PROXY_OBJECT
  5
32
102
{ACAD_REACTORS
330
2A
102
}
330
2A
100
AcDbProxyObject
 90
      499
 91
      501
 93
      388
310
4150985CDA58D07406404333333333333E3BF0000000000000FB0107A41107004050150841D405064090741402480A0350
1001
ACAD
1000
AcDbSavedByObjectVersion
1070
     0
  0
ACAD_PROXY_OBJECT
  5
36
102
{ACAD_REACTORS
330
2A
102
}
330
2A
100
AcDbProxyObject
 90
      499
 91
      501
 93
      428
310
42109C9A59DA1D195B90C409028333333333333E3BF0000000000000FB010790141107004050150841D405064090741402480A029950
1001
ACAD
1000
AcDbSavedByObjectVersion
1070
     0
  0
ACAD_PROXY_OBJECT
  5
3A
102
{ACAD_REACTORS
330
2A
102
}
330
2A
100
AcDbProxyObject
 90
      499
 91
      501
 93
      452
310
42D0DBDB1BDC90DA185B99D95104090240C333333333333E3BF0000000000000FB0108901411070040501508421405064090741402480A0350
1001
ACAD
1000
AcDbSavedByObjectVersion
1070
     0
  0
ACAD_PROXY_OBJECT
  5
34
102
{ACAD_REACTORS
330
2A
102
}
330
2A
100
AcDbProxyObject
 90
      499
 91
      501
 93
      500
310
4290DBDB98D95C1D1D585B10940D028333333333333E3BF0000000000000FB0107902409070040501000000000000111010841D405064090740C02480A0340
1001
ACAD
1000
AcDbSavedByObjectVersion
1070
     0
  0
ACAD_PROXY_OBJECT
  5
35
102
{ACAD_REACTORS
330
2A
102
}
330
2A
100
AcDbProxyObject
 90
      499
 91
      501
 93
      412
310
40D11A5B50B409028333333333333E3BF0000000000000FB010790141107004050150841D405064090741402480A02677FFFFFD0
1001
ACAD
1000
AcDbSavedByObjectVersion
1070
     0
  0
ACAD_PROXY_OBJECT
  5
39
102
{ACAD_REACTORS
330
2A
102
}
330
2A
100
AcDbProxyObject
 90
      499
 91
      501
 93
      444
310
42D19858D95C185D1D195C9B90F409028333333333333E3BF0000000000000FB010790141107004050150841D405064090741402480A0350
1001
ACAD
1000
AcDbSavedByObjectVersion
1070
     0
  0
ACAD_PROXY_OBJECT
  5
2B
102
{ACAD_REACTORS
330
2A
102
}
330
2A
100
AcDbProxyObject
 90
      499
 91
      501
 93
      388
310
41119B185D240901404333333333333E3BF0000000000000F9010740A41107004050150841D405064090741402480A1B50
1001
ACAD
1000
AcDbSavedByObjectVersion
1070
     0
  0
ACAD_PROXY_OBJECT
  5
2C
102
{ACAD_REACTORS
330
2A
102
}
330
2A
100
AcDbProxyObject
 90
      499
 91
      501
 93
      476
310
43519B185D15DA5D1A115919D95CD0140901404333333333333E3BF0000000000000F9010740901411070040501600405405064090741402480A1B50
1001
ACAD
1000
AcDbSavedByObjectVersion
1070
     0
  0
ACAD_PROXY_OBJECT
  5
2D
102
{ACAD_REACTORS
330
2A
102
}
330
2A
100
AcDbProxyObject
 90
      499
 91
      501
 93
      412
310
41D1DBDD5C985D5910240902404333333333333E3BF0000000000000F9010740A411070040501641D405064090741402480A1B50
1001
ACAD
1000
AcDbSavedByObjectVersion
1070
     0
  0
ACAD_PROXY_OBJECT
  5
2E
102
{ACAD_REACTORS
330
2A
102
}
330
2A
100
AcDbProxyObject
 90
      499
 91
      501
 93
      500
310
4411DBDD5C985D5915DA5D1A115919D95CD0340902404333333333333E3BF0000000000000F9010740901411070040501600405405064090741402480A1B50
1001
ACAD
1000
AcDbSavedByObjectVersion
1070
     0
  0
ACAD_PROXY_OBJECT
  5
38
102
{ACAD_REACTORS
330
2A
102
}
330
2A
100
AcDbProxyObject
 90
      499
 91
      501
 93
      444
310
42D31A5B995C185D1D195C9B90E409028333333333333E3BF0000000000000FB010790141107004050750841D405064090741402483A0350
1001
ACAD
1000
AcDbSavedByObjectVersion
1070
     0
  0
ACAD_PROXY_OBJECT
  5
33
102
{ACAD_REACTORS
330
2A
102
}
330
2A
100
AcDbProxyObject
 90
      499
 91
      501
 93
      420
310
425499585B1A5CDD1A58D08409028333333333333E3BF0000000000000FB01079019070040501508421405064090741402480A1B40
1001
ACAD
1000
AcDbSavedByObjectVersion
1070
     0
  0
ACAD_PROXY_OBJECT
  5
37
102
{ACAD_REACTORS
330
2A
102
}
330
2A
100
AcDbProxyObject
 90
      499
 91
      501
 93
      412
310
41D51A1A58DAD95B90D409028333333333333E3BF0000000000000FB010790141107004050150C41D405064090741402480A0350
1001
ACAD
1000
AcDbSavedByObjectVersion
1070
     0
  0
XRECORD
  5
111
102
{ACAD_REACTORS
330
108
102
}
330
108
100
AcDbXrecord
 90
        0
  0
XRECORD
  5
127
102
{ACAD_REACTORS
330
108
102
}
330
108
100
AcDbXrecord
1000
DSTYLE
1002
{
1070
   340
340
11
1002
}
  0
XRECORD
  5
112
102
{ACAD_REACTORS
330
108
102
}
330
108
100
AcDbXrecord
  1
{69CFE981-7214-4AFF-92C2-0D95B4423202}
  0
XRECORD
  5
10B
102
{ACAD_REACTORS
330
108
102
}
330
108
100
AcDbXrecord
  1

  0
XRECORD
  5
110
102
{ACAD_REACTORS
330
108
102
}
330
108
100
AcDbXrecord
 90
        4
  0
XRECORD
  5
10D
102
{ACAD_REACTORS
330
108
102
}
330
108
100
AcDbXrecord
340
1A
  0
XRECORD
  5
10F
102
{ACAD_REACTORS
330
108
102
}
330
108
100
AcDbXrecord
 90
    10781
  0
XRECORD
  5
10E
102
{ACAD_REACTORS
330
108
102
}
330
108
100
AcDbXrecord
340
19
  0
XRECORD
  5
114
102
{ACAD_REACTORS
330
108
102
}
330
108
100
AcDbXrecord
 40
0.0
  0
XRECORD
  5
117
102
{ACAD_REACTORS
330
108
102
}
330
108
100
AcDbXrecord
340
0
  0
XRECORD
  5
11D
102
{ACAD_REACTORS
330
108
102
}
330
108
100
AcDbXrecord
 10
0.0
 20
0.0
 30
0.0
  0
XRECORD
  5
119
102
{ACAD_REACTORS
330
108
102
}
330
108
100
AcDbXrecord
 10
0.0
 20
0.0
 30
0.0
  0
XRECORD
  5
11C
102
{ACAD_REACTORS
330
108
102
}
330
108
100
AcDbXrecord
 10
0.0
 20
0.0
 30
0.0
  0
XRECORD
  5
11A
102
{ACAD_REACTORS
330
108
102
}
330
108
100
AcDbXrecord
 10
0.0
 20
0.0
 30
0.0
  0
XRECORD
  5
11B
102
{ACAD_REACTORS
330
108
102
}
330
108
100
AcDbXrecord
 10
0.0
 20
0.0
 30
0.0
  0
XRECORD
  5
118
102
{ACAD_REACTORS
330
108
102
}
330
108
100
AcDbXrecord
 10
0.0
 20
0.0
 30
0.0
  0
XRECORD
  5
115
102
{ACAD_REACTORS
330
108
102
}
330
108
100
AcDbXrecord
340
0
  0
XRECORD
  5
116
102
{ACAD_REACTORS
330
108
102
}
330
108
100
AcDbXrecord
 70
     0
  0
XRECORD
  5
10C
102
{ACAD_REACTORS
330
108
102
}
330
108
100
AcDbXrecord
  1

  0
XRECORD
  5
109
102
{ACAD_REACTORS
330
108
102
}
330
108
100
AcDbXrecord
 90
        1
  0
XRECORD
  5
10A
102
{ACAD_REACTORS
330
108
102
}
330
108
100
AcDbXrecord
 90
       70
  0
XRECORD
  5
120
102
{ACAD_REACTORS
330
108
102
}
330
108
100
AcDbXrecord
340
0
  0
XRECORD
  5
126
102
{ACAD_REACTORS
330
108
102
}
330
108
100
AcDbXrecord
 10
0.0
 20
0.0
 30
0.0
  0
XRECORD
  5
122
102
{ACAD_REACTORS
330
108
102
}
330
108
100
AcDbXrecord
 10
0.0
 20
0.0
 30
0.0
  0
XRECORD
  5
125
102
{ACAD_REACTORS
330
108
102
}
330
108
100
AcDbXrecord
 10
0.0
 20
0.0
 30
0.0
  0
XRECORD
  5
123
102
{ACAD_REACTORS
330
108
102
}
330
108
100
AcDbXrecord
 10
0.0
 20
0.0
 30
0.0
  0
XRECORD
  5
124
102
{ACAD_REACTORS
330
108
102
}
330
108
100
AcDbXrecord
 10
0.0
 20
0.0
 30
0.0
  0
XRECORD
  5
121
102
{ACAD_REACTORS
330
108
102
}
330
108
100
AcDbXrecord
 10
0.0
 20
0.0
 30
0.0
  0
XRECORD
  5
11E
102
{ACAD_REACTORS
330
108
102
}
330
108
100
AcDbXrecord
340
0
  0
XRECORD
  5
11F
102
{ACAD_REACTORS
330
108
102
}
330
108
100
AcDbXrecord
 70
     0
  0
XRECORD
  5
113
102
{ACAD_REACTORS
330
108
102
}
330
108
100
AcDbXrecord
  1
{FAEB1C32-E019-11D5-929B-00C0DF256EC4}
  0
DICTIONARYVAR
  5
12B
102
{ACAD_REACTORS
330
128
102
}
330
128
100
DictionaryVariables
280
     0
  1
2
  0
DICTIONARYVAR
  5
12C
102
{ACAD_REACTORS
330
128
102
}
330
128
100
DictionaryVariables
280
     0
  1
1
  0
DICTIONARY
  5
12F
330
3D
100
AcDbDictionary
280
     1
  3
ACAD_XREC_ROUNDTRIP
360
130
  0
DICTIONARY
  5
12D
330
3C
100
AcDbDictionary
280
     1
  3
ACAD_XREC_ROUNDTRIP
360
12E
  0
DICTIONARY
  5
131
330
3E
100
AcDbDictionary
280
     1
  3
ACAD_XREC_ROUNDTRIP
360
132
  0
XRECORD
  5
130
102
{ACAD_REACTORS
330
12F
102
}
330
12F
100
AcDbXrecord
102
MATERIAL
148
0.0
149
0.0
149
0.0
 93
        0
 94
      127
282
     0
 72
     1
 77
     1
171
     1
175
     1
179
     1
273
     0
  0
XRECORD
  5
12E
102
{ACAD_REACTORS
330
12D
102
}
330
12D
100
AcDbXrecord
102
MATERIAL
148
0.0
149
0.0
149
0.0
 93
        0
 94
      127
282
     0
 72
     1
 77
     1
171
     1
175
     1
179
     1
273
     0
  0
XRECORD
  5
132
102
{ACAD_REACTORS
330
131
102
}
330
131
100
AcDbXrecord
102
MATERIAL
148
0.0
149
0.0
149
0.0
 93
        0
 94
      127
282
     0
 72
     1
 77
     1
171
     1
175
     1
179
     1
273
     0
  0
ENDSEC
  0
EOF
