  0
SECTION
  2
HEADER
  9
$ACADVER
  1
AC1015
  9
$ACADMAINTVER
 70
     6
  9
$DWGCODEPAGE
  3
ANSI_1250
  9
$INSBASE
 10
0.0
 20
0.0
 30
0.0
  9
$EXTMIN
 10
-35.5244
 20
-27.2809
 30
0.0
  9
$EXTMAX
 10
35.5243
 20
27.1717
 30
0.0
  9
$LIMMIN
 10
0.0
 20
0.0
  9
$LIMMAX
 10
12.0
 20
9.0
  9
$ORTHOMODE
 70
     0
  9
$REGENMODE
 70
     1
  9
$FILLMODE
 70
     1
  9
$QTEXTMODE
 70
     0
  9
$MIRRTEXT
 70
     1
  9
$LTSCALE
 40
1.0
  9
$ATTMODE
 70
     1
  9
$TEXTSIZE
 40
0.2
  9
$TRACEWID
 40
0.05
  9
$TEXTSTYLE
  7
Standard
  9
$CLAYER
  8
0
  9
$CELTYPE
  6
ByLayer
  9
$CECOLOR
 62
   256
  9
$CELTSCALE
 40
1.0
  9
$DISPSILH
 70
     0
  9
$DIMSCALE
 40
1.0
  9
$DIMASZ
 40
0.18
  9
$DIMEXO
 40
0.0625
  9
$DIMDLI
 40
0.38
  9
$DIMRND
 40
0.0
  9
$DIMDLE
 40
0.0
  9
$DIMEXE
 40
0.18
  9
$DIMTP
 40
0.0
  9
$DIMTM
 40
0.0
  9
$DIMTXT
 40
0.18
  9
$DIMCEN
 40
0.09
  9
$DIMTSZ
 40
0.0
  9
$DIMTOL
 70
     0
  9
$DIMLIM
 70
     0
  9
$DIMTIH
 70
     1
  9
$DIMTOH
 70
     1
  9
$DIMSE1
 70
     0
  9
$DIMSE2
 70
     0
  9
$DIMTAD
 70
     0
  9
$DIMZIN
 70
     0
  9
$DIMBLK
  1

  9
$DIMASO
 70
     1
  9
$DIMSHO
 70
     1
  9
$DIMPOST
  1

  9
$DIMAPOST
  1

  9
$DIMALT
 70
     0
  9
$DIMALTD
 70
     2
  9
$DIMALTF
 40
25.4
  9
$DIMLFAC
 40
1.0
  9
$DIMTOFL
 70
     0
  9
$DIMTVP
 40
0.0
  9
$DIMTIX
 70
     0
  9
$DIMSOXD
 70
     0
  9
$DIMSAH
 70
     0
  9
$DIMBLK1
  1

  9
$DIMBLK2
  1

  9
$DIMSTYLE
  2
Standard
  9
$DIMCLRD
 70
     0
  9
$DIMCLRE
 70
     0
  9
$DIMCLRT
 70
     0
  9
$DIMTFAC
 40
1.0
  9
$DIMGAP
 40
0.09
  9
$DIMJUST
 70
     0
  9
$DIMSD1
 70
     0
  9
$DIMSD2
 70
     0
  9
$DIMTOLJ
 70
     1
  9
$DIMTZIN
 70
     0
  9
$DIMALTZ
 70
     0
  9
$DIMALTTZ
 70
     0
  9
$DIMUPT
 70
     0
  9
$DIMDEC
 70
     4
  9
$DIMTDEC
 70
     4
  9
$DIMALTU
 70
     2
  9
$DIMALTTD
 70
     2
  9
$DIMTXSTY
  7
Standard
  9
$DIMAUNIT
 70
     0
  9
$DIMADEC
 70
     0
  9
$DIMALTRND
 40
0.0
  9
$DIMAZIN
 70
     0
  9
$DIMDSEP
 70
    46
  9
$DIMATFIT
 70
     3
  9
$DIMFRAC
 70
     0
  9
$DIMLDRBLK
  1

  9
$DIMLUNIT
 70
     2
  9
$DIMLWD
 70
    -2
  9
$DIMLWE
 70
    -2
  9
$DIMTMOVE
 70
     0
  9
$LUNITS
 70
     2
  9
$LUPREC
 70
     4
  9
$SKETCHINC
 40
0.1
  9
$FILLETRAD
 40
0.5
  9
$AUNITS
 70
     0
  9
$AUPREC
 70
     0
  9
$MENU
  1
.
  9
$ELEVATION
 40
0.0
  9
$PELEVATION
 40
0.0
  9
$THICKNESS
 40
0.0
  9
$LIMCHECK
 70
     0
  9
$CHAMFERA
 40
0.5
  9
$CHAMFERB
 40
0.5
  9
$CHAMFERC
 40
1.0
  9
$CHAMFERD
 40
0.0
  9
$SKPOLY
 70
     0
  9
$TDCREATE
 40
2458995.28832934
  9
$TDUCREATE
 40
2458995.204996007
  9
$TDUPDATE
 40
2458995.288329352
  9
$TDUUPDATE
 40
2458995.204996019
  9
$TDINDWG
 40
0.0000000116
  9
$TDUSRTIMER
 40
0.0000000116
  9
$USRTIMER
 70
     1
  9
$ANGBASE
 50
0.0
  9
$ANGDIR
 70
     0
  9
$PDMODE
 70
     0
  9
$PDSIZE
 40
0.0
  9
$PLINEWID
 40
0.0
  9
$SPLFRAME
 70
     0
  9
$SPLINETYPE
 70
     6
  9
$SPLINESEGS
 70
     8
  9
$HANDSEED
  5
FA
  9
$SURFTAB1
 70
     6
  9
$SURFTAB2
 70
     6
  9
$SURFTYPE
 70
     6
  9
$SURFU
 70
     6
  9
$SURFV
 70
     6
  9
$UCSBASE
  2

  9
$UCSNAME
  2

  9
$UCSORG
 10
0.0
 20
0.0
 30
0.0
  9
$UCSXDIR
 10
1.0
 20
0.0
 30
0.0
  9
$UCSYDIR
 10
0.0
 20
1.0
 30
0.0
  9
$UCSORTHOREF
  2

  9
$UCSORTHOVIEW
 70
     0
  9
$UCSORGTOP
 10
0.0
 20
0.0
 30
0.0
  9
$UCSORGBOTTOM
 10
0.0
 20
0.0
 30
0.0
  9
$UCSORGLEFT
 10
0.0
 20
0.0
 30
0.0
  9
$UCSORGRIGHT
 10
0.0
 20
0.0
 30
0.0
  9
$UCSORGFRONT
 10
0.0
 20
0.0
 30
0.0
  9
$UCSORGBACK
 10
0.0
 20
0.0
 30
0.0
  9
$PUCSBASE
  2

  9
$PUCSNAME
  2

  9
$PUCSORG
 10
0.0
 20
0.0
 30
0.0
  9
$PUCSXDIR
 10
1.0
 20
0.0
 30
0.0
  9
$PUCSYDIR
 10
0.0
 20
1.0
 30
0.0
  9
$PUCSORTHOREF
  2

  9
$PUCSORTHOVIEW
 70
     0
  9
$PUCSORGTOP
 10
0.0
 20
0.0
 30
0.0
  9
$PUCSORGBOTTOM
 10
0.0
 20
0.0
 30
0.0
  9
$PUCSORGLEFT
 10
0.0
 20
0.0
 30
0.0
  9
$PUCSORGRIGHT
 10
0.0
 20
0.0
 30
0.0
  9
$PUCSORGFRONT
 10
0.0
 20
0.0
 30
0.0
  9
$PUCSORGBACK
 10
0.0
 20
0.0
 30
0.0
  9
$USERI1
 70
     0
  9
$USERI2
 70
     0
  9
$USERI3
 70
     0
  9
$USERI4
 70
     0
  9
$USERI5
 70
     0
  9
$USERR1
 40
0.0
  9
$USERR2
 40
0.0
  9
$USERR3
 40
0.0
  9
$USERR4
 40
0.0
  9
$USERR5
 40
0.0
  9
$WORLDVIEW
 70
     1
  9
$SHADEDGE
 70
     3
  9
$SHADEDIF
 70
    70
  9
$TILEMODE
 70
     1
  9
$MAXACTVP
 70
    64
  9
$PINSBASE
 10
0.0
 20
0.0
 30
0.0
  9
$PLIMCHECK
 70
     0
  9
$PEXTMIN
 10
1.000000000000000E+20
 20
1.000000000000000E+20
 30
1.000000000000000E+20
  9
$PEXTMAX
 10
-1.000000000000000E+20
 20
-1.000000000000000E+20
 30
-1.000000000000000E+20
  9
$PLIMMIN
 10
0.0
 20
0.0
  9
$PLIMMAX
 10
12.0
 20
9.0
  9
$UNITMODE
 70
     0
  9
$VISRETAIN
 70
     1
  9
$PLINEGEN
 70
     0
  9
$PSLTSCALE
 70
     1
  9
$TREEDEPTH
 70
  3020
  9
$CMLSTYLE
  2
Standard
  9
$CMLJUST
 70
     0
  9
$CMLSCALE
 40
1.0
  9
$PROXYGRAPHICS
 70
     1
  9
$MEASUREMENT
 70
     0
  9
$CELWEIGHT
370
    -1
  9
$ENDCAPS
280
     0
  9
$JOINSTYLE
280
     0
  9
$LWDISPLAY
290
     0
  9
$INSUNITS
 70
     4
  9
$HYPERLINKBASE
  1

  9
$STYLESHEET
  1

  9
$XEDIT
290
     1
  9
$CEPSNTYPE
380
     0
  9
$PSTYLEMODE
290
     1
  9
$FINGERPRINTGUID
  2
{2EA4EA05-4206-4E5D-94E9-16A7674C1CD0}
  9
$VERSIONGUID
  2
{FAEB1C32-E019-11D5-929B-00C0DF256EC4}
  9
$EXTNAMES
290
     1
  9
$PSVPSCALE
 40
0.0
  9
$OLESTARTUP
290
     0
  0
ENDSEC
  0
SECTION
  2
CLASSES
  0
CLASS
  1
ACDBDICTIONARYWDFLT
  2
AcDbDictionaryWithDefault
  3
ObjectDBX Classes
 90
        0
280
     0
281
     0
  0
CLASS
  1
VISUALSTYLE
  2
AcDbVisualStyle
  3
ObjectDBX Classes
 90
     4095
280
     0
281
     0
  0
CLASS
  1
MATERIAL
  2
AcDbMaterial
  3
ObjectDBX Classes
 90
     1153
280
     0
281
     0
  0
CLASS
  1
DICTIONARYVAR
  2
AcDbDictionaryVar
  3
ObjectDBX Classes
 90
        0
280
     0
281
     0
  0
CLASS
  1
ACDBPLACEHOLDER
  2
AcDbPlaceHolder
  3
ObjectDBX Classes
 90
        0
280
     0
281
     0
  0
CLASS
  1
LAYOUT
  2
AcDbLayout
  3
ObjectDBX Classes
 90
        0
280
     0
281
     0
  0
ENDSEC
  0
SECTION
  2
TABLES
  0
TABLE
  2
VPORT
  5
8
330
0
100
AcDbSymbolTable
 70
     1
  0
VPORT
  5
29
330
8
100
AcDbSymbolTableRecord
100
AcDbViewportTableRecord
  2
*Active
 70
     0
 10
0.0
 20
0.0
 11
1.0
 21
1.0
 12
10.42990654205607
 22
4.5
 13
0.0
 23
0.0
 14
0.5
 24
0.5
 15
0.5
 25
0.5
 16
0.0
 26
0.0
 36
1.0
 17
0.0
 27
0.0
 37
0.0
 40
9.0
 41
1.972972972850329
 42
50.0
 43
0.0
 44
0.0
 50
0.0
 51
0.0
 71
     0
 72
   100
 73
     1
 74
     3
 75
     0
 76
     0
 77
     0
 78
     0
281
     0
 65
     1
110
0.0
120
0.0
130
0.0
111
1.0
121
0.0
131
0.0
112
0.0
122
1.0
132
0.0
 79
     0
146
0.0
  0
ENDTAB
  0
TABLE
  2
LTYPE
  5
5
330
0
100
AcDbSymbolTable
 70
     3
  0
LTYPE
  5
14
330
5
100
AcDbSymbolTableRecord
100
AcDbLinetypeTableRecord
  2
ByBlock
 70
     0
  3

 72
    65
 73
     0
 40
0.0
  0
LTYPE
  5
15
330
5
100
AcDbSymbolTableRecord
100
AcDbLinetypeTableRecord
  2
ByLayer
 70
     0
  3

 72
    65
 73
     0
 40
0.0
  0
LTYPE
  5
16
330
5
100
AcDbSymbolTableRecord
100
AcDbLinetypeTableRecord
  2
Continuous
 70
     0
  3
Solid line
 72
    65
 73
     0
 40
0.0
  0
LTYPE
  5
5D
330
5
100
AcDbSymbolTableRecord
100
AcDbLinetypeTableRecord
  2
New Line1
 70
     0
  3

 72
    65
 73
     4
 40
1.2
 49
0.5
 74
     4
 75
     0
340
0
 46
1.0
 50
0.0
 44
0.0
 45
0.0
 49
-0.3
 74
     4
 75
     0
340
0
 46
1.0
 50
0.0
 44
0.0
 45
0.0
 49
0.1
 74
     4
 75
     0
340
0
 46
1.0
 50
0.0
 44
0.0
 45
0.0
 49
-0.3
 74
     4
 75
     0
340
0
 46
1.0
 50
0.0
 44
0.0
 45
0.0
  0
LTYPE
  5
5F
330
5
100
AcDbSymbolTableRecord
100
AcDbLinetypeTableRecord
  2
New Line2
 70
     0
  3

 72
    65
 73
     4
 40
1.2
 49
0.5
 74
     4
 75
     0
340
0
 46
1.0
 50
0.0
 44
0.0
 45
0.0
 49
-0.3
 74
     4
 75
     0
340
0
 46
1.0
 50
0.0
 44
0.0
 45
0.0
 49
0.1
 74
     4
 75
     0
340
0
 46
1.0
 50
0.0
 44
0.0
 45
0.0
 49
-0.3
 74
     4
 75
     0
340
0
 46
1.0
 50
0.0
 44
0.0
 45
0.0
  0
ENDTAB
  0
TABLE
  2
LAYER
  5
2
330
0
100
AcDbSymbolTable
 70
     2
  0
LAYER
  5
10
330
2
100
AcDbSymbolTableRecord
100
AcDbLayerTableRecord
  2
0
 70
     0
 62
     7
  6
Continuous
370
    -3
390
F
  0
LAYER
  5
40
330
2
100
AcDbSymbolTableRecord
100
AcDbLayerTableRecord
  2
Vrstva 1
 70
     0
 62
     7
  6
Continuous
370
    -3
390
F
  0
ENDTAB
  0
TABLE
  2
STYLE
  5
3
330
0
100
AcDbSymbolTable
 70
     1
  0
STYLE
  5
11
330
3
100
AcDbSymbolTableRecord
100
AcDbTextStyleTableRecord
  2
Standard
 70
     0
 40
0.0
 41
1.0
 50
0.0
 71
     0
 42
0.2
  3
txt
  4

  0
ENDTAB
  0
TABLE
  2
VIEW
  5
6
330
0
100
AcDbSymbolTable
 70
     0
  0
ENDTAB
  0
TABLE
  2
UCS
  5
7
330
0
100
AcDbSymbolTable
 70
     0
  0
ENDTAB
  0
TABLE
  2
APPID
  5
9
330
0
100
AcDbSymbolTable
 70
     2
  0
APPID
  5
12
330
9
100
AcDbSymbolTableRecord
100
AcDbRegAppTableRecord
  2
ACAD
 70
     0
  0
APPID
  5
3F
330
9
100
AcDbSymbolTableRecord
100
AcDbRegAppTableRecord
  2
ODA
 70
     0
  0
ENDTAB
  0
TABLE
  2
DIMSTYLE
  5
A
330
0
100
AcDbSymbolTable
 70
     1
100
AcDbDimStyleTable
  0
DIMSTYLE
105
27
330
A
100
AcDbSymbolTableRecord
100
AcDbDimStyleTableRecord
  2
Standard
 70
     0
340
11
  0
ENDTAB
  0
TABLE
  2
BLOCK_RECORD
  5
1
330
0
100
AcDbSymbolTable
 70
     1
  0
BLOCK_RECORD
  5
1F
330
1
100
AcDbSymbolTableRecord
100
AcDbBlockTableRecord
  2
*Model_Space
340
22
  0
BLOCK_RECORD
  5
1B
330
1
100
AcDbSymbolTableRecord
100
AcDbBlockTableRecord
  2
*Paper_Space
340
1E
  0
BLOCK_RECORD
  5
23
330
1
100
AcDbSymbolTableRecord
100
AcDbBlockTableRecord
  2
*Paper_Space0
340
26
  0
ENDTAB
  0
ENDSEC
  0
SECTION
  2
BLOCKS
  0
BLOCK
  5
20
330
1F
100
AcDbEntity
  8
0
100
AcDbBlockBegin
  2
*Model_Space
 70
     0
 10
0.0
 20
0.0
 30
0.0
  3
*Model_Space
  1

  0
ENDBLK
  5
21
330
1F
100
AcDbEntity
  8
0
100
AcDbBlockEnd
  0
BLOCK
  5
1C
330
1B
100
AcDbEntity
 67
     1
  8
0
100
AcDbBlockBegin
  2
*Paper_Space
 70
     0
 10
0.0
 20
0.0
 30
0.0
  3
*Paper_Space
  1

  0
ENDBLK
  5
1D
330
1B
100
AcDbEntity
 67
     1
  8
0
100
AcDbBlockEnd
  0
BLOCK
  5
24
330
23
100
AcDbEntity
  8
0
100
AcDbBlockBegin
  2
*Paper_Space0
 70
     0
 10
0.0
 20
0.0
 30
0.0
  3
*Paper_Space0
  1

  0
ENDBLK
  5
25
330
23
100
AcDbEntity
  8
0
100
AcDbBlockEnd
  0
ENDSEC
  0
SECTION
  2
ENTITIES
  0
SPLINE
  5
41
330
1F
100
AcDbEntity
  8
Vrstva 1
 62
     9
100
AcDbSpline
210
0.0
220
0.0
230
1.0
 70
    11
 71
     3
 72
   112
 73
   108
 74
     0
 42
0.0000000001
 43
0.0000000001
 40
0.0
 40
0.0
 40
0.0
 40
0.0
 40
0.0357142857142857
 40
0.0357142857142857
 40
0.0357142857142857
 40
0.0357142857142857
 40
0.0714285714285714
 40
0.0714285714285714
 40
0.0714285714285714
 40
0.0714285714285714
 40
0.1071428571428571
 40
0.1071428571428571
 40
0.1071428571428571
 40
0.1071428571428571
 40
0.1428571428571428
 40
0.1428571428571428
 40
0.1428571428571428
 40
0.1428571428571428
 40
0.1785714285714286
 40
0.1785714285714286
 40
0.1785714285714286
 40
0.1785714285714286
 40
0.2142857142857143
 40
0.2142857142857143
 40
0.2142857142857143
 40
0.2142857142857143
 40
0.25
 40
0.25
 40
0.25
 40
0.25
 40
0.2857142857142857
 40
0.2857142857142857
 40
0.2857142857142857
 40
0.2857142857142857
 40
0.3214285714285715
 40
0.3214285714285715
 40
0.3214285714285715
 40
0.3214285714285715
 40
0.3571428571428572
 40
0.3571428571428572
 40
0.3571428571428572
 40
0.3571428571428572
 40
0.3928571428571428
 40
0.3928571428571428
 40
0.3928571428571428
 40
0.3928571428571428
 40
0.4285714285714285
 40
0.4285714285714285
 40
0.4285714285714285
 40
0.4285714285714285
 40
0.4642857142857143
 40
0.4642857142857143
 40
0.4642857142857143
 40
0.4642857142857143
 40
0.5
 40
0.5
 40
0.5
 40
0.5
 40
0.5357142857142857
 40
0.5357142857142857
 40
0.5357142857142857
 40
0.5357142857142857
 40
0.5714285714285714
 40
0.5714285714285714
 40
0.5714285714285714
 40
0.5714285714285714
 40
0.6071428571428571
 40
0.6071428571428571
 40
0.6071428571428571
 40
0.6071428571428571
 40
0.6428571428571429
 40
0.6428571428571429
 40
0.6428571428571429
 40
0.6428571428571429
 40
0.6785714285714286
 40
0.6785714285714286
 40
0.6785714285714286
 40
0.6785714285714286
 40
0.7142857142857143
 40
0.7142857142857143
 40
0.7142857142857143
 40
0.7142857142857143
 40
0.75
 40
0.75
 40
0.75
 40
0.75
 40
0.7857142857142857
 40
0.7857142857142857
 40
0.7857142857142857
 40
0.7857142857142857
 40
0.8214285714285714
 40
0.8214285714285714
 40
0.8214285714285714
 40
0.8214285714285714
 40
0.8571428571428571
 40
0.8571428571428571
 40
0.8571428571428571
 40
0.8571428571428571
 40
0.8928571428571429
 40
0.8928571428571429
 40
0.8928571428571429
 40
0.8928571428571429
 40
0.9285714285714286
 40
0.9285714285714286
 40
0.9285714285714286
 40
0.9285714285714286
 40
1.0
 40
1.0
 40
1.0
 40
1.0
 10
-12.119
 20
18.4163
 30
0.0
 10
-12.119
 20
18.4163
 30
0.0
 10
-18.6455
 20
18.3998
 30
0.0
 10
-18.6455
 20
18.3998
 30
0.0
 10
-18.6455
 20
18.3998
 30
0.0
 10
-18.6455
 20
18.3998
 30
0.0
 10
-18.651
 20
18.6975
 30
0.0
 10
-18.651
 20
18.6975
 30
0.0
 10
-18.651
 20
18.6975
 30
0.0
 10
-18.651
 20
18.6975
 30
0.0
 10
-18.6565
 20
18.8849
 30
0.0
 10
-18.6565
 20
18.8849
 30
0.0
 10
-18.6565
 20
18.8849
 30
0.0
 10
-18.6565
 20
18.8849
 30
0.0
 10
-18.5132
 20
19.0117
 30
0.0
 10
-18.5132
 20
19.0117
 30
0.0
 10
-18.5132
 20
19.0117
 30
0.0
 10
-18.5132
 20
19.0117
 30
0.0
 10
-16.3137
 20
19.9872
 30
0.0
 10
-16.3137
 20
19.9872
 30
0.0
 10
-16.3137
 20
19.9872
 30
0.0
 10
-16.3137
 20
19.9872
 30
0.0
 10
-14.197
 20
20.7369
 30
0.0
 10
-14.197
 20
20.7369
 30
0.0
 10
-14.197
 20
20.7369
 30
0.0
 10
-14.197
 20
20.7369
 30
0.0
 10
-11.6835
 20
21.4645
 30
0.0
 10
-11.6835
 20
21.4645
 30
0.0
 10
-11.6835
 20
21.4645
 30
0.0
 10
-11.6835
 20
21.4645
 30
0.0
 10
-8.9715
 20
21.9495
 30
0.0
 10
-8.9715
 20
21.9495
 30
0.0
 10
-8.9715
 20
21.9495
 30
0.0
 10
-8.9715
 20
21.9495
 30
0.0
 10
-6.5021
 20
22.2582
 30
0.0
 10
-6.5021
 20
22.2582
 30
0.0
 10
-6.5021
 20
22.2582
 30
0.0
 10
-6.5021
 20
22.2582
 30
0.0
 10
-4.4956
 20
22.3464
 30
0.0
 10
-4.4956
 20
22.3464
 30
0.0
 10
-4.4956
 20
22.3464
 30
0.0
 10
-4.4956
 20
22.3464
 30
0.0
 10
-2.1364
 20
22.3464
 30
0.0
 10
-2.1364
 20
22.3464
 30
0.0
 10
-2.1364
 20
22.3464
 30
0.0
 10
-2.1364
 20
22.3464
 30
0.0
 10
-0.0198
 20
22.17
 30
0.0
 10
-0.0198
 20
22.17
 30
0.0
 10
-0.0198
 20
22.17
 30
0.0
 10
-0.0198
 20
22.17
 30
0.0
 10
1.9867
 20
21.8613
 30
0.0
 10
1.9867
 20
21.8613
 30
0.0
 10
1.9867
 20
21.8613
 30
0.0
 10
1.9867
 20
21.8613
 30
0.0
 10
3.6956
 20
21.5417
 30
0.0
 10
3.6956
 20
21.5417
 30
0.0
 10
3.6956
 20
21.5417
 30
0.0
 10
3.6956
 20
21.5417
 30
0.0
 10
6.0328
 20
20.9905
 30
0.0
 10
6.0328
 20
20.9905
 30
0.0
 10
6.0328
 20
20.9905
 30
0.0
 10
6.0328
 20
20.9905
 30
0.0
 10
8.0503
 20
20.318
 30
0.0
 10
8.0503
 20
20.318
 30
0.0
 10
8.0503
 20
20.318
 30
0.0
 10
8.0503
 20
20.318
 30
0.0
 10
9.748
 20
19.6455
 30
0.0
 10
9.748
 20
19.6455
 30
0.0
 10
9.748
 20
19.6455
 30
0.0
 10
9.748
 20
19.6455
 30
0.0
 10
11.2143
 20
18.951
 30
0.0
 10
11.2143
 20
18.951
 30
0.0
 10
11.2143
 20
18.951
 30
0.0
 10
11.2143
 20
18.951
 30
0.0
 10
11.4348
 20
18.7856
 30
0.0
 10
11.4348
 20
18.7856
 30
0.0
 10
11.4348
 20
18.7856
 30
0.0
 10
11.4348
 20
18.7856
 30
0.0
 10
11.3907
 20
18.5541
 30
0.0
 10
11.3907
 20
18.5541
 30
0.0
 10
11.3907
 20
18.5541
 30
0.0
 10
11.3907
 20
18.5541
 30
0.0
 10
10.9828
 20
18.4769
 30
0.0
 10
10.9828
 20
18.4769
 30
0.0
 10
10.9828
 20
18.4769
 30
0.0
 10
10.9828
 20
18.4769
 30
0.0
 10
4.8201
 20
18.4438
 30
0.0
 10
4.8201
 20
18.4438
 30
0.0
 10
4.8201
 20
18.4438
 30
0.0
 10
4.8201
 20
18.4438
 30
0.0
 10
4.7981
 20
16.8122
 30
0.0
 10
4.7981
 20
16.8122
 30
0.0
 10
4.7981
 20
16.8122
 30
0.0
 10
4.7981
 20
16.8122
 30
0.0
 10
4.5004
 20
16.7571
 30
0.0
 10
4.5004
 20
16.7571
 30
0.0
 10
4.5004
 20
16.7571
 30
0.0
 10
4.5004
 20
16.7571
 30
0.0
 10
-12.0198
 20
16.7402
 30
0.0
 10
-12.0198
 20
16.7402
 30
0.0
 10
-12.0198
 20
16.7402
 30
0.0
 10
-12.0198
 20
16.7402
 30
0.0
 10
-12.108
 20
16.8945
 30
0.0
 10
-12.108
 20
16.8945
 30
0.0
 10
-12.108
 20
16.8945
 30
0.0
 10
-12.108
 20
16.8945
 30
0.0
 10
-12.119
 20
18.4163
 30
0.0
 10
-12.119
 20
18.4163
 30
0.0
  0
SPLINE
  5
42
330
1F
100
AcDbEntity
  8
Vrstva 1
 62
   251
100
AcDbSpline
210
0.0
220
0.0
230
1.0
 70
    11
 71
     3
 72
    64
 73
    60
 74
     0
 42
0.0000000001
 43
0.0000000001
 40
0.0
 40
0.0
 40
0.0
 40
0.0
 40
0.0625
 40
0.0625
 40
0.0625
 40
0.0625
 40
0.125
 40
0.125
 40
0.125
 40
0.125
 40
0.1875
 40
0.1875
 40
0.1875
 40
0.1875
 40
0.25
 40
0.25
 40
0.25
 40
0.25
 40
0.3125
 40
0.3125
 40
0.3125
 40
0.3125
 40
0.375
 40
0.375
 40
0.375
 40
0.375
 40
0.4375
 40
0.4375
 40
0.4375
 40
0.4375
 40
0.5
 40
0.5
 40
0.5
 40
0.5
 40
0.5625
 40
0.5625
 40
0.5625
 40
0.5625
 40
0.625
 40
0.625
 40
0.625
 40
0.625
 40
0.6875
 40
0.6875
 40
0.6875
 40
0.6875
 40
0.75
 40
0.75
 40
0.75
 40
0.75
 40
0.8125
 40
0.8125
 40
0.8125
 40
0.8125
 40
0.875
 40
0.875
 40
0.875
 40
0.875
 40
1.0
 40
1.0
 40
1.0
 40
1.0
 10
-11.9628
 20
16.7077
 30
0.0
 10
-11.9628
 20
16.7077
 30
0.0
 10
-11.9683
 20
16.184
 30
0.0
 10
-11.9683
 20
16.184
 30
0.0
 10
-11.9683
 20
16.184
 30
0.0
 10
-11.9683
 20
16.184
 30
0.0
 10
-12.8888
 20
16.0572
 30
0.0
 10
-12.8888
 20
16.0572
 30
0.0
 10
-12.8888
 20
16.0572
 30
0.0
 10
-12.8888
 20
16.0572
 30
0.0
 10
-12.9936
 20
15.9415
 30
0.0
 10
-12.9936
 20
15.9415
 30
0.0
 10
-12.9936
 20
15.9415
 30
0.0
 10
-12.9936
 20
15.9415
 30
0.0
 10
-12.9881
 20
15.7982
 30
0.0
 10
-12.9881
 20
15.7982
 30
0.0
 10
-12.9881
 20
15.7982
 30
0.0
 10
-12.9881
 20
15.7982
 30
0.0
 10
-12.9219
 20
15.6989
 30
0.0
 10
-12.9219
 20
15.6989
 30
0.0
 10
-12.9219
 20
15.6989
 30
0.0
 10
-12.9219
 20
15.6989
 30
0.0
 10
-11.9793
 20
15.495
 30
0.0
 10
-11.9793
 20
15.495
 30
0.0
 10
-11.9793
 20
15.495
 30
0.0
 10
-11.9793
 20
15.495
 30
0.0
 10
-11.9738
 20
15.0595
 30
0.0
 10
-11.9738
 20
15.0595
 30
0.0
 10
-11.9738
 20
15.0595
 30
0.0
 10
-11.9738
 20
15.0595
 30
0.0
 10
4.7449
 20
15.0209
 30
0.0
 10
4.7449
 20
15.0209
 30
0.0
 10
4.7449
 20
15.0209
 30
0.0
 10
4.7449
 20
15.0209
 30
0.0
 10
4.7149
 20
15.5997
 30
0.0
 10
4.7149
 20
15.5997
 30
0.0
 10
4.7149
 20
15.5997
 30
0.0
 10
4.7149
 20
15.5997
 30
0.0
 10
5.7182
 20
15.7871
 30
0.0
 10
5.7182
 20
15.7871
 30
0.0
 10
5.7182
 20
15.7871
 30
0.0
 10
5.7182
 20
15.7871
 30
0.0
 10
5.7347
 20
15.98
 30
0.0
 10
5.7347
 20
15.98
 30
0.0
 10
5.7347
 20
15.98
 30
0.0
 10
5.7347
 20
15.98
 30
0.0
 10
5.5638
 20
16.0627
 30
0.0
 10
5.5638
 20
16.0627
 30
0.0
 10
5.5638
 20
16.0627
 30
0.0
 10
5.5638
 20
16.0627
 30
0.0
 10
4.6708
 20
16.2336
 30
0.0
 10
4.6708
 20
16.2336
 30
0.0
 10
4.6708
 20
16.2336
 30
0.0
 10
4.6708
 20
16.2336
 30
0.0
 10
4.6708
 20
16.7352
 30
0.0
 10
4.6708
 20
16.7352
 30
0.0
 10
4.6708
 20
16.7352
 30
0.0
 10
4.6708
 20
16.7352
 30
0.0
 10
-11.9628
 20
16.7077
 30
0.0
 10
-11.9628
 20
16.7077
 30
0.0
  0
SPLINE
  5
43
330
1F
100
AcDbEntity
  8
Vrstva 1
 62
     9
100
AcDbSpline
210
0.0
220
0.0
230
1.0
 70
    11
 71
     3
 72
    84
 73
    80
 74
     0
 42
0.0000000001
 43
0.0000000001
 40
0.0
 40
0.0
 40
0.0
 40
0.0
 40
0.0476190476190476
 40
0.0476190476190476
 40
0.0476190476190476
 40
0.0476190476190476
 40
0.0952380952380952
 40
0.0952380952380952
 40
0.0952380952380952
 40
0.0952380952380952
 40
0.1428571428571428
 40
0.1428571428571428
 40
0.1428571428571428
 40
0.1428571428571428
 40
0.1904761904761905
 40
0.1904761904761905
 40
0.1904761904761905
 40
0.1904761904761905
 40
0.2380952380952381
 40
0.2380952380952381
 40
0.2380952380952381
 40
0.2380952380952381
 40
0.2857142857142857
 40
0.2857142857142857
 40
0.2857142857142857
 40
0.2857142857142857
 40
0.3333333333333333
 40
0.3333333333333333
 40
0.3333333333333333
 40
0.3333333333333333
 40
0.3809523809523809
 40
0.3809523809523809
 40
0.3809523809523809
 40
0.3809523809523809
 40
0.4285714285714285
 40
0.4285714285714285
 40
0.4285714285714285
 40
0.4285714285714285
 40
0.4761904761904762
 40
0.4761904761904762
 40
0.4761904761904762
 40
0.4761904761904762
 40
0.5238095238095238
 40
0.5238095238095238
 40
0.5238095238095238
 40
0.5238095238095238
 40
0.5714285714285714
 40
0.5714285714285714
 40
0.5714285714285714
 40
0.5714285714285714
 40
0.6190476190476191
 40
0.6190476190476191
 40
0.6190476190476191
 40
0.6190476190476191
 40
0.6666666666666666
 40
0.6666666666666666
 40
0.6666666666666666
 40
0.6666666666666666
 40
0.7142857142857143
 40
0.7142857142857143
 40
0.7142857142857143
 40
0.7142857142857143
 40
0.7619047619047619
 40
0.7619047619047619
 40
0.7619047619047619
 40
0.7619047619047619
 40
0.8095238095238095
 40
0.8095238095238095
 40
0.8095238095238095
 40
0.8095238095238095
 40
0.8571428571428571
 40
0.8571428571428571
 40
0.8571428571428571
 40
0.8571428571428571
 40
0.9047619047619048
 40
0.9047619047619048
 40
0.9047619047619048
 40
0.9047619047619048
 40
1.0
 40
1.0
 40
1.0
 40
1.0
 10
-13.7368
 20
7.1391
 30
0.0
 10
-13.7368
 20
7.1391
 30
0.0
 10
-13.6817
 20
12.552
 30
0.0
 10
-13.6817
 20
12.552
 30
0.0
 10
-13.6817
 20
12.552
 30
0.0
 10
-13.6817
 20
12.552
 30
0.0
 10
-17.8378
 20
12.8938
 30
0.0
 10
-17.8378
 20
12.8938
 30
0.0
 10
-17.8378
 20
12.8938
 30
0.0
 10
-17.8378
 20
12.8938
 30
0.0
 10
-18.1245
 20
13.0371
 30
0.0
 10
-18.1245
 20
13.0371
 30
0.0
 10
-18.1245
 20
13.0371
 30
0.0
 10
-18.1245
 20
13.0371
 30
0.0
 10
-18.6206
 20
13.5001
 30
0.0
 10
-18.6206
 20
13.5001
 30
0.0
 10
-18.6206
 20
13.5001
 30
0.0
 10
-18.6206
 20
13.5001
 30
0.0
 10
-18.6426
 20
13.7647
 30
0.0
 10
-18.6426
 20
13.7647
 30
0.0
 10
-18.6426
 20
13.7647
 30
0.0
 10
-18.6426
 20
13.7647
 30
0.0
 10
-18.4772
 20
13.8309
 30
0.0
 10
-18.4772
 20
13.8309
 30
0.0
 10
-18.4772
 20
13.8309
 30
0.0
 10
-18.4772
 20
13.8309
 30
0.0
 10
-6.2183
 20
13.7978
 30
0.0
 10
-6.2183
 20
13.7978
 30
0.0
 10
-6.2183
 20
13.7978
 30
0.0
 10
-6.2183
 20
13.7978
 30
0.0
 10
-6.2293
 20
14.5916
 30
0.0
 10
-6.2293
 20
14.5916
 30
0.0
 10
-6.2293
 20
14.5916
 30
0.0
 10
-6.2293
 20
14.5916
 30
0.0
 10
-12.1163
 20
14.5915
 30
0.0
 10
-12.1163
 20
14.5915
 30
0.0
 10
-12.1163
 20
14.5915
 30
0.0
 10
-12.1163
 20
14.5915
 30
0.0
 10
-12.1163
 20
15.0214
 30
0.0
 10
-12.1163
 20
15.0214
 30
0.0
 10
-12.1163
 20
15.0214
 30
0.0
 10
-12.1163
 20
15.0214
 30
0.0
 10
4.8064
 20
14.9993
 30
0.0
 10
4.8064
 20
14.9993
 30
0.0
 10
4.8064
 20
14.9993
 30
0.0
 10
4.8064
 20
14.9993
 30
0.0
 10
4.8615
 20
14.6025
 30
0.0
 10
4.8615
 20
14.6025
 30
0.0
 10
4.8615
 20
14.6025
 30
0.0
 10
4.8615
 20
14.6025
 30
0.0
 10
-1.0035
 20
14.5694
 30
0.0
 10
-1.0035
 20
14.5694
 30
0.0
 10
-1.0035
 20
14.5694
 30
0.0
 10
-1.0035
 20
14.5694
 30
0.0
 10
-1.0035
 20
13.8748
 30
0.0
 10
-1.0035
 20
13.8748
 30
0.0
 10
-1.0035
 20
13.8748
 30
0.0
 10
-1.0035
 20
13.8748
 30
0.0
 10
11.4427
 20
13.7644
 30
0.0
 10
11.4427
 20
13.7644
 30
0.0
 10
11.4427
 20
13.7644
 30
0.0
 10
11.4427
 20
13.7644
 30
0.0
 10
11.4096
 20
13.599
 30
0.0
 10
11.4096
 20
13.599
 30
0.0
 10
11.4096
 20
13.599
 30
0.0
 10
11.4096
 20
13.599
 30
0.0
 10
10.9025
 20
12.9596
 30
0.0
 10
10.8253
 20
12.9596
 30
0.0
 10
10.8253
 20
12.9596
 30
0.0
 10
10.7481
 20
12.9596
 30
0.0
 10
6.5258
 20
12.5076
 30
0.0
 10
6.5258
 20
12.5076
 30
0.0
 10
6.5258
 20
12.5076
 30
0.0
 10
6.5258
 20
12.5076
 30
0.0
 10
6.5252
 20
7.1219
 30
0.0
 10
6.5252
 20
7.1219
 30
0.0
 10
6.5252
 20
7.1219
 30
0.0
 10
6.5252
 20
7.1219
 30
0.0
 10
-13.7368
 20
7.1391
 30
0.0
 10
-13.7368
 20
7.1391
 30
0.0
  0
SPLINE
  5
44
330
1F
100
AcDbEntity
  8
Vrstva 1
 62
   250
370
    30
100
AcDbSpline
210
0.0
220
0.0
230
1.0
 70
    24
 71
     3
 72
     8
 73
     4
 74
     0
 42
0.0000000001
 43
0.0000000001
 40
0.0
 40
0.0
 40
0.0
 40
0.0
 40
1.0
 40
1.0
 40
1.0
 40
1.0
 10
-13.6954
 20
12.5202
 30
0.0
 10
-13.6954
 20
12.5202
 30
0.0
 10
-13.6954
 20
7.3584
 30
0.0
 10
-13.6954
 20
7.3584
 30
0.0
  0
SPLINE
  5
45
330
1F
100
AcDbEntity
  8
Vrstva 1
 62
   250
370
    30
100
AcDbSpline
210
0.0
220
0.0
230
1.0
 70
    24
 71
     3
 72
     8
 73
     4
 74
     0
 42
0.0000000001
 43
0.0000000001
 40
0.0
 40
0.0
 40
0.0
 40
0.0
 40
1.0
 40
1.0
 40
1.0
 40
1.0
 10
6.5218
 20
12.5202
 30
0.0
 10
6.5218
 20
12.5202
 30
0.0
 10
6.5218
 20
7.3584
 30
0.0
 10
6.5218
 20
7.3584
 30
0.0
  0
SPLINE
  5
46
330
1F
100
AcDbEntity
  8
Vrstva 1
 62
   250
370
    30
100
AcDbSpline
210
0.0
220
0.0
230
1.0
 70
    24
 71
     3
 72
     8
 73
     4
 74
     0
 42
0.0000000001
 43
0.0000000001
 40
0.0
 40
0.0
 40
0.0
 40
0.0
 40
1.0
 40
1.0
 40
1.0
 40
1.0
 10
-3.1802
 20
7.3584
 30
0.0
 10
-3.1802
 20
7.3584
 30
0.0
 10
6.5612
 20
7.9642
 30
0.0
 10
6.5612
 20
7.9642
 30
0.0
  0
SPLINE
  5
47
330
1F
100
AcDbEntity
  8
Vrstva 1
 62
   250
370
    30
100
AcDbSpline
210
0.0
220
0.0
230
1.0
 70
    24
 71
     3
 72
     8
 73
     4
 74
     0
 42
0.0000000001
 43
0.0000000001
 40
0.0
 40
0.0
 40
0.0
 40
0.0
 40
1.0
 40
1.0
 40
1.0
 40
1.0
 10
-13.7376
 20
11.8625
 30
0.0
 10
-13.7376
 20
11.8625
 30
0.0
 10
-3.1613
 20
12.5202
 30
0.0
 10
-3.1613
 20
12.5202
 30
0.0
  0
SPLINE
  5
48
330
1F
100
AcDbEntity
  8
Vrstva 1
 62
   250
370
    30
100
AcDbSpline
210
0.0
220
0.0
230
1.0
 70
    24
 71
     3
 72
     8
 73
     4
 74
     0
 42
0.0000000001
 43
0.0000000001
 40
0.0
 40
0.0
 40
0.0
 40
0.0
 40
1.0
 40
1.0
 40
1.0
 40
1.0
 10
-13.7423
 20
11.2185
 30
0.0
 10
-13.7423
 20
11.2185
 30
0.0
 10
6.4152
 20
12.4721
 30
0.0
 10
6.4152
 20
12.4721
 30
0.0
  0
SPLINE
  5
49
330
1F
100
AcDbEntity
  8
Vrstva 1
 62
   250
370
    30
100
AcDbSpline
210
0.0
220
0.0
230
1.0
 70
    24
 71
     3
 72
     8
 73
     4
 74
     0
 42
0.0000000001
 43
0.0000000001
 40
0.0
 40
0.0
 40
0.0
 40
0.0
 40
1.0
 40
1.0
 40
1.0
 40
1.0
 10
-13.7023
 20
10.5745
 30
0.0
 10
-13.7023
 20
10.5745
 30
0.0
 10
6.4553
 20
11.8281
 30
0.0
 10
6.4553
 20
11.8281
 30
0.0
  0
SPLINE
  5
4A
330
1F
100
AcDbEntity
  8
Vrstva 1
 62
   250
370
    30
100
AcDbSpline
210
0.0
220
0.0
230
1.0
 70
    24
 71
     3
 72
     8
 73
     4
 74
     0
 42
0.0000000001
 43
0.0000000001
 40
0.0
 40
0.0
 40
0.0
 40
0.0
 40
1.0
 40
1.0
 40
1.0
 40
1.0
 10
-13.6623
 20
9.9305
 30
0.0
 10
-13.6623
 20
9.9305
 30
0.0
 10
6.4953
 20
11.1841
 30
0.0
 10
6.4953
 20
11.1841
 30
0.0
  0
SPLINE
  5
4B
330
1F
100
AcDbEntity
  8
Vrstva 1
 62
   250
370
    30
100
AcDbSpline
210
0.0
220
0.0
230
1.0
 70
    24
 71
     3
 72
     8
 73
     4
 74
     0
 42
0.0000000001
 43
0.0000000001
 40
0.0
 40
0.0
 40
0.0
 40
0.0
 40
1.0
 40
1.0
 40
1.0
 40
1.0
 10
-13.667
 20
9.2865
 30
0.0
 10
-13.667
 20
9.2865
 30
0.0
 10
6.4906
 20
10.5401
 30
0.0
 10
6.4906
 20
10.5401
 30
0.0
  0
SPLINE
  5
4C
330
1F
100
AcDbEntity
  8
Vrstva 1
 62
   250
370
    30
100
AcDbSpline
210
0.0
220
0.0
230
1.0
 70
    24
 71
     3
 72
     8
 73
     4
 74
     0
 42
0.0000000001
 43
0.0000000001
 40
0.0
 40
0.0
 40
0.0
 40
0.0
 40
1.0
 40
1.0
 40
1.0
 40
1.0
 10
-13.627
 20
8.6426
 30
0.0
 10
-13.627
 20
8.6426
 30
0.0
 10
6.5306
 20
9.8961
 30
0.0
 10
6.5306
 20
9.8961
 30
0.0
  0
SPLINE
  5
4D
330
1F
100
AcDbEntity
  8
Vrstva 1
 62
   250
370
    30
100
AcDbSpline
210
0.0
220
0.0
230
1.0
 70
    24
 71
     3
 72
     8
 73
     4
 74
     0
 42
0.0000000001
 43
0.0000000001
 40
0.0
 40
0.0
 40
0.0
 40
0.0
 40
1.0
 40
1.0
 40
1.0
 40
1.0
 10
-13.6765
 20
7.9986
 30
0.0
 10
-13.6765
 20
7.9986
 30
0.0
 10
6.4811
 20
9.2522
 30
0.0
 10
6.4811
 20
9.2522
 30
0.0
  0
SPLINE
  5
4E
330
1F
100
AcDbEntity
  8
Vrstva 1
 62
   250
370
    30
100
AcDbSpline
210
0.0
220
0.0
230
1.0
 70
    24
 71
     3
 72
     8
 73
     4
 74
     0
 42
0.0000000001
 43
0.0000000001
 40
0.0
 40
0.0
 40
0.0
 40
0.0
 40
1.0
 40
1.0
 40
1.0
 40
1.0
 10
-13.6365
 20
7.3546
 30
0.0
 10
-13.6365
 20
7.3546
 30
0.0
 10
6.5211
 20
8.6081
 30
0.0
 10
6.5211
 20
8.6081
 30
0.0
  0
SPLINE
  5
4F
330
1F
100
AcDbEntity
  8
Vrstva 1
 62
   250
370
    30
100
AcDbSpline
210
0.0
220
0.0
230
1.0
 70
    11
 71
     3
 72
    36
 73
    32
 74
     0
 42
0.0000000001
 43
0.0000000001
 40
0.0
 40
0.0
 40
0.0
 40
0.0
 40
0.1111111111111111
 40
0.1111111111111111
 40
0.1111111111111111
 40
0.1111111111111111
 40
0.2222222222222222
 40
0.2222222222222222
 40
0.2222222222222222
 40
0.2222222222222222
 40
0.3333333333333333
 40
0.3333333333333333
 40
0.3333333333333333
 40
0.3333333333333333
 40
0.4444444444444444
 40
0.4444444444444444
 40
0.4444444444444444
 40
0.4444444444444444
 40
0.5555555555555556
 40
0.5555555555555556
 40
0.5555555555555556
 40
0.5555555555555556
 40
0.6666666666666666
 40
0.6666666666666666
 40
0.6666666666666666
 40
0.6666666666666666
 40
0.7777777777777778
 40
0.7777777777777778
 40
0.7777777777777778
 40
0.7777777777777778
 40
1.0
 40
1.0
 40
1.0
 40
1.0
 10
-13.7444
 20
12.5653
 30
0.0
 10
-13.7444
 20
12.5653
 30
0.0
 10
-18.0525
 20
12.9399
 30
0.0
 10
-18.0525
 20
12.9399
 30
0.0
 10
-18.0525
 20
12.9399
 30
0.0
 10
-18.0525
 20
12.9399
 30
0.0
 10
-18.6678
 20
13.5578
 30
0.0
 10
-18.6678
 20
13.5578
 30
0.0
 10
-18.6678
 20
13.5578
 30
0.0
 10
-18.6678
 20
13.5578
 30
0.0
 10
-18.6678
 20
13.8439
 30
0.0
 10
-18.6678
 20
13.8439
 30
0.0
 10
-18.6678
 20
13.8439
 30
0.0
 10
-18.6678
 20
13.8439
 30
0.0
 10
11.4665
 20
13.8119
 30
0.0
 10
11.4665
 20
13.8119
 30
0.0
 10
11.4665
 20
13.8119
 30
0.0
 10
11.4665
 20
13.8119
 30
0.0
 10
11.4665
 20
13.5895
 30
0.0
 10
11.4665
 20
13.5895
 30
0.0
 10
11.4665
 20
13.5895
 30
0.0
 10
11.4665
 20
13.5895
 30
0.0
 10
10.8638
 20
12.9857
 30
0.0
 10
10.8638
 20
12.9857
 30
0.0
 10
10.8638
 20
12.9857
 30
0.0
 10
10.8638
 20
12.9857
 30
0.0
 10
6.4546
 20
12.5089
 30
0.0
 10
6.4546
 20
12.5089
 30
0.0
 10
6.4546
 20
12.5089
 30
0.0
 10
6.4546
 20
12.5089
 30
0.0
 10
-13.7444
 20
12.5653
 30
0.0
 10
-13.7444
 20
12.5653
 30
0.0
  0
SPLINE
  5
50
330
1F
100
AcDbEntity
  8
Vrstva 1
 62
   250
370
    30
100
AcDbSpline
210
0.0
220
0.0
230
1.0
 70
     8
 71
     3
 72
    16
 73
    12
 74
     0
 42
0.0000000001
 43
0.0000000001
 40
0.0
 40
0.0
 40
0.0
 40
0.0
 40
0.25
 40
0.25
 40
0.25
 40
0.25
 40
0.5
 40
0.5
 40
0.5
 40
0.5
 40
1.0
 40
1.0
 40
1.0
 40
1.0
 10
-12.1482
 20
18.4596
 30
0.0
 10
-12.1482
 20
18.4596
 30
0.0
 10
-12.1297
 20
16.7418
 30
0.0
 10
-12.1297
 20
16.7418
 30
0.0
 10
-12.1297
 20
16.7418
 30
0.0
 10
-12.1297
 20
16.7418
 30
0.0
 10
4.8779
 20
16.7418
 30
0.0
 10
4.8779
 20
16.7418
 30
0.0
 10
4.8779
 20
16.7418
 30
0.0
 10
4.8779
 20
16.7418
 30
0.0
 10
4.8539
 20
18.4596
 30
0.0
 10
4.8539
 20
18.4596
 30
0.0
  0
SPLINE
  5
51
330
1F
100
AcDbEntity
  8
Vrstva 1
 62
   250
370
    30
100
AcDbSpline
210
0.0
220
0.0
230
1.0
 70
    24
 71
     3
 72
     8
 73
     4
 74
     0
 42
0.0000000001
 43
0.0000000001
 40
0.0
 40
0.0
 40
0.0
 40
0.0
 40
1.0
 40
1.0
 40
1.0
 40
1.0
 10
-11.936
 20
16.7418
 30
0.0
 10
-11.936
 20
16.7418
 30
0.0
 10
-11.936
 20
16.1791
 30
0.0
 10
-11.936
 20
16.1791
 30
0.0
  0
SPLINE
  5
52
330
1F
100
AcDbEntity
  8
Vrstva 1
 62
   250
370
    30
100
AcDbSpline
210
0.0
220
0.0
230
1.0
 70
    24
 71
     3
 72
     8
 73
     4
 74
     0
 42
0.0000000001
 43
0.0000000001
 40
0.0
 40
0.0
 40
0.0
 40
0.0
 40
1.0
 40
1.0
 40
1.0
 40
1.0
 10
-11.936
 20
15.5822
 30
0.0
 10
-11.936
 20
15.5822
 30
0.0
 10
-11.936
 20
15.0195
 30
0.0
 10
-11.936
 20
15.0195
 30
0.0
  0
SPLINE
  5
53
330
1F
100
AcDbEntity
  8
Vrstva 1
 62
   250
370
    30
100
AcDbSpline
210
0.0
220
0.0
230
1.0
 70
    24
 71
     3
 72
     8
 73
     4
 74
     0
 42
0.0000000001
 43
0.0000000001
 40
0.0
 40
0.0
 40
0.0
 40
0.0
 40
1.0
 40
1.0
 40
1.0
 40
1.0
 10
-6.2093
 20
14.589
 30
0.0
 10
-6.2093
 20
14.589
 30
0.0
 10
-6.2093
 20
13.857
 30
0.0
 10
-6.2093
 20
13.857
 30
0.0
  0
SPLINE
  5
54
330
1F
100
AcDbEntity
  8
Vrstva 1
 62
   250
370
    30
100
AcDbSpline
210
0.0
220
0.0
230
1.0
 70
    24
 71
     3
 72
     8
 73
     4
 74
     0
 42
0.0000000001
 43
0.0000000001
 40
0.0
 40
0.0
 40
0.0
 40
0.0
 40
1.0
 40
1.0
 40
1.0
 40
1.0
 10
-1.0424
 20
14.589
 30
0.0
 10
-1.0424
 20
14.589
 30
0.0
 10
-1.0424
 20
13.857
 30
0.0
 10
-1.0424
 20
13.857
 30
0.0
  0
SPLINE
  5
55
330
1F
100
AcDbEntity
  8
Vrstva 1
 62
   250
370
    30
100
AcDbSpline
210
0.0
220
0.0
230
1.0
 70
    24
 71
     3
 72
     8
 73
     4
 74
     0
 42
0.0000000001
 43
0.0000000001
 40
0.0
 40
0.0
 40
0.0
 40
0.0
 40
1.0
 40
1.0
 40
1.0
 40
1.0
 10
4.6841
 20
16.7418
 30
0.0
 10
4.6841
 20
16.7418
 30
0.0
 10
4.6841
 20
16.1791
 30
0.0
 10
4.6841
 20
16.1791
 30
0.0
  0
SPLINE
  5
56
330
1F
100
AcDbEntity
  8
Vrstva 1
 62
   250
370
    30
100
AcDbSpline
210
0.0
220
0.0
230
1.0
 70
    24
 71
     3
 72
     8
 73
     4
 74
     0
 42
0.0000000001
 43
0.0000000001
 40
0.0
 40
0.0
 40
0.0
 40
0.0
 40
1.0
 40
1.0
 40
1.0
 40
1.0
 10
4.6841
 20
15.5822
 30
0.0
 10
4.6841
 20
15.5822
 30
0.0
 10
4.6841
 20
15.0195
 30
0.0
 10
4.6841
 20
15.0195
 30
0.0
  0
SPLINE
  5
57
330
1F
100
AcDbEntity
  8
Vrstva 1
 62
   250
370
    30
100
AcDbSpline
210
0.0
220
0.0
230
1.0
 70
    11
 71
     3
 72
    24
 73
    20
 74
     0
 42
0.0000000001
 43
0.0000000001
 40
0.0
 40
0.0
 40
0.0
 40
0.0
 40
0.1666666666666667
 40
0.1666666666666667
 40
0.1666666666666667
 40
0.1666666666666667
 40
0.3333333333333333
 40
0.3333333333333333
 40
0.3333333333333333
 40
0.3333333333333333
 40
0.5
 40
0.5
 40
0.5
 40
0.5
 40
0.6666666666666666
 40
0.6666666666666666
 40
0.6666666666666666
 40
0.6666666666666666
 40
1.0
 40
1.0
 40
1.0
 40
1.0
 10
11.4441
 20
18.8946
 30
0.0
 10
1.9305
 20
23.5233
 30
0.0
 10
-9.1823
 20
23.5233
 30
0.0
 10
-18.696
 20
18.8946
 30
0.0
 10
-18.696
 20
18.8946
 30
0.0
 10
-18.696
 20
18.8946
 30
0.0
 10
-18.6946
 20
18.4338
 30
0.0
 10
-18.6946
 20
18.4338
 30
0.0
 10
-18.6946
 20
18.4338
 30
0.0
 10
-18.6946
 20
18.4338
 30
0.0
 10
-2.7772
 20
18.4641
 30
0.0
 10
-2.7772
 20
18.4641
 30
0.0
 10
-2.7772
 20
18.4641
 30
0.0
 10
-2.7772
 20
18.4641
 30
0.0
 10
11.4597
 20
18.486
 30
0.0
 10
11.4597
 20
18.486
 30
0.0
 10
11.4597
 20
18.486
 30
0.0
 10
11.4597
 20
18.486
 30
0.0
 10
11.4441
 20
18.8946
 30
0.0
 10
11.4441
 20
18.8946
 30
0.0
  0
SPLINE
  5
58
330
1F
100
AcDbEntity
  8
Vrstva 1
 62
   250
370
    30
100
AcDbSpline
210
0.0
220
0.0
230
1.0
 70
    11
 71
     3
 72
    44
 73
    40
 74
     0
 42
0.0000000001
 43
0.0000000001
 40
0.0
 40
0.0
 40
0.0
 40
0.0
 40
0.0909090909090909
 40
0.0909090909090909
 40
0.0909090909090909
 40
0.0909090909090909
 40
0.1818181818181818
 40
0.1818181818181818
 40
0.1818181818181818
 40
0.1818181818181818
 40
0.2727272727272727
 40
0.2727272727272727
 40
0.2727272727272727
 40
0.2727272727272727
 40
0.3636363636363636
 40
0.3636363636363636
 40
0.3636363636363636
 40
0.3636363636363636
 40
0.4545454545454545
 40
0.4545454545454545
 40
0.4545454545454545
 40
0.4545454545454545
 40
0.5454545454545454
 40
0.5454545454545454
 40
0.5454545454545454
 40
0.5454545454545454
 40
0.6363636363636364
 40
0.6363636363636364
 40
0.6363636363636364
 40
0.6363636363636364
 40
0.7272727272727273
 40
0.7272727272727273
 40
0.7272727272727273
 40
0.7272727272727273
 40
0.8181818181818182
 40
0.8181818181818182
 40
0.8181818181818182
 40
0.8181818181818182
 40
1.0
 40
1.0
 40
1.0
 40
1.0
 10
-12.9057
 20
15.71
 30
0.0
 10
-12.9914
 20
15.7213
 30
0.0
 10
-13.0555
 20
15.7943
 30
0.0
 10
-13.0555
 20
15.8807
 30
0.0
 10
-13.0555
 20
15.8807
 30
0.0
 10
-13.0555
 20
15.9672
 30
0.0
 10
-12.9914
 20
16.0402
 30
0.0
 10
-12.9057
 20
16.0515
 30
0.0
 10
-12.9057
 20
16.0515
 30
0.0
 10
-12.9057
 20
16.0515
 30
0.0
 10
-11.7643
 20
16.1696
 30
0.0
 10
-11.7643
 20
16.1696
 30
0.0
 10
-11.7643
 20
16.1696
 30
0.0
 10
-11.7643
 20
16.1696
 30
0.0
 10
4.7077
 20
16.2065
 30
0.0
 10
4.7077
 20
16.2065
 30
0.0
 10
4.7077
 20
16.2065
 30
0.0
 10
4.7077
 20
16.2065
 30
0.0
 10
5.8044
 20
15.9866
 30
0.0
 10
5.8044
 20
15.9866
 30
0.0
 10
5.8044
 20
15.9866
 30
0.0
 10
5.8044
 20
15.9866
 30
0.0
 10
5.8044
 20
15.84
 30
0.0
 10
5.8044
 20
15.84
 30
0.0
 10
5.8044
 20
15.84
 30
0.0
 10
5.8044
 20
15.84
 30
0.0
 10
5.5852
 20
15.7483
 30
0.0
 10
5.5852
 20
15.7483
 30
0.0
 10
5.5852
 20
15.7483
 30
0.0
 10
5.5852
 20
15.7483
 30
0.0
 10
4.6893
 20
15.6385
 30
0.0
 10
4.6893
 20
15.6385
 30
0.0
 10
4.6893
 20
15.6385
 30
0.0
 10
4.6893
 20
15.6385
 30
0.0
 10
-11.9654
 20
15.5653
 30
0.0
 10
-11.9654
 20
15.5653
 30
0.0
 10
-11.9654
 20
15.5653
 30
0.0
 10
-11.9654
 20
15.5653
 30
0.0
 10
-12.9057
 20
15.71
 30
0.0
 10
-12.9057
 20
15.71
 30
0.0
  0
SPLINE
  5
59
330
1F
100
AcDbEntity
  8
Vrstva 1
 62
   250
370
    30
100
AcDbSpline
210
0.0
220
0.0
230
1.0
 70
    11
 71
     3
 72
    20
 73
    16
 74
     0
 42
0.0000000001
 43
0.0000000001
 40
0.0
 40
0.0
 40
0.0
 40
0.0
 40
0.2
 40
0.2
 40
0.2
 40
0.2
 40
0.4
 40
0.4
 40
0.4
 40
0.4
 40
0.6
 40
0.6
 40
0.6
 40
0.6
 40
1.0
 40
1.0
 40
1.0
 40
1.0
 10
-12.1427
 20
15.0143
 30
0.0
 10
-12.1427
 20
15.0143
 30
0.0
 10
4.8623
 20
15.0143
 30
0.0
 10
4.8623
 20
15.0143
 30
0.0
 10
4.8623
 20
15.0143
 30
0.0
 10
4.8623
 20
15.0143
 30
0.0
 10
4.8623
 20
14.5859
 30
0.0
 10
4.8623
 20
14.5859
 30
0.0
 10
4.8623
 20
14.5859
 30
0.0
 10
4.8623
 20
14.5859
 30
0.0
 10
-12.1427
 20
14.5859
 30
0.0
 10
-12.1427
 20
14.5859
 30
0.0
 10
-12.1427
 20
14.5859
 30
0.0
 10
-12.1427
 20
14.5859
 30
0.0
 10
-12.1427
 20
15.0143
 30
0.0
 10
-12.1427
 20
15.0143
 30
0.0
  0
SPLINE
  5
5A
330
1F
100
AcDbEntity
  8
Vrstva 1
 62
   250
370
    15
100
AcDbSpline
210
0.0
220
0.0
230
1.0
 70
    24
 71
     3
 72
     8
 73
     4
 74
     0
 42
0.0000000001
 43
0.0000000001
 40
0.0
 40
0.0
 40
0.0
 40
0.0
 40
1.0
 40
1.0
 40
1.0
 40
1.0
 10
29.6673
 20
-22.2275
 30
0.0
 10
29.6673
 20
-22.2275
 30
0.0
 10
35.5243
 20
-22.2275
 30
0.0
 10
35.5243
 20
-22.2275
 30
0.0
  0
SPLINE
  5
5B
330
1F
100
AcDbEntity
  8
Vrstva 1
 62
   250
370
    15
100
AcDbSpline
210
0.0
220
0.0
230
1.0
 70
    24
 71
     3
 72
     8
 73
     4
 74
     0
 42
0.0000000001
 43
0.0000000001
 40
0.0
 40
0.0
 40
0.0
 40
0.0
 40
1.0
 40
1.0
 40
1.0
 40
1.0
 10
29.7334
 20
-6.4064
 30
0.0
 10
29.7334
 20
-6.4064
 30
0.0
 10
35.392
 20
-6.4064
 30
0.0
 10
35.392
 20
-6.4064
 30
0.0
  0
SPLINE
  5
5C
330
1F
100
AcDbEntity
  8
Vrstva 1
  6
New Line1
 62
   250
370
    15
100
AcDbSpline
210
0.0
220
0.0
230
1.0
 70
    24
 71
     3
 72
     8
 73
     4
 74
     0
 42
0.0000000001
 43
0.0000000001
 40
0.0
 40
0.0
 40
0.0
 40
0.0
 40
1.0
 40
1.0
 40
1.0
 40
1.0
 10
-12.4116
 20
-14.6131
 30
0.0
 10
-12.4116
 20
-14.6131
 30
0.0
 10
29.8658
 20
-14.6131
 30
0.0
 10
29.8658
 20
-14.6131
 30
0.0
  0
SPLINE
  5
5E
330
1F
100
AcDbEntity
  8
Vrstva 1
  6
New Line2
 62
   250
370
    15
100
AcDbSpline
210
0.0
220
0.0
230
1.0
 70
    24
 71
     3
 72
     8
 73
     4
 74
     0
 42
0.0000000001
 43
0.0000000001
 40
0.0
 40
0.0
 40
0.0
 40
0.0
 40
1.0
 40
1.0
 40
1.0
 40
1.0
 10
-3.6496
 20
-21.5538
 30
0.0
 10
-3.6496
 20
-21.5538
 30
0.0
 10
-3.6496
 20
21.5328
 30
0.0
 10
-3.6496
 20
21.5328
 30
0.0
  0
SPLINE
  5
60
330
1F
100
AcDbEntity
  8
Vrstva 1
 62
   250
370
    15
100
AcDbSpline
210
0.0
220
0.0
230
1.0
 70
    24
 71
     3
 72
     8
 73
     4
 74
     0
 42
0.0000000001
 43
0.0000000001
 40
0.0
 40
0.0
 40
0.0
 40
0.0
 40
1.0
 40
1.0
 40
1.0
 40
1.0
 10
11.4211
 20
19.3327
 30
0.0
 10
11.4211
 20
19.3327
 30
0.0
 10
11.4211
 20
24.5754
 30
0.0
 10
11.4211
 20
24.5754
 30
0.0
  0
SPLINE
  5
61
330
1F
100
AcDbEntity
  8
Vrstva 1
 62
   250
370
    15
100
AcDbSpline
210
0.0
220
0.0
230
1.0
 70
    24
 71
     3
 72
     8
 73
     4
 74
     0
 42
0.0000000001
 43
0.0000000001
 40
0.0
 40
0.0
 40
0.0
 40
0.0
 40
1.0
 40
1.0
 40
1.0
 40
1.0
 10
-18.7551
 20
19.3191
 30
0.0
 10
-18.7551
 20
19.3191
 30
0.0
 10
-18.7551
 20
24.4432
 30
0.0
 10
-18.7551
 20
24.4432
 30
0.0
  0
SPLINE
  5
62
330
1F
100
AcDbEntity
  8
Vrstva 1
 62
   250
370
    15
100
AcDbSpline
210
0.0
220
0.0
230
1.0
 70
    24
 71
     3
 72
     8
 73
     4
 74
     0
 42
0.0000000001
 43
0.0000000001
 40
0.0
 40
0.0
 40
0.0
 40
0.0
 40
1.0
 40
1.0
 40
1.0
 40
1.0
 10
-25.7965
 20
3.9884
 30
0.0
 10
-25.7965
 20
3.9884
 30
0.0
 10
-28.8723
 20
3.9884
 30
0.0
 10
-28.8723
 20
3.9884
 30
0.0
  0
SPLINE
  5
63
330
1F
100
AcDbEntity
  8
Vrstva 1
 62
   250
370
    15
100
AcDbSpline
210
0.0
220
0.0
230
1.0
 70
    24
 71
     3
 72
     8
 73
     4
 74
     0
 42
0.0000000001
 43
0.0000000001
 40
0.0
 40
0.0
 40
0.0
 40
0.0
 40
1.0
 40
1.0
 40
1.0
 40
1.0
 10
-22.351
 20
7.111
 30
0.0
 10
-22.351
 20
7.111
 30
0.0
 10
-33.0143
 20
7.111
 30
0.0
 10
-33.0143
 20
7.111
 30
0.0
  0
SPLINE
  5
64
330
1F
100
AcDbEntity
  8
Vrstva 1
 62
   250
370
    15
100
AcDbSpline
210
0.0
220
0.0
230
1.0
 70
    24
 71
     3
 72
     8
 73
     4
 74
     0
 42
0.0000000001
 43
0.0000000001
 40
0.0
 40
0.0
 40
0.0
 40
0.0
 40
1.0
 40
1.0
 40
1.0
 40
1.0
 10
-20.212
 20
-27.1716
 30
0.0
 10
-20.212
 20
-27.1716
 30
0.0
 10
-32.9401
 20
-27.1716
 30
0.0
 10
-32.9401
 20
-27.1716
 30
0.0
  0
SPLINE
  5
65
330
1F
100
AcDbEntity
  8
Vrstva 1
 62
   250
370
    13
100
AcDbSpline
210
0.0
220
0.0
230
1.0
 70
    24
 71
     3
 72
     8
 73
     4
 74
     0
 42
0.0000000001
 43
0.0000000001
 40
0.0
 40
0.0
 40
0.0
 40
0.0
 40
1.0
 40
1.0
 40
1.0
 40
1.0
 10
-28.5833
 20
3.8957
 30
0.0
 10
-28.5833
 20
3.8957
 30
0.0
 10
-28.5833
 20
-26.5569
 30
0.0
 10
-28.5833
 20
-26.5569
 30
0.0
  0
SPLINE
  5
66
330
1F
100
AcDbEntity
  8
Vrstva 1
 62
   250
370
    13
100
AcDbSpline
210
0.0
220
0.0
230
1.0
 70
    24
 71
     3
 72
     8
 73
     4
 74
     0
 42
0.0000000001
 43
0.0000000001
 40
0.0
 40
0.0
 40
0.0
 40
0.0
 40
1.0
 40
1.0
 40
1.0
 40
1.0
 10
10.924
 20
23.7857
 30
0.0
 10
10.924
 20
23.7857
 30
0.0
 10
-18.2242
 20
23.7857
 30
0.0
 10
-18.2242
 20
23.7857
 30
0.0
  0
SPLINE
  5
67
330
1F
100
AcDbEntity
  8
Vrstva 1
 62
   250
100
AcDbSpline
210
0.0
220
0.0
230
1.0
 70
    11
 71
     3
 72
   104
 73
   100
 74
     0
 42
0.0000000001
 43
0.0000000001
 40
0.0
 40
0.0
 40
0.0
 40
0.0
 40
0.0384615384615385
 40
0.0384615384615385
 40
0.0384615384615385
 40
0.0384615384615385
 40
0.0769230769230769
 40
0.0769230769230769
 40
0.0769230769230769
 40
0.0769230769230769
 40
0.1153846153846154
 40
0.1153846153846154
 40
0.1153846153846154
 40
0.1153846153846154
 40
0.1538461538461539
 40
0.1538461538461539
 40
0.1538461538461539
 40
0.1538461538461539
 40
0.1923076923076923
 40
0.1923076923076923
 40
0.1923076923076923
 40
0.1923076923076923
 40
0.2307692307692308
 40
0.2307692307692308
 40
0.2307692307692308
 40
0.2307692307692308
 40
0.2692307692307692
 40
0.2692307692307692
 40
0.2692307692307692
 40
0.2692307692307692
 40
0.3076923076923077
 40
0.3076923076923077
 40
0.3076923076923077
 40
0.3076923076923077
 40
0.3461538461538461
 40
0.3461538461538461
 40
0.3461538461538461
 40
0.3461538461538461
 40
0.3846153846153846
 40
0.3846153846153846
 40
0.3846153846153846
 40
0.3846153846153846
 40
0.4230769230769231
 40
0.4230769230769231
 40
0.4230769230769231
 40
0.4230769230769231
 40
0.4615384615384616
 40
0.4615384615384616
 40
0.4615384615384616
 40
0.4615384615384616
 40
0.5
 40
0.5
 40
0.5
 40
0.5
 40
0.5384615384615384
 40
0.5384615384615384
 40
0.5384615384615384
 40
0.5384615384615384
 40
0.5769230769230769
 40
0.5769230769230769
 40
0.5769230769230769
 40
0.5769230769230769
 40
0.6153846153846154
 40
0.6153846153846154
 40
0.6153846153846154
 40
0.6153846153846154
 40
0.6538461538461539
 40
0.6538461538461539
 40
0.6538461538461539
 40
0.6538461538461539
 40
0.6923076923076923
 40
0.6923076923076923
 40
0.6923076923076923
 40
0.6923076923076923
 40
0.7307692307692307
 40
0.7307692307692307
 40
0.7307692307692307
 40
0.7307692307692307
 40
0.7692307692307693
 40
0.7692307692307693
 40
0.7692307692307693
 40
0.7692307692307693
 40
0.8076923076923077
 40
0.8076923076923077
 40
0.8076923076923077
 40
0.8076923076923077
 40
0.8461538461538461
 40
0.8461538461538461
 40
0.8461538461538461
 40
0.8461538461538461
 40
0.8846153846153846
 40
0.8846153846153846
 40
0.8846153846153846
 40
0.8846153846153846
 40
0.9230769230769231
 40
0.9230769230769231
 40
0.9230769230769231
 40
0.9230769230769231
 40
1.0
 40
1.0
 40
1.0
 40
1.0
 10
-5.8017
 20
24.238
 30
0.0
 10
-5.8017
 20
24.238
 30
0.0
 10
-5.5572
 20
24.5718
 30
0.0
 10
-5.5572
 20
24.5718
 30
0.0
 10
-5.5572
 20
24.5718
 30
0.0
 10
-5.4634
 20
24.5039
 30
0.0
 10
-5.3606
 20
24.4515
 30
0.0
 10
-5.2494
 20
24.4159
 30
0.0
 10
-5.2494
 20
24.4159
 30
0.0
 10
-5.1375
 20
24.3803
 30
0.0
 10
-5.0204
 20
24.3622
 30
0.0
 10
-4.8975
 20
24.3622
 30
0.0
 10
-4.8975
 20
24.3622
 30
0.0
 10
-4.7714
 20
24.3622
 30
0.0
 10
-4.6492
 20
24.381
 30
0.0
 10
-4.5321
 20
24.4178
 30
0.0
 10
-4.5321
 20
24.4178
 30
0.0
 10
-4.4151
 20
24.4547
 30
0.0
 10
-4.3064
 20
24.5097
 30
0.0
 10
-4.2068
 20
24.5834
 30
0.0
 10
-4.2068
 20
24.5834
 30
0.0
 10
-4.1066
 20
24.6565
 30
0.0
 10
-4.0192
 20
24.7483
 30
0.0
 10
-3.9442
 20
24.8583
 30
0.0
 10
-3.9442
 20
24.8583
 30
0.0
 10
-3.8698
 20
24.9682
 30
0.0
 10
-3.8116
 20
25.0963
 30
0.0
 10
-3.7696
 20
25.2431
 30
0.0
 10
-3.7696
 20
25.2431
 30
0.0
 10
-3.7282
 20
25.3893
 30
0.0
 10
-3.7069
 20
25.5535
 30
0.0
 10
-3.7062
 20
25.7359
 30
0.0
 10
-3.7062
 20
25.7359
 30
0.0
 10
-3.7062
 20
25.8646
 30
0.0
 10
-3.7191
 20
25.9869
 30
0.0
 10
-3.7457
 20
26.1033
 30
0.0
 10
-3.7457
 20
26.1033
 30
0.0
 10
-3.7715
 20
26.2203
 30
0.0
 10
-3.8097
 20
26.329
 30
0.0
 10
-3.8595
 20
26.4292
 30
0.0
 10
-3.8595
 20
26.4292
 30
0.0
 10
-3.9099
 20
26.5295
 30
0.0
 10
-3.9714
 20
26.6187
 30
0.0
 10
-4.0438
 20
26.6983
 30
0.0
 10
-4.0438
 20
26.6983
 30
0.0
 10
-4.0438
 20
26.6983
 30
0.0
 10
-3.8032
 20
27.032
 30
0.0
 10
-3.8032
 20
27.032
 30
0.0
 10
-3.8032
 20
27.032
 30
0.0
 10
-3.8032
 20
27.032
 30
0.0
 10
-4.0089
 20
27.1717
 30
0.0
 10
-4.0089
 20
27.1717
 30
0.0
 10
-4.0089
 20
27.1717
 30
0.0
 10
-4.0089
 20
27.1717
 30
0.0
 10
-4.2378
 20
26.8574
 30
0.0
 10
-4.2378
 20
26.8574
 30
0.0
 10
-4.2378
 20
26.8574
 30
0.0
 10
-4.3316
 20
26.9272
 30
0.0
 10
-4.4332
 20
26.9796
 30
0.0
 10
-4.5431
 20
27.0145
 30
0.0
 10
-4.5431
 20
27.0145
 30
0.0
 10
-4.6537
 20
27.0495
 30
0.0
 10
-4.7688
 20
27.0669
 30
0.0
 10
-4.8898
 20
27.0669
 30
0.0
 10
-4.8898
 20
27.0669
 30
0.0
 10
-5.0624
 20
27.0663
 30
0.0
 10
-5.2215
 20
27.0339
 30
0.0
 10
-5.3684
 20
26.9699
 30
0.0
 10
-5.3684
 20
26.9699
 30
0.0
 10
-5.5145
 20
26.9059
 30
0.0
 10
-5.6419
 20
26.8134
 30
0.0
 10
-5.7506
 20
26.6937
 30
0.0
 10
-5.7506
 20
26.6937
 30
0.0
 10
-5.8599
 20
26.5741
 30
0.0
 10
-5.944
 20
26.4305
 30
0.0
 10
-6.0048
 20
26.263
 30
0.0
 10
-6.0048
 20
26.263
 30
0.0
 10
-6.0649
 20
26.0955
 30
0.0
 10
-6.096
 20
25.9086
 30
0.0
 10
-6.0966
 20
25.701
 30
0.0
 10
-6.0966
 20
25.701
 30
0.0
 10
-6.0966
 20
25.5703
 30
0.0
 10
-6.0824
 20
25.4455
 30
0.0
 10
-6.0552
 20
25.3278
 30
0.0
 10
-6.0552
 20
25.3278
 30
0.0
 10
-6.028
 20
25.2101
 30
0.0
 10
-5.9886
 20
25.1008
 30
0.0
 10
-5.9375
 20
25.0006
 30
0.0
 10
-5.9375
 20
25.0006
 30
0.0
 10
-5.8858
 20
24.9003
 30
0.0
 10
-5.8237
 20
24.8104
 30
0.0
 10
-5.7512
 20
24.7309
 30
0.0
 10
-5.7512
 20
24.7309
 30
0.0
 10
-5.7512
 20
24.7309
 30
0.0
 10
-5.9918
 20
24.3933
 30
0.0
 10
-5.9918
 20
24.3933
 30
0.0
 10
-5.9918
 20
24.3933
 30
0.0
 10
-5.9918
 20
24.3933
 30
0.0
 10
-5.8017
 20
24.238
 30
0.0
 10
-5.8017
 20
24.238
 30
0.0
  0
SPLINE
  5
68
330
1F
100
AcDbEntity
  8
Vrstva 1
 62
   250
100
AcDbSpline
210
0.0
220
0.0
230
1.0
 70
    11
 71
     3
 72
    52
 73
    48
 74
     0
 42
0.0000000001
 43
0.0000000001
 40
0.0
 40
0.0
 40
0.0
 40
0.0
 40
0.0769230769230769
 40
0.0769230769230769
 40
0.0769230769230769
 40
0.0769230769230769
 40
0.1538461538461539
 40
0.1538461538461539
 40
0.1538461538461539
 40
0.1538461538461539
 40
0.2307692307692308
 40
0.2307692307692308
 40
0.2307692307692308
 40
0.2307692307692308
 40
0.3076923076923077
 40
0.3076923076923077
 40
0.3076923076923077
 40
0.3076923076923077
 40
0.3846153846153846
 40
0.3846153846153846
 40
0.3846153846153846
 40
0.3846153846153846
 40
0.4615384615384616
 40
0.4615384615384616
 40
0.4615384615384616
 40
0.4615384615384616
 40
0.5384615384615384
 40
0.5384615384615384
 40
0.5384615384615384
 40
0.5384615384615384
 40
0.6153846153846154
 40
0.6153846153846154
 40
0.6153846153846154
 40
0.6153846153846154
 40
0.6923076923076923
 40
0.6923076923076923
 40
0.6923076923076923
 40
0.6923076923076923
 40
0.7692307692307693
 40
0.7692307692307693
 40
0.7692307692307693
 40
0.7692307692307693
 40
0.8461538461538461
 40
0.8461538461538461
 40
0.8461538461538461
 40
0.8461538461538461
 40
1.0
 40
1.0
 40
1.0
 40
1.0
 10
-5.5533
 20
25.018
 30
0.0
 10
-5.5533
 20
25.018
 30
0.0
 10
-5.5611
 20
25.0141
 30
0.0
 10
-5.5611
 20
25.0141
 30
0.0
 10
-5.5611
 20
25.0141
 30
0.0
 10
-5.5999
 20
25.0808
 30
0.0
 10
-5.6335
 20
25.15
 30
0.0
 10
-5.662
 20
25.2211
 30
0.0
 10
-5.662
 20
25.2211
 30
0.0
 10
-5.6904
 20
25.2929
 30
0.0
 10
-5.7124
 20
25.3686
 30
0.0
 10
-5.728
 20
25.45
 30
0.0
 10
-5.728
 20
25.45
 30
0.0
 10
-5.7435
 20
25.5309
 30
0.0
 10
-5.7512
 20
25.6201
 30
0.0
 10
-5.7512
 20
25.7165
 30
0.0
 10
-5.7512
 20
25.7165
 30
0.0
 10
-5.7512
 20
25.8278
 30
0.0
 10
-5.7396
 20
25.9351
 30
0.0
 10
-5.717
 20
26.0405
 30
0.0
 10
-5.717
 20
26.0405
 30
0.0
 10
-5.6937
 20
26.1453
 30
0.0
 10
-5.6594
 20
26.2436
 30
0.0
 10
-5.6141
 20
26.3342
 30
0.0
 10
-5.6141
 20
26.3342
 30
0.0
 10
-5.5682
 20
26.4253
 30
0.0
 10
-5.5113
 20
26.5055
 30
0.0
 10
-5.4427
 20
26.5741
 30
0.0
 10
-5.4427
 20
26.5741
 30
0.0
 10
-5.3742
 20
26.6433
 30
0.0
 10
-5.2946
 20
26.697
 30
0.0
 10
-5.2041
 20
26.7358
 30
0.0
 10
-5.2041
 20
26.7358
 30
0.0
 10
-5.1129
 20
26.7752
 30
0.0
 10
-5.0107
 20
26.7946
 30
0.0
 10
-4.8975
 20
26.7953
 30
0.0
 10
-4.8975
 20
26.7953
 30
0.0
 10
-4.7986
 20
26.7946
 30
0.0
 10
-4.708
 20
26.7785
 30
0.0
 10
-4.6265
 20
26.7461
 30
0.0
 10
-4.6265
 20
26.7461
 30
0.0
 10
-4.5444
 20
26.7144
 30
0.0
 10
-4.4707
 20
26.6698
 30
0.0
 10
-4.4047
 20
26.6129
 30
0.0
 10
-4.4047
 20
26.6129
 30
0.0
 10
-4.4047
 20
26.6129
 30
0.0
 10
-5.5533
 20
25.018
 30
0.0
 10
-5.5533
 20
25.018
 30
0.0
  0
SPLINE
  5
69
330
1F
100
AcDbEntity
  8
Vrstva 1
 62
   250
100
AcDbSpline
210
0.0
220
0.0
230
1.0
 70
    11
 71
     3
 72
    48
 73
    44
 74
     0
 42
0.0000000001
 43
0.0000000001
 40
0.0
 40
0.0
 40
0.0
 40
0.0
 40
0.0833333333333333
 40
0.0833333333333333
 40
0.0833333333333333
 40
0.0833333333333333
 40
0.1666666666666667
 40
0.1666666666666667
 40
0.1666666666666667
 40
0.1666666666666667
 40
0.25
 40
0.25
 40
0.25
 40
0.25
 40
0.3333333333333333
 40
0.3333333333333333
 40
0.3333333333333333
 40
0.3333333333333333
 40
0.4166666666666667
 40
0.4166666666666667
 40
0.4166666666666667
 40
0.4166666666666667
 40
0.5
 40
0.5
 40
0.5
 40
0.5
 40
0.5833333333333334
 40
0.5833333333333334
 40
0.5833333333333334
 40
0.5833333333333334
 40
0.6666666666666666
 40
0.6666666666666666
 40
0.6666666666666666
 40
0.6666666666666666
 40
0.75
 40
0.75
 40
0.75
 40
0.75
 40
0.8333333333333334
 40
0.8333333333333334
 40
0.8333333333333334
 40
0.8333333333333334
 40
1.0
 40
1.0
 40
1.0
 40
1.0
 10
-4.2456
 20
26.4072
 30
0.0
 10
-4.2456
 20
26.4072
 30
0.0
 10
-4.234
 20
26.4072
 30
0.0
 10
-4.234
 20
26.4072
 30
0.0
 10
-4.234
 20
26.4072
 30
0.0
 10
-4.1667
 20
26.2947
 30
0.0
 10
-4.1195
 20
26.1809
 30
0.0
 10
-4.0917
 20
26.0658
 30
0.0
 10
-4.0917
 20
26.0658
 30
0.0
 10
-4.0639
 20
25.9513
 30
0.0
 10
-4.0503
 20
25.8375
 30
0.0
 10
-4.0516
 20
25.7243
 30
0.0
 10
-4.0516
 20
25.7243
 30
0.0
 10
-4.0516
 20
25.6066
 30
0.0
 10
-4.0639
 20
25.494
 30
0.0
 10
-4.0878
 20
25.386
 30
0.0
 10
-4.0878
 20
25.386
 30
0.0
 10
-4.1117
 20
25.278
 30
0.0
 10
-4.1473
 20
25.1784
 30
0.0
 10
-4.1939
 20
25.0872
 30
0.0
 10
-4.1939
 20
25.0872
 30
0.0
 10
-4.2411
 20
24.996
 30
0.0
 10
-4.2986
 20
24.9165
 30
0.0
 10
-4.3672
 20
24.8492
 30
0.0
 10
-4.3672
 20
24.8492
 30
0.0
 10
-4.4364
 20
24.7813
 30
0.0
 10
-4.5153
 20
24.7283
 30
0.0
 10
-4.6045
 20
24.6908
 30
0.0
 10
-4.6045
 20
24.6908
 30
0.0
 10
-4.6938
 20
24.6533
 30
0.0
 10
-4.7928
 20
24.6345
 30
0.0
 10
-4.9014
 20
24.6338
 30
0.0
 10
-4.9014
 20
24.6338
 30
0.0
 10
-5.0068
 20
24.6338
 30
0.0
 10
-5.0993
 20
24.65
 30
0.0
 10
-5.1776
 20
24.6817
 30
0.0
 10
-5.1776
 20
24.6817
 30
0.0
 10
-5.2565
 20
24.7134
 30
0.0
 10
-5.327
 20
24.76
 30
0.0
 10
-5.3904
 20
24.8201
 30
0.0
 10
-5.3904
 20
24.8201
 30
0.0
 10
-5.3904
 20
24.8201
 30
0.0
 10
-4.2456
 20
26.4072
 30
0.0
 10
-4.2456
 20
26.4072
 30
0.0
  0
SPLINE
  5
6A
330
1F
100
AcDbEntity
  8
Vrstva 1
 62
   250
100
AcDbSpline
210
0.0
220
0.0
230
1.0
 70
    11
 71
     3
 72
    36
 73
    32
 74
     0
 42
0.0000000001
 43
0.0000000001
 40
0.0
 40
0.0
 40
0.0
 40
0.0
 40
0.1111111111111111
 40
0.1111111111111111
 40
0.1111111111111111
 40
0.1111111111111111
 40
0.2222222222222222
 40
0.2222222222222222
 40
0.2222222222222222
 40
0.2222222222222222
 40
0.3333333333333333
 40
0.3333333333333333
 40
0.3333333333333333
 40
0.3333333333333333
 40
0.4444444444444444
 40
0.4444444444444444
 40
0.4444444444444444
 40
0.4444444444444444
 40
0.5555555555555556
 40
0.5555555555555556
 40
0.5555555555555556
 40
0.5555555555555556
 40
0.6666666666666666
 40
0.6666666666666666
 40
0.6666666666666666
 40
0.6666666666666666
 40
0.7777777777777778
 40
0.7777777777777778
 40
0.7777777777777778
 40
0.7777777777777778
 40
1.0
 40
1.0
 40
1.0
 40
1.0
 10
-3.3414
 20
26.9272
 30
0.0
 10
-3.3414
 20
26.9272
 30
0.0
 10
-3.3414
 20
26.6439
 30
0.0
 10
-3.3414
 20
26.6439
 30
0.0
 10
-3.3414
 20
26.6439
 30
0.0
 10
-3.3414
 20
26.6439
 30
0.0
 10
-2.1074
 20
26.6439
 30
0.0
 10
-2.1074
 20
26.6439
 30
0.0
 10
-2.1074
 20
26.6439
 30
0.0
 10
-2.1074
 20
26.6439
 30
0.0
 10
-2.1074
 20
26.6362
 30
0.0
 10
-2.1074
 20
26.6362
 30
0.0
 10
-2.1074
 20
26.6362
 30
0.0
 10
-2.1074
 20
26.6362
 30
0.0
 10
-3.2017
 20
24.4049
 30
0.0
 10
-3.2017
 20
24.4049
 30
0.0
 10
-3.2017
 20
24.4049
 30
0.0
 10
-3.2017
 20
24.4049
 30
0.0
 10
-2.8486
 20
24.4049
 30
0.0
 10
-2.8486
 20
24.4049
 30
0.0
 10
-2.8486
 20
24.4049
 30
0.0
 10
-2.8486
 20
24.4049
 30
0.0
 10
-1.7504
 20
26.7022
 30
0.0
 10
-1.7504
 20
26.7022
 30
0.0
 10
-1.7504
 20
26.7022
 30
0.0
 10
-1.7504
 20
26.7022
 30
0.0
 10
-1.7504
 20
26.9272
 30
0.0
 10
-1.7504
 20
26.9272
 30
0.0
 10
-1.7504
 20
26.9272
 30
0.0
 10
-1.7504
 20
26.9272
 30
0.0
 10
-3.3414
 20
26.9272
 30
0.0
 10
-3.3414
 20
26.9272
 30
0.0
  0
SPLINE
  5
6B
330
1F
100
AcDbEntity
  8
Vrstva 1
 62
   250
100
AcDbSpline
210
0.0
220
0.0
230
1.0
 70
    11
 71
     3
 72
    56
 73
    52
 74
     0
 42
0.0000000001
 43
0.0000000001
 40
0.0
 40
0.0
 40
0.0
 40
0.0
 40
0.0714285714285714
 40
0.0714285714285714
 40
0.0714285714285714
 40
0.0714285714285714
 40
0.1428571428571428
 40
0.1428571428571428
 40
0.1428571428571428
 40
0.1428571428571428
 40
0.2142857142857143
 40
0.2142857142857143
 40
0.2142857142857143
 40
0.2142857142857143
 40
0.2857142857142857
 40
0.2857142857142857
 40
0.2857142857142857
 40
0.2857142857142857
 40
0.3571428571428572
 40
0.3571428571428572
 40
0.3571428571428572
 40
0.3571428571428572
 40
0.4285714285714285
 40
0.4285714285714285
 40
0.4285714285714285
 40
0.4285714285714285
 40
0.5
 40
0.5
 40
0.5
 40
0.5
 40
0.5714285714285714
 40
0.5714285714285714
 40
0.5714285714285714
 40
0.5714285714285714
 40
0.6428571428571429
 40
0.6428571428571429
 40
0.6428571428571429
 40
0.6428571428571429
 40
0.7142857142857143
 40
0.7142857142857143
 40
0.7142857142857143
 40
0.7142857142857143
 40
0.7857142857142857
 40
0.7857142857142857
 40
0.7857142857142857
 40
0.7857142857142857
 40
0.8571428571428571
 40
0.8571428571428571
 40
0.8571428571428571
 40
0.8571428571428571
 40
1.0
 40
1.0
 40
1.0
 40
1.0
 10
-0.5513
 20
26.9699
 30
0.0
 10
-0.68
 20
26.9699
 30
0.0
 10
-0.7977
 20
26.9415
 30
0.0
 10
-0.9051
 20
26.8845
 30
0.0
 10
-0.9051
 20
26.8845
 30
0.0
 10
-1.0125
 20
26.8276
 30
0.0
 10
-1.1049
 20
26.7442
 30
0.0
 10
-1.1838
 20
26.633
 30
0.0
 10
-1.1838
 20
26.633
 30
0.0
 10
-1.2628
 20
26.5217
 30
0.0
 10
-1.3235
 20
26.3846
 30
0.0
 10
-1.3669
 20
26.2216
 30
0.0
 10
-1.3669
 20
26.2216
 30
0.0
 10
-1.4096
 20
26.0586
 30
0.0
 10
-1.4316
 20
25.8711
 30
0.0
 10
-1.4322
 20
25.6583
 30
0.0
 10
-1.4322
 20
25.6583
 30
0.0
 10
-1.4283
 20
25.3796
 30
0.0
 10
-1.3915
 20
25.1441
 30
0.0
 10
-1.321
 20
24.9514
 30
0.0
 10
-1.321
 20
24.9514
 30
0.0
 10
-1.2505
 20
24.7587
 30
0.0
 10
-1.1528
 20
24.6125
 30
0.0
 10
-1.0286
 20
24.5129
 30
0.0
 10
-1.0286
 20
24.5129
 30
0.0
 10
-0.9045
 20
24.4133
 30
0.0
 10
-0.7596
 20
24.3629
 30
0.0
 10
-0.594
 20
24.3622
 30
0.0
 10
-0.594
 20
24.3622
 30
0.0
 10
-0.4084
 20
24.3629
 30
0.0
 10
-0.2506
 20
24.4146
 30
0.0
 10
-0.1199
 20
24.5168
 30
0.0
 10
-0.1199
 20
24.5168
 30
0.0
 10
0.0107
 20
24.619
 30
0.0
 10
0.1103
 20
24.769
 30
0.0
 10
0.1789
 20
24.9669
 30
0.0
 10
0.1789
 20
24.9669
 30
0.0
 10
0.2481
 20
25.1648
 30
0.0
 10
0.2823
 20
25.4067
 30
0.0
 10
0.283
 20
25.6932
 30
0.0
 10
0.283
 20
25.6932
 30
0.0
 10
0.2823
 20
25.9616
 30
0.0
 10
0.2493
 20
26.1912
 30
0.0
 10
0.184
 20
26.3814
 30
0.0
 10
0.184
 20
26.3814
 30
0.0
 10
0.1187
 20
26.5715
 30
0.0
 10
0.0236
 20
26.717
 30
0.0
 10
-0.1005
 20
26.8173
 30
0.0
 10
-0.1005
 20
26.8173
 30
0.0
 10
-0.2247
 20
26.9182
 30
0.0
 10
-0.3748
 20
26.9693
 30
0.0
 10
-0.5513
 20
26.9699
 30
0.0
  0
SPLINE
  5
6C
330
1F
100
AcDbEntity
  8
Vrstva 1
 62
   250
100
AcDbSpline
210
0.0
220
0.0
230
1.0
 70
    11
 71
     3
 72
    56
 73
    52
 74
     0
 42
0.0000000001
 43
0.0000000001
 40
0.0
 40
0.0
 40
0.0
 40
0.0
 40
0.0714285714285714
 40
0.0714285714285714
 40
0.0714285714285714
 40
0.0714285714285714
 40
0.1428571428571428
 40
0.1428571428571428
 40
0.1428571428571428
 40
0.1428571428571428
 40
0.2142857142857143
 40
0.2142857142857143
 40
0.2142857142857143
 40
0.2142857142857143
 40
0.2857142857142857
 40
0.2857142857142857
 40
0.2857142857142857
 40
0.2857142857142857
 40
0.3571428571428572
 40
0.3571428571428572
 40
0.3571428571428572
 40
0.3571428571428572
 40
0.4285714285714285
 40
0.4285714285714285
 40
0.4285714285714285
 40
0.4285714285714285
 40
0.5
 40
0.5
 40
0.5
 40
0.5
 40
0.5714285714285714
 40
0.5714285714285714
 40
0.5714285714285714
 40
0.5714285714285714
 40
0.6428571428571429
 40
0.6428571428571429
 40
0.6428571428571429
 40
0.6428571428571429
 40
0.7142857142857143
 40
0.7142857142857143
 40
0.7142857142857143
 40
0.7142857142857143
 40
0.7857142857142857
 40
0.7857142857142857
 40
0.7857142857142857
 40
0.7857142857142857
 40
0.8571428571428571
 40
0.8571428571428571
 40
0.8571428571428571
 40
0.8571428571428571
 40
1.0
 40
1.0
 40
1.0
 40
1.0
 10
-0.5746
 20
26.706
 30
0.0
 10
-0.4854
 20
26.7054
 30
0.0
 10
-0.4084
 20
26.6815
 30
0.0
 10
-0.3437
 20
26.633
 30
0.0
 10
-0.3437
 20
26.633
 30
0.0
 10
-0.279
 20
26.5844
 30
0.0
 10
-0.226
 20
26.5152
 30
0.0
 10
-0.1846
 20
26.4247
 30
0.0
 10
-0.1846
 20
26.4247
 30
0.0
 10
-0.1432
 20
26.3348
 30
0.0
 10
-0.1122
 20
26.2261
 30
0.0
 10
-0.0921
 20
26.1007
 30
0.0
 10
-0.0921
 20
26.1007
 30
0.0
 10
-0.0721
 20
25.9746
 30
0.0
 10
-0.0624
 20
25.8336
 30
0.0
 10
-0.0624
 20
25.6777
 30
0.0
 10
-0.0624
 20
25.6777
 30
0.0
 10
-0.0624
 20
25.4617
 30
0.0
 10
-0.0811
 20
25.2754
 30
0.0
 10
-0.1187
 20
25.1189
 30
0.0
 10
-0.1187
 20
25.1189
 30
0.0
 10
-0.1555
 20
24.9618
 30
0.0
 10
-0.2124
 20
24.8408
 30
0.0
 10
-0.2881
 20
24.7554
 30
0.0
 10
-0.2881
 20
24.7554
 30
0.0
 10
-0.3638
 20
24.6701
 30
0.0
 10
-0.4595
 20
24.6274
 30
0.0
 10
-0.5746
 20
24.6261
 30
0.0
 10
-0.5746
 20
24.6261
 30
0.0
 10
-0.6787
 20
24.6267
 30
0.0
 10
-0.7686
 20
24.6668
 30
0.0
 10
-0.8456
 20
24.747
 30
0.0
 10
-0.8456
 20
24.747
 30
0.0
 10
-0.9219
 20
24.8272
 30
0.0
 10
-0.9808
 20
24.9436
 30
0.0
 10
-1.0228
 20
25.0963
 30
0.0
 10
-1.0228
 20
25.0963
 30
0.0
 10
-1.0648
 20
25.2496
 30
0.0
 10
-1.0862
 20
25.4352
 30
0.0
 10
-1.0868
 20
25.6544
 30
0.0
 10
-1.0868
 20
25.6544
 30
0.0
 10
-1.0862
 20
25.884
 30
0.0
 10
-1.0636
 20
26.0761
 30
0.0
 10
-1.0196
 20
26.2326
 30
0.0
 10
-1.0196
 20
26.2326
 30
0.0
 10
-0.9756
 20
26.3885
 30
0.0
 10
-0.9154
 20
26.5062
 30
0.0
 10
-0.8385
 20
26.5864
 30
0.0
 10
-0.8385
 20
26.5864
 30
0.0
 10
-0.7615
 20
26.6659
 30
0.0
 10
-0.6736
 20
26.706
 30
0.0
 10
-0.5746
 20
26.706
 30
0.0
  0
SPLINE
  5
6D
330
1F
100
AcDbEntity
  8
Vrstva 1
 62
   250
100
AcDbSpline
210
0.0
220
0.0
230
1.0
 70
    11
 71
     3
 72
    36
 73
    32
 74
     0
 42
0.0000000001
 43
0.0000000001
 40
0.0
 40
0.0
 40
0.0
 40
0.0
 40
0.1111111111111111
 40
0.1111111111111111
 40
0.1111111111111111
 40
0.1111111111111111
 40
0.2222222222222222
 40
0.2222222222222222
 40
0.2222222222222222
 40
0.2222222222222222
 40
0.3333333333333333
 40
0.3333333333333333
 40
0.3333333333333333
 40
0.3333333333333333
 40
0.4444444444444444
 40
0.4444444444444444
 40
0.4444444444444444
 40
0.4444444444444444
 40
0.5555555555555556
 40
0.5555555555555556
 40
0.5555555555555556
 40
0.5555555555555556
 40
0.6666666666666666
 40
0.6666666666666666
 40
0.6666666666666666
 40
0.6666666666666666
 40
0.7777777777777778
 40
0.7777777777777778
 40
0.7777777777777778
 40
0.7777777777777778
 40
1.0
 40
1.0
 40
1.0
 40
1.0
 10
-31.7793
 20
-12.7836
 30
0.0
 10
-31.7793
 20
-12.7836
 30
0.0
 10
-31.496
 20
-12.7836
 30
0.0
 10
-31.496
 20
-12.7836
 30
0.0
 10
-31.496
 20
-12.7836
 30
0.0
 10
-31.496
 20
-12.7836
 30
0.0
 10
-31.496
 20
-11.5496
 30
0.0
 10
-31.496
 20
-11.5496
 30
0.0
 10
-31.496
 20
-11.5496
 30
0.0
 10
-31.496
 20
-11.5496
 30
0.0
 10
-31.4882
 20
-11.5496
 30
0.0
 10
-31.4882
 20
-11.5496
 30
0.0
 10
-31.4882
 20
-11.5496
 30
0.0
 10
-31.4882
 20
-11.5496
 30
0.0
 10
-29.2569
 20
-12.6439
 30
0.0
 10
-29.2569
 20
-12.6439
 30
0.0
 10
-29.2569
 20
-12.6439
 30
0.0
 10
-29.2569
 20
-12.6439
 30
0.0
 10
-29.2569
 20
-12.2908
 30
0.0
 10
-29.2569
 20
-12.2908
 30
0.0
 10
-29.2569
 20
-12.2908
 30
0.0
 10
-29.2569
 20
-12.2908
 30
0.0
 10
-31.5542
 20
-11.1926
 30
0.0
 10
-31.5542
 20
-11.1926
 30
0.0
 10
-31.5542
 20
-11.1926
 30
0.0
 10
-31.5542
 20
-11.1926
 30
0.0
 10
-31.7793
 20
-11.1926
 30
0.0
 10
-31.7793
 20
-11.1926
 30
0.0
 10
-31.7793
 20
-11.1926
 30
0.0
 10
-31.7793
 20
-11.1926
 30
0.0
 10
-31.7793
 20
-12.7836
 30
0.0
 10
-31.7793
 20
-12.7836
 30
0.0
  0
SPLINE
  5
6E
330
1F
100
AcDbEntity
  8
Vrstva 1
 62
   250
100
AcDbSpline
210
0.0
220
0.0
230
1.0
 70
    11
 71
     3
 72
   124
 73
   120
 74
     0
 42
0.0000000001
 43
0.0000000001
 40
0.0
 40
0.0
 40
0.0
 40
0.0
 40
0.032258064516129
 40
0.032258064516129
 40
0.032258064516129
 40
0.032258064516129
 40
0.0645161290322581
 40
0.0645161290322581
 40
0.0645161290322581
 40
0.0645161290322581
 40
0.0967741935483871
 40
0.0967741935483871
 40
0.0967741935483871
 40
0.0967741935483871
 40
0.1290322580645161
 40
0.1290322580645161
 40
0.1290322580645161
 40
0.1290322580645161
 40
0.1612903225806452
 40
0.1612903225806452
 40
0.1612903225806452
 40
0.1612903225806452
 40
0.1935483870967742
 40
0.1935483870967742
 40
0.1935483870967742
 40
0.1935483870967742
 40
0.2258064516129032
 40
0.2258064516129032
 40
0.2258064516129032
 40
0.2258064516129032
 40
0.2580645161290323
 40
0.2580645161290323
 40
0.2580645161290323
 40
0.2580645161290323
 40
0.2903225806451613
 40
0.2903225806451613
 40
0.2903225806451613
 40
0.2903225806451613
 40
0.3225806451612903
 40
0.3225806451612903
 40
0.3225806451612903
 40
0.3225806451612903
 40
0.3548387096774194
 40
0.3548387096774194
 40
0.3548387096774194
 40
0.3548387096774194
 40
0.3870967741935484
 40
0.3870967741935484
 40
0.3870967741935484
 40
0.3870967741935484
 40
0.4193548387096774
 40
0.4193548387096774
 40
0.4193548387096774
 40
0.4193548387096774
 40
0.4516129032258064
 40
0.4516129032258064
 40
0.4516129032258064
 40
0.4516129032258064
 40
0.4838709677419355
 40
0.4838709677419355
 40
0.4838709677419355
 40
0.4838709677419355
 40
0.5161290322580645
 40
0.5161290322580645
 40
0.5161290322580645
 40
0.5161290322580645
 40
0.5483870967741935
 40
0.5483870967741935
 40
0.5483870967741935
 40
0.5483870967741935
 40
0.5806451612903226
 40
0.5806451612903226
 40
0.5806451612903226
 40
0.5806451612903226
 40
0.6129032258064516
 40
0.6129032258064516
 40
0.6129032258064516
 40
0.6129032258064516
 40
0.6451612903225806
 40
0.6451612903225806
 40
0.6451612903225806
 40
0.6451612903225806
 40
0.6774193548387096
 40
0.6774193548387096
 40
0.6774193548387096
 40
0.6774193548387096
 40
0.7096774193548387
 40
0.7096774193548387
 40
0.7096774193548387
 40
0.7096774193548387
 40
0.7419354838709677
 40
0.7419354838709677
 40
0.7419354838709677
 40
0.7419354838709677
 40
0.7741935483870968
 40
0.7741935483870968
 40
0.7741935483870968
 40
0.7741935483870968
 40
0.8064516129032258
 40
0.8064516129032258
 40
0.8064516129032258
 40
0.8064516129032258
 40
0.8387096774193549
 40
0.8387096774193549
 40
0.8387096774193549
 40
0.8387096774193549
 40
0.8709677419354839
 40
0.8709677419354839
 40
0.8709677419354839
 40
0.8709677419354839
 40
0.9032258064516129
 40
0.9032258064516129
 40
0.9032258064516129
 40
0.9032258064516129
 40
0.9354838709677419
 40
0.9354838709677419
 40
0.9354838709677419
 40
0.9354838709677419
 40
1.0
 40
1.0
 40
1.0
 40
1.0
 10
-29.2569
 20
-9.229
 30
0.0
 10
-29.2569
 20
-9.229
 30
0.0
 10
-29.5402
 20
-9.229
 30
0.0
 10
-29.5402
 20
-9.229
 30
0.0
 10
-29.5402
 20
-9.229
 30
0.0
 10
-29.5402
 20
-9.229
 30
0.0
 10
-29.5402
 20
-10.3583
 30
0.0
 10
-29.5402
 20
-10.3583
 30
0.0
 10
-29.5402
 20
-10.3583
 30
0.0
 10
-29.5402
 20
-10.3583
 30
0.0
 10
-29.5479
 20
-10.3583
 30
0.0
 10
-29.5479
 20
-10.3583
 30
0.0
 10
-29.5479
 20
-10.3583
 30
0.0
 10
-29.5479
 20
-10.3583
 30
0.0
 10
-29.7342
 20
-10.1604
 30
0.0
 10
-29.7342
 20
-10.1604
 30
0.0
 10
-29.7342
 20
-10.1604
 30
0.0
 10
-29.8616
 20
-10.0271
 30
0.0
 10
-29.9826
 20
-9.9068
 30
0.0
 10
-30.0964
 20
-9.8001
 30
0.0
 10
-30.0964
 20
-9.8001
 30
0.0
 10
-30.2102
 20
-9.6934
 30
0.0
 10
-30.3215
 20
-9.6022
 30
0.0
 10
-30.4288
 20
-9.5265
 30
0.0
 10
-30.4288
 20
-9.5265
 30
0.0
 10
-30.5362
 20
-9.4502
 30
0.0
 10
-30.6442
 20
-9.3927
 30
0.0
 10
-30.7529
 20
-9.3519
 30
0.0
 10
-30.7529
 20
-9.3519
 30
0.0
 10
-30.8609
 20
-9.3118
 30
0.0
 10
-30.9728
 20
-9.2918
 30
0.0
 10
-31.0885
 20
-9.2911
 30
0.0
 10
-31.0885
 20
-9.2911
 30
0.0
 10
-31.1797
 20
-9.2911
 30
0.0
 10
-31.269
 20
-9.3053
 30
0.0
 10
-31.3557
 20
-9.3351
 30
0.0
 10
-31.3557
 20
-9.3351
 30
0.0
 10
-31.4423
 20
-9.3648
 30
0.0
 10
-31.5206
 20
-9.4114
 30
0.0
 10
-31.5904
 20
-9.4735
 30
0.0
 10
-31.5904
 20
-9.4735
 30
0.0
 10
-31.6609
 20
-9.5356
 30
0.0
 10
-31.7166
 20
-9.6158
 30
0.0
 10
-31.7579
 20
-9.7135
 30
0.0
 10
-31.7579
 20
-9.7135
 30
0.0
 10
-31.8
 20
-9.8111
 30
0.0
 10
-31.8213
 20
-9.9275
 30
0.0
 10
-31.822
 20
-10.0634
 30
0.0
 10
-31.822
 20
-10.0634
 30
0.0
 10
-31.8213
 20
-10.1591
 30
0.0
 10
-31.8103
 20
-10.2503
 30
0.0
 10
-31.7877
 20
-10.3369
 30
0.0
 10
-31.7877
 20
-10.3369
 30
0.0
 10
-31.7651
 20
-10.4236
 30
0.0
 10
-31.7347
 20
-10.5038
 30
0.0
 10
-31.6959
 20
-10.5775
 30
0.0
 10
-31.6959
 20
-10.5775
 30
0.0
 10
-31.6577
 20
-10.6506
 30
0.0
 10
-31.6144
 20
-10.7159
 30
0.0
 10
-31.5659
 20
-10.7735
 30
0.0
 10
-31.5659
 20
-10.7735
 30
0.0
 10
-31.5659
 20
-10.7735
 30
0.0
 10
-31.3253
 20
-10.6648
 30
0.0
 10
-31.3253
 20
-10.6648
 30
0.0
 10
-31.3253
 20
-10.6648
 30
0.0
 10
-31.3582
 20
-10.626
 30
0.0
 10
-31.3912
 20
-10.5795
 30
0.0
 10
-31.4236
 20
-10.5251
 30
0.0
 10
-31.4236
 20
-10.5251
 30
0.0
 10
-31.4566
 20
-10.4708
 30
0.0
 10
-31.4831
 20
-10.4107
 30
0.0
 10
-31.5051
 20
-10.344
 30
0.0
 10
-31.5051
 20
-10.344
 30
0.0
 10
-31.5264
 20
-10.2774
 30
0.0
 10
-31.538
 20
-10.2056
 30
0.0
 10
-31.5387
 20
-10.1293
 30
0.0
 10
-31.5387
 20
-10.1293
 30
0.0
 10
-31.538
 20
-10.0355
 30
0.0
 10
-31.5245
 20
-9.9566
 30
0.0
 10
-31.4979
 20
-9.8926
 30
0.0
 10
-31.4979
 20
-9.8926
 30
0.0
 10
-31.4708
 20
-9.8292
 30
0.0
 10
-31.4346
 20
-9.7781
 30
0.0
 10
-31.3886
 20
-9.74
 30
0.0
 10
-31.3886
 20
-9.74
 30
0.0
 10
-31.3421
 20
-9.7018
 30
0.0
 10
-31.2897
 20
-9.674
 30
0.0
 10
-31.2308
 20
-9.6572
 30
0.0
 10
-31.2308
 20
-9.6572
 30
0.0
 10
-31.172
 20
-9.6404
 30
0.0
 10
-31.1105
 20
-9.632
 30
0.0
 10
-31.0459
 20
-9.6326
 30
0.0
 10
-31.0459
 20
-9.6326
 30
0.0
 10
-30.9514
 20
-9.6326
 30
0.0
 10
-30.8583
 20
-9.6514
 30
0.0
 10
-30.7658
 20
-9.6889
 30
0.0
 10
-30.7658
 20
-9.6889
 30
0.0
 10
-30.6727
 20
-9.7264
 30
0.0
 10
-30.5757
 20
-9.7833
 30
0.0
 10
-30.4735
 20
-9.8603
 30
0.0
 10
-30.4735
 20
-9.8603
 30
0.0
 10
-30.3713
 20
-9.9372
 30
0.0
 10
-30.2594
 20
-10.0349
 30
0.0
 10
-30.1378
 20
-10.1533
 30
0.0
 10
-30.1378
 20
-10.1533
 30
0.0
 10
-30.0162
 20
-10.271
 30
0.0
 10
-29.8791
 20
-10.4107
 30
0.0
 10
-29.7265
 20
-10.5717
 30
0.0
 10
-29.7265
 20
-10.5717
 30
0.0
 10
-29.7265
 20
-10.5717
 30
0.0
 10
-29.4665
 20
-10.8395
 30
0.0
 10
-29.4665
 20
-10.8395
 30
0.0
 10
-29.4665
 20
-10.8395
 30
0.0
 10
-29.4665
 20
-10.8395
 30
0.0
 10
-29.2569
 20
-10.8395
 30
0.0
 10
-29.2569
 20
-10.8395
 30
0.0
 10
-29.2569
 20
-10.8395
 30
0.0
 10
-29.2569
 20
-10.8395
 30
0.0
 10
-29.2569
 20
-9.229
 30
0.0
 10
-29.2569
 20
-9.229
 30
0.0
  0
SPLINE
  5
6F
330
1F
100
AcDbEntity
  8
Vrstva 1
 62
   250
100
AcDbSpline
210
0.0
220
0.0
230
1.0
 70
    11
 71
     3
 72
    48
 73
    44
 74
     0
 42
0.0000000001
 43
0.0000000001
 40
0.0
 40
0.0
 40
0.0
 40
0.0
 40
0.0833333333333333
 40
0.0833333333333333
 40
0.0833333333333333
 40
0.0833333333333333
 40
0.1666666666666667
 40
0.1666666666666667
 40
0.1666666666666667
 40
0.1666666666666667
 40
0.25
 40
0.25
 40
0.25
 40
0.25
 40
0.3333333333333333
 40
0.3333333333333333
 40
0.3333333333333333
 40
0.3333333333333333
 40
0.4166666666666667
 40
0.4166666666666667
 40
0.4166666666666667
 40
0.4166666666666667
 40
0.5
 40
0.5
 40
0.5
 40
0.5
 40
0.5833333333333334
 40
0.5833333333333334
 40
0.5833333333333334
 40
0.5833333333333334
 40
0.6666666666666666
 40
0.6666666666666666
 40
0.6666666666666666
 40
0.6666666666666666
 40
0.75
 40
0.75
 40
0.75
 40
0.75
 40
0.8333333333333334
 40
0.8333333333333334
 40
0.8333333333333334
 40
0.8333333333333334
 40
1.0
 40
1.0
 40
1.0
 40
1.0
 10
3.8771
 20
-5.3061
 30
0.0
 10
3.8771
 20
-5.3061
 30
0.0
 10
3.1864
 20
-5.3061
 30
0.0
 10
3.1864
 20
-5.3061
 30
0.0
 10
3.1864
 20
-5.3061
 30
0.0
 10
3.1864
 20
-5.3061
 30
0.0
 10
3.1864
 20
-4.9529
 30
0.0
 10
3.1864
 20
-4.9529
 30
0.0
 10
3.1864
 20
-4.9529
 30
0.0
 10
3.1864
 20
-4.9529
 30
0.0
 10
2.9225
 20
-4.9529
 30
0.0
 10
2.9225
 20
-4.9529
 30
0.0
 10
2.9225
 20
-4.9529
 30
0.0
 10
2.9225
 20
-4.9529
 30
0.0
 10
2.9225
 20
-5.3061
 30
0.0
 10
2.9225
 20
-5.3061
 30
0.0
 10
2.9225
 20
-5.3061
 30
0.0
 10
2.9225
 20
-5.3061
 30
0.0
 10
1.3547
 20
-5.3061
 30
0.0
 10
1.3547
 20
-5.3061
 30
0.0
 10
1.3547
 20
-5.3061
 30
0.0
 10
1.3547
 20
-5.3061
 30
0.0
 10
1.3547
 20
-5.6747
 30
0.0
 10
1.3547
 20
-5.6747
 30
0.0
 10
1.3547
 20
-5.6747
 30
0.0
 10
1.3547
 20
-5.6747
 30
0.0
 10
2.9652
 20
-6.8001
 30
0.0
 10
2.9652
 20
-6.8001
 30
0.0
 10
2.9652
 20
-6.8001
 30
0.0
 10
2.9652
 20
-6.8001
 30
0.0
 10
3.1864
 20
-6.8001
 30
0.0
 10
3.1864
 20
-6.8001
 30
0.0
 10
3.1864
 20
-6.8001
 30
0.0
 10
3.1864
 20
-6.8001
 30
0.0
 10
3.1864
 20
-5.6281
 30
0.0
 10
3.1864
 20
-5.6281
 30
0.0
 10
3.1864
 20
-5.6281
 30
0.0
 10
3.1864
 20
-5.6281
 30
0.0
 10
3.8771
 20
-5.6281
 30
0.0
 10
3.8771
 20
-5.6281
 30
0.0
 10
3.8771
 20
-5.6281
 30
0.0
 10
3.8771
 20
-5.6281
 30
0.0
 10
3.8771
 20
-5.3061
 30
0.0
 10
3.8771
 20
-5.3061
 30
0.0
  0
SPLINE
  5
70
330
1F
100
AcDbEntity
  8
Vrstva 1
 62
   250
100
AcDbSpline
210
0.0
220
0.0
230
1.0
 70
    11
 71
     3
 72
    36
 73
    32
 74
     0
 42
0.0000000001
 43
0.0000000001
 40
0.0
 40
0.0
 40
0.0
 40
0.0
 40
0.1111111111111111
 40
0.1111111111111111
 40
0.1111111111111111
 40
0.1111111111111111
 40
0.2222222222222222
 40
0.2222222222222222
 40
0.2222222222222222
 40
0.2222222222222222
 40
0.3333333333333333
 40
0.3333333333333333
 40
0.3333333333333333
 40
0.3333333333333333
 40
0.4444444444444444
 40
0.4444444444444444
 40
0.4444444444444444
 40
0.4444444444444444
 40
0.5555555555555556
 40
0.5555555555555556
 40
0.5555555555555556
 40
0.5555555555555556
 40
0.6666666666666666
 40
0.6666666666666666
 40
0.6666666666666666
 40
0.6666666666666666
 40
0.7777777777777778
 40
0.7777777777777778
 40
0.7777777777777778
 40
0.7777777777777778
 40
1.0
 40
1.0
 40
1.0
 40
1.0
 10
2.9225
 20
-6.4547
 30
0.0
 10
2.9225
 20
-6.4547
 30
0.0
 10
2.9147
 20
-6.4547
 30
0.0
 10
2.9147
 20
-6.4547
 30
0.0
 10
2.9147
 20
-6.4547
 30
0.0
 10
2.9147
 20
-6.4547
 30
0.0
 10
2.0571
 20
-5.8377
 30
0.0
 10
2.0571
 20
-5.8377
 30
0.0
 10
2.0571
 20
-5.8377
 30
0.0
 10
1.9995
 20
-5.8034
 30
0.0
 10
1.9413
 20
-5.7691
 30
0.0
 10
1.8825
 20
-5.7355
 30
0.0
 10
1.8825
 20
-5.7355
 30
0.0
 10
1.823
 20
-5.7025
 30
0.0
 10
1.757
 20
-5.6663
 30
0.0
 10
1.6846
 20
-5.6281
 30
0.0
 10
1.6846
 20
-5.6281
 30
0.0
 10
1.6846
 20
-5.6281
 30
0.0
 10
1.6846
 20
-5.6165
 30
0.0
 10
1.6846
 20
-5.6165
 30
0.0
 10
1.6846
 20
-5.6165
 30
0.0
 10
1.8165
 20
-5.6243
 30
0.0
 10
1.9484
 20
-5.6281
 30
0.0
 10
2.0804
 20
-5.6281
 30
0.0
 10
2.0804
 20
-5.6281
 30
0.0
 10
2.0804
 20
-5.6281
 30
0.0
 10
2.9225
 20
-5.6281
 30
0.0
 10
2.9225
 20
-5.6281
 30
0.0
 10
2.9225
 20
-5.6281
 30
0.0
 10
2.9225
 20
-5.6281
 30
0.0
 10
2.9225
 20
-6.4547
 30
0.0
 10
2.9225
 20
-6.4547
 30
0.0
  0
SPLINE
  5
71
330
1F
100
AcDbEntity
  8
Vrstva 1
 62
   250
100
AcDbSpline
210
0.0
220
0.0
230
1.0
 70
    11
 71
     3
 72
   196
 73
   192
 74
     0
 42
0.0000000001
 43
0.0000000001
 40
0.0
 40
0.0
 40
0.0
 40
0.0
 40
0.0204081632653061
 40
0.0204081632653061
 40
0.0204081632653061
 40
0.0204081632653061
 40
0.0408163265306122
 40
0.0408163265306122
 40
0.0408163265306122
 40
0.0408163265306122
 40
0.0612244897959184
 40
0.0612244897959184
 40
0.0612244897959184
 40
0.0612244897959184
 40
0.0816326530612245
 40
0.0816326530612245
 40
0.0816326530612245
 40
0.0816326530612245
 40
0.1020408163265306
 40
0.1020408163265306
 40
0.1020408163265306
 40
0.1020408163265306
 40
0.1224489795918367
 40
0.1224489795918367
 40
0.1224489795918367
 40
0.1224489795918367
 40
0.1428571428571428
 40
0.1428571428571428
 40
0.1428571428571428
 40
0.1428571428571428
 40
0.163265306122449
 40
0.163265306122449
 40
0.163265306122449
 40
0.163265306122449
 40
0.1836734693877551
 40
0.1836734693877551
 40
0.1836734693877551
 40
0.1836734693877551
 40
0.2040816326530612
 40
0.2040816326530612
 40
0.2040816326530612
 40
0.2040816326530612
 40
0.2244897959183673
 40
0.2244897959183673
 40
0.2244897959183673
 40
0.2244897959183673
 40
0.2448979591836735
 40
0.2448979591836735
 40
0.2448979591836735
 40
0.2448979591836735
 40
0.2653061224489796
 40
0.2653061224489796
 40
0.2653061224489796
 40
0.2653061224489796
 40
0.2857142857142857
 40
0.2857142857142857
 40
0.2857142857142857
 40
0.2857142857142857
 40
0.3061224489795918
 40
0.3061224489795918
 40
0.3061224489795918
 40
0.3061224489795918
 40
0.3265306122448979
 40
0.3265306122448979
 40
0.3265306122448979
 40
0.3265306122448979
 40
0.3469387755102041
 40
0.3469387755102041
 40
0.3469387755102041
 40
0.3469387755102041
 40
0.3673469387755102
 40
0.3673469387755102
 40
0.3673469387755102
 40
0.3673469387755102
 40
0.3877551020408163
 40
0.3877551020408163
 40
0.3877551020408163
 40
0.3877551020408163
 40
0.4081632653061225
 40
0.4081632653061225
 40
0.4081632653061225
 40
0.4081632653061225
 40
0.4285714285714285
 40
0.4285714285714285
 40
0.4285714285714285
 40
0.4285714285714285
 40
0.4489795918367347
 40
0.4489795918367347
 40
0.4489795918367347
 40
0.4489795918367347
 40
0.4693877551020408
 40
0.4693877551020408
 40
0.4693877551020408
 40
0.4693877551020408
 40
0.4897959183673469
 40
0.4897959183673469
 40
0.4897959183673469
 40
0.4897959183673469
 40
0.5102040816326531
 40
0.5102040816326531
 40
0.5102040816326531
 40
0.5102040816326531
 40
0.5306122448979592
 40
0.5306122448979592
 40
0.5306122448979592
 40
0.5306122448979592
 40
0.5510204081632653
 40
0.5510204081632653
 40
0.5510204081632653
 40
0.5510204081632653
 40
0.5714285714285714
 40
0.5714285714285714
 40
0.5714285714285714
 40
0.5714285714285714
 40
0.5918367346938775
 40
0.5918367346938775
 40
0.5918367346938775
 40
0.5918367346938775
 40
0.6122448979591837
 40
0.6122448979591837
 40
0.6122448979591837
 40
0.6122448979591837
 40
0.6326530612244898
 40
0.6326530612244898
 40
0.6326530612244898
 40
0.6326530612244898
 40
0.6530612244897959
 40
0.6530612244897959
 40
0.6530612244897959
 40
0.6530612244897959
 40
0.673469387755102
 40
0.673469387755102
 40
0.673469387755102
 40
0.673469387755102
 40
0.6938775510204082
 40
0.6938775510204082
 40
0.6938775510204082
 40
0.6938775510204082
 40
0.7142857142857143
 40
0.7142857142857143
 40
0.7142857142857143
 40
0.7142857142857143
 40
0.7346938775510204
 40
0.7346938775510204
 40
0.7346938775510204
 40
0.7346938775510204
 40
0.7551020408163265
 40
0.7551020408163265
 40
0.7551020408163265
 40
0.7551020408163265
 40
0.7755102040816326
 40
0.7755102040816326
 40
0.7755102040816326
 40
0.7755102040816326
 40
0.7959183673469388
 40
0.7959183673469388
 40
0.7959183673469388
 40
0.7959183673469388
 40
0.8163265306122449
 40
0.8163265306122449
 40
0.8163265306122449
 40
0.8163265306122449
 40
0.8367346938775511
 40
0.8367346938775511
 40
0.8367346938775511
 40
0.8367346938775511
 40
0.8571428571428571
 40
0.8571428571428571
 40
0.8571428571428571
 40
0.8571428571428571
 40
0.8775510204081632
 40
0.8775510204081632
 40
0.8775510204081632
 40
0.8775510204081632
 40
0.8979591836734694
 40
0.8979591836734694
 40
0.8979591836734694
 40
0.8979591836734694
 40
0.9183673469387755
 40
0.9183673469387755
 40
0.9183673469387755
 40
0.9183673469387755
 40
0.9387755102040817
 40
0.9387755102040817
 40
0.9387755102040817
 40
0.9387755102040817
 40
0.9591836734693877
 40
0.9591836734693877
 40
0.9591836734693877
 40
0.9591836734693877
 40
1.0
 40
1.0
 40
1.0
 40
1.0
 10
3.749
 20
-4.7046
 30
0.0
 10
3.7769
 20
-4.6626
 30
0.0
 10
3.8034
 20
-4.6082
 30
0.0
 10
3.8292
 20
-4.5423
 30
0.0
 10
3.8292
 20
-4.5423
 30
0.0
 10
3.8551
 20
-4.4763
 30
0.0
 10
3.8765
 20
-4.4013
 30
0.0
 10
3.8939
 20
-4.3172
 30
0.0
 10
3.8939
 20
-4.3172
 30
0.0
 10
3.9107
 20
-4.2331
 30
0.0
 10
3.9191
 20
-4.1439
 30
0.0
 10
3.9198
 20
-4.0488
 30
0.0
 10
3.9198
 20
-4.0488
 30
0.0
 10
3.9191
 20
-3.8981
 30
0.0
 10
3.8984
 20
-3.7655
 30
0.0
 10
3.8583
 20
-3.651
 30
0.0
 10
3.8583
 20
-3.651
 30
0.0
 10
3.8182
 20
-3.5366
 30
0.0
 10
3.7626
 20
-3.4408
 30
0.0
 10
3.6928
 20
-3.3632
 30
0.0
 10
3.6928
 20
-3.3632
 30
0.0
 10
3.6229
 20
-3.2856
 30
0.0
 10
3.5421
 20
-3.2274
 30
0.0
 10
3.4515
 20
-3.1879
 30
0.0
 10
3.4515
 20
-3.1879
 30
0.0
 10
3.361
 20
-3.1491
 30
0.0
 10
3.2646
 20
-3.1291
 30
0.0
 10
3.1631
 20
-3.1291
 30
0.0
 10
3.1631
 20
-3.1291
 30
0.0
 10
3.0745
 20
-3.1304
 30
0.0
 10
2.9943
 20
-3.1459
 30
0.0
 10
2.9218
 20
-3.175
 30
0.0
 10
2.9218
 20
-3.175
 30
0.0
 10
2.8487
 20
-3.2041
 30
0.0
 10
2.7854
 20
-3.2442
 30
0.0
 10
2.7304
 20
-3.2953
 30
0.0
 10
2.7304
 20
-3.2953
 30
0.0
 10
2.6754
 20
-3.3464
 30
0.0
 10
2.6301
 20
-3.4059
 30
0.0
 10
2.5946
 20
-3.4732
 30
0.0
 10
2.5946
 20
-3.4732
 30
0.0
 10
2.559
 20
-3.5411
 30
0.0
 10
2.5338
 20
-3.6135
 30
0.0
 10
2.5189
 20
-3.6918
 30
0.0
 10
2.5189
 20
-3.6918
 30
0.0
 10
2.5189
 20
-3.6918
 30
0.0
 10
2.5111
 20
-3.6918
 30
0.0
 10
2.5111
 20
-3.6918
 30
0.0
 10
2.5111
 20
-3.6918
 30
0.0
 10
2.473
 20
-3.5896
 30
0.0
 10
2.4245
 20
-3.5036
 30
0.0
 10
2.365
 20
-3.435
 30
0.0
 10
2.365
 20
-3.435
 30
0.0
 10
2.3055
 20
-3.3658
 30
0.0
 10
2.2369
 20
-3.3134
 30
0.0
 10
2.1606
 20
-3.2785
 30
0.0
 10
2.1606
 20
-3.2785
 30
0.0
 10
2.0843
 20
-3.2436
 30
0.0
 10
2.0021
 20
-3.2261
 30
0.0
 10
1.9135
 20
-3.2261
 30
0.0
 10
1.9135
 20
-3.2261
 30
0.0
 10
1.8359
 20
-3.2261
 30
0.0
 10
1.7615
 20
-3.2403
 30
0.0
 10
1.6904
 20
-3.2688
 30
0.0
 10
1.6904
 20
-3.2688
 30
0.0
 10
1.6186
 20
-3.2979
 30
0.0
 10
1.5546
 20
-3.3419
 30
0.0
 10
1.4976
 20
-3.4007
 30
0.0
 10
1.4976
 20
-3.4007
 30
0.0
 10
1.4407
 20
-3.4596
 30
0.0
 10
1.3961
 20
-3.5346
 30
0.0
 10
1.3631
 20
-3.6258
 30
0.0
 10
1.3631
 20
-3.6258
 30
0.0
 10
1.3295
 20
-3.7164
 30
0.0
 10
1.3127
 20
-3.8237
 30
0.0
 10
1.312
 20
-3.9479
 30
0.0
 10
1.312
 20
-3.9479
 30
0.0
 10
1.3127
 20
-4.0391
 30
0.0
 10
1.3224
 20
-4.1264
 30
0.0
 10
1.3405
 20
-4.2105
 30
0.0
 10
1.3405
 20
-4.2105
 30
0.0
 10
1.3592
 20
-4.2946
 30
0.0
 10
1.3832
 20
-4.3709
 30
0.0
 10
1.4123
 20
-4.4394
 30
0.0
 10
1.4123
 20
-4.4394
 30
0.0
 10
1.442
 20
-4.508
 30
0.0
 10
1.4731
 20
-4.5656
 30
0.0
 10
1.5061
 20
-4.6115
 30
0.0
 10
1.5061
 20
-4.6115
 30
0.0
 10
1.5061
 20
-4.6115
 30
0.0
 10
1.7544
 20
-4.5183
 30
0.0
 10
1.7544
 20
-4.5183
 30
0.0
 10
1.7544
 20
-4.5183
 30
0.0
 10
1.7279
 20
-4.4815
 30
0.0
 10
1.702
 20
-4.4369
 30
0.0
 10
1.6768
 20
-4.3838
 30
0.0
 10
1.6768
 20
-4.3838
 30
0.0
 10
1.6509
 20
-4.3314
 30
0.0
 10
1.6302
 20
-4.2732
 30
0.0
 10
1.6134
 20
-4.2098
 30
0.0
 10
1.6134
 20
-4.2098
 30
0.0
 10
1.5966
 20
-4.1471
 30
0.0
 10
1.5882
 20
-4.0818
 30
0.0
 10
1.5875
 20
-4.0139
 30
0.0
 10
1.5875
 20
-4.0139
 30
0.0
 10
1.5882
 20
-3.9091
 30
0.0
 10
1.6063
 20
-3.8244
 30
0.0
 10
1.6412
 20
-3.7597
 30
0.0
 10
1.6412
 20
-3.7597
 30
0.0
 10
1.6762
 20
-3.6944
 30
0.0
 10
1.7221
 20
-3.6465
 30
0.0
 10
1.7796
 20
-3.6161
 30
0.0
 10
1.7796
 20
-3.6161
 30
0.0
 10
1.8366
 20
-3.5857
 30
0.0
 10
1.8993
 20
-3.5708
 30
0.0
 10
1.9678
 20
-3.5715
 30
0.0
 10
1.9678
 20
-3.5715
 30
0.0
 10
2.0422
 20
-3.5721
 30
0.0
 10
2.1069
 20
-3.5902
 30
0.0
 10
2.1606
 20
-3.6245
 30
0.0
 10
2.1606
 20
-3.6245
 30
0.0
 10
2.2143
 20
-3.6588
 30
0.0
 10
2.2589
 20
-3.7041
 30
0.0
 10
2.2932
 20
-3.7597
 30
0.0
 10
2.2932
 20
-3.7597
 30
0.0
 10
2.3281
 20
-3.8153
 30
0.0
 10
2.3533
 20
-3.8761
 30
0.0
 10
2.3701
 20
-3.9414
 30
0.0
 10
2.3701
 20
-3.9414
 30
0.0
 10
2.3863
 20
-4.0068
 30
0.0
 10
2.3947
 20
-4.0708
 30
0.0
 10
2.3947
 20
-4.1342
 30
0.0
 10
2.3947
 20
-4.1342
 30
0.0
 10
2.3947
 20
-4.1342
 30
0.0
 10
2.3947
 20
-4.3243
 30
0.0
 10
2.3947
 20
-4.3243
 30
0.0
 10
2.3947
 20
-4.3243
 30
0.0
 10
2.3947
 20
-4.3243
 30
0.0
 10
2.6508
 20
-4.3243
 30
0.0
 10
2.6508
 20
-4.3243
 30
0.0
 10
2.6508
 20
-4.3243
 30
0.0
 10
2.6508
 20
-4.3243
 30
0.0
 10
2.6508
 20
-4.1342
 30
0.0
 10
2.6508
 20
-4.1342
 30
0.0
 10
2.6508
 20
-4.1342
 30
0.0
 10
2.6508
 20
-4.0507
 30
0.0
 10
2.6605
 20
-3.9705
 30
0.0
 10
2.6799
 20
-3.8936
 30
0.0
 10
2.6799
 20
-3.8936
 30
0.0
 10
2.6993
 20
-3.8166
 30
0.0
 10
2.7297
 20
-3.7474
 30
0.0
 10
2.7705
 20
-3.686
 30
0.0
 10
2.7705
 20
-3.686
 30
0.0
 10
2.8112
 20
-3.6245
 30
0.0
 10
2.8636
 20
-3.5754
 30
0.0
 10
2.9276
 20
-3.5391
 30
0.0
 10
2.9276
 20
-3.5391
 30
0.0
 10
2.991
 20
-3.5029
 30
0.0
 10
3.0673
 20
-3.4842
 30
0.0
 10
3.1553
 20
-3.4822
 30
0.0
 10
3.1553
 20
-3.4822
 30
0.0
 10
3.2096
 20
-3.4809
 30
0.0
 10
3.2653
 20
-3.4893
 30
0.0
 10
3.3215
 20
-3.5087
 30
0.0
 10
3.3215
 20
-3.5087
 30
0.0
 10
3.3784
 20
-3.5275
 30
0.0
 10
3.4315
 20
-3.5592
 30
0.0
 10
3.48
 20
-3.6032
 30
0.0
 10
3.48
 20
-3.6032
 30
0.0
 10
3.5285
 20
-3.6472
 30
0.0
 10
3.5679
 20
-3.706
 30
0.0
 10
3.5977
 20
-3.7797
 30
0.0
 10
3.5977
 20
-3.7797
 30
0.0
 10
3.6281
 20
-3.8535
 30
0.0
 10
3.6436
 20
-3.944
 30
0.0
 10
3.6443
 20
-4.0527
 30
0.0
 10
3.6443
 20
-4.0527
 30
0.0
 10
3.6436
 20
-4.1335
 30
0.0
 10
3.6346
 20
-4.2105
 30
0.0
 10
3.6171
 20
-4.2829
 30
0.0
 10
3.6171
 20
-4.2829
 30
0.0
 10
3.5996
 20
-4.3554
 30
0.0
 10
3.5789
 20
-4.42
 30
0.0
 10
3.555
 20
-4.477
 30
0.0
 10
3.555
 20
-4.477
 30
0.0
 10
3.5311
 20
-4.5339
 30
0.0
 10
3.5091
 20
-4.5785
 30
0.0
 10
3.489
 20
-4.6115
 30
0.0
 10
3.489
 20
-4.6115
 30
0.0
 10
3.489
 20
-4.6115
 30
0.0
 10
3.749
 20
-4.7046
 30
0.0
 10
3.749
 20
-4.7046
 30
0.0
  0
SPLINE
  5
72
330
1F
100
AcDbEntity
  8
Vrstva 1
 62
   250
370
    13
100
AcDbSpline
210
0.0
220
0.0
230
1.0
 70
    24
 71
     3
 72
     8
 73
     4
 74
     0
 42
0.0000000001
 43
0.0000000001
 40
0.0
 40
0.0
 40
0.0
 40
0.0
 40
1.0
 40
1.0
 40
1.0
 40
1.0
 10
33.2288
 20
9.0965
 30
0.0
 10
33.2288
 20
9.0965
 30
0.0
 10
-17.9913
 20
9.0965
 30
0.0
 10
-17.9913
 20
9.0965
 30
0.0
  0
SPLINE
  5
73
330
1F
100
AcDbEntity
  8
Vrstva 1
 62
   250
100
AcDbSpline
210
0.0
220
0.0
230
1.0
 70
    11
 71
     3
 72
   140
 73
   136
 74
     0
 42
0.0000000001
 43
0.0000000001
 40
0.0
 40
0.0
 40
0.0
 40
0.0
 40
0.0285714285714286
 40
0.0285714285714286
 40
0.0285714285714286
 40
0.0285714285714286
 40
0.0571428571428571
 40
0.0571428571428571
 40
0.0571428571428571
 40
0.0571428571428571
 40
0.0857142857142857
 40
0.0857142857142857
 40
0.0857142857142857
 40
0.0857142857142857
 40
0.1142857142857143
 40
0.1142857142857143
 40
0.1142857142857143
 40
0.1142857142857143
 40
0.1428571428571428
 40
0.1428571428571428
 40
0.1428571428571428
 40
0.1428571428571428
 40
0.1714285714285714
 40
0.1714285714285714
 40
0.1714285714285714
 40
0.1714285714285714
 40
0.2
 40
0.2
 40
0.2
 40
0.2
 40
0.2285714285714286
 40
0.2285714285714286
 40
0.2285714285714286
 40
0.2285714285714286
 40
0.2571428571428571
 40
0.2571428571428571
 40
0.2571428571428571
 40
0.2571428571428571
 40
0.2857142857142857
 40
0.2857142857142857
 40
0.2857142857142857
 40
0.2857142857142857
 40
0.3142857142857143
 40
0.3142857142857143
 40
0.3142857142857143
 40
0.3142857142857143
 40
0.3428571428571429
 40
0.3428571428571429
 40
0.3428571428571429
 40
0.3428571428571429
 40
0.3714285714285714
 40
0.3714285714285714
 40
0.3714285714285714
 40
0.3714285714285714
 40
0.4
 40
0.4
 40
0.4
 40
0.4
 40
0.4285714285714285
 40
0.4285714285714285
 40
0.4285714285714285
 40
0.4285714285714285
 40
0.4571428571428571
 40
0.4571428571428571
 40
0.4571428571428571
 40
0.4571428571428571
 40
0.4857142857142857
 40
0.4857142857142857
 40
0.4857142857142857
 40
0.4857142857142857
 40
0.5142857142857142
 40
0.5142857142857142
 40
0.5142857142857142
 40
0.5142857142857142
 40
0.5428571428571428
 40
0.5428571428571428
 40
0.5428571428571428
 40
0.5428571428571428
 40
0.5714285714285714
 40
0.5714285714285714
 40
0.5714285714285714
 40
0.5714285714285714
 40
0.6
 40
0.6
 40
0.6
 40
0.6
 40
0.6285714285714286
 40
0.6285714285714286
 40
0.6285714285714286
 40
0.6285714285714286
 40
0.6571428571428571
 40
0.6571428571428571
 40
0.6571428571428571
 40
0.6571428571428571
 40
0.6857142857142857
 40
0.6857142857142857
 40
0.6857142857142857
 40
0.6857142857142857
 40
0.7142857142857143
 40
0.7142857142857143
 40
0.7142857142857143
 40
0.7142857142857143
 40
0.7428571428571429
 40
0.7428571428571429
 40
0.7428571428571429
 40
0.7428571428571429
 40
0.7714285714285715
 40
0.7714285714285715
 40
0.7714285714285715
 40
0.7714285714285715
 40
0.8
 40
0.8
 40
0.8
 40
0.8
 40
0.8285714285714286
 40
0.8285714285714286
 40
0.8285714285714286
 40
0.8285714285714286
 40
0.8571428571428571
 40
0.8571428571428571
 40
0.8571428571428571
 40
0.8571428571428571
 40
0.8857142857142857
 40
0.8857142857142857
 40
0.8857142857142857
 40
0.8857142857142857
 40
0.9142857142857143
 40
0.9142857142857143
 40
0.9142857142857143
 40
0.9142857142857143
 40
0.9428571428571428
 40
0.9428571428571428
 40
0.9428571428571428
 40
0.9428571428571428
 40
1.0
 40
1.0
 40
1.0
 40
1.0
 10
16.1319
 20
11.17
 30
0.0
 10
16.1319
 20
11.17
 30
0.0
 10
15.2704
 20
11.17
 30
0.0
 10
15.2704
 20
11.17
 30
0.0
 10
15.2704
 20
11.17
 30
0.0
 10
15.2704
 20
11.17
 30
0.0
 10
15.2704
 20
10.8984
 30
0.0
 10
15.2704
 20
10.8984
 30
0.0
 10
15.2704
 20
10.8984
 30
0.0
 10
15.2704
 20
10.8984
 30
0.0
 10
15.7982
 20
10.8984
 30
0.0
 10
15.7982
 20
10.8984
 30
0.0
 10
15.7982
 20
10.8984
 30
0.0
 10
15.7982
 20
10.8984
 30
0.0
 10
15.7982
 20
10.1184
 30
0.0
 10
15.7982
 20
10.1184
 30
0.0
 10
15.7982
 20
10.1184
 30
0.0
 10
15.7594
 20
10.0983
 30
0.0
 10
15.7025
 20
10.0822
 30
0.0
 10
15.6268
 20
10.0686
 30
0.0
 10
15.6268
 20
10.0686
 30
0.0
 10
15.5518
 20
10.0556
 30
0.0
 10
15.4586
 20
10.0492
 30
0.0
 10
15.348
 20
10.0485
 30
0.0
 10
15.348
 20
10.0485
 30
0.0
 10
15.1941
 20
10.0485
 30
0.0
 10
15.0557
 20
10.0725
 30
0.0
 10
14.9315
 20
10.1203
 30
0.0
 10
14.9315
 20
10.1203
 30
0.0
 10
14.808
 20
10.1675
 30
0.0
 10
14.7019
 20
10.2367
 30
0.0
 10
14.6133
 20
10.3273
 30
0.0
 10
14.6133
 20
10.3273
 30
0.0
 10
14.5254
 20
10.4185
 30
0.0
 10
14.4575
 20
10.5291
 30
0.0
 10
14.4102
 20
10.6591
 30
0.0
 10
14.4102
 20
10.6591
 30
0.0
 10
14.363
 20
10.7897
 30
0.0
 10
14.3398
 20
10.9378
 30
0.0
 10
14.3391
 20
11.104
 30
0.0
 10
14.3391
 20
11.104
 30
0.0
 10
14.3398
 20
11.2683
 30
0.0
 10
14.3643
 20
11.4151
 30
0.0
 10
14.4141
 20
11.5451
 30
0.0
 10
14.4141
 20
11.5451
 30
0.0
 10
14.4633
 20
11.6745
 30
0.0
 10
14.5338
 20
11.7851
 30
0.0
 10
14.6263
 20
11.8756
 30
0.0
 10
14.6263
 20
11.8756
 30
0.0
 10
14.7187
 20
11.9668
 30
0.0
 10
14.8287
 20
12.036
 30
0.0
 10
14.958
 20
12.0839
 30
0.0
 10
14.958
 20
12.0839
 30
0.0
 10
15.0867
 20
12.1311
 30
0.0
 10
15.231
 20
12.1556
 30
0.0
 10
15.3907
 20
12.1556
 30
0.0
 10
15.3907
 20
12.1556
 30
0.0
 10
15.4787
 20
12.1556
 30
0.0
 10
15.5569
 20
12.1505
 30
0.0
 10
15.6268
 20
12.1414
 30
0.0
 10
15.6268
 20
12.1414
 30
0.0
 10
15.6966
 20
12.1317
 30
0.0
 10
15.7594
 20
12.1188
 30
0.0
 10
15.8156
 20
12.102
 30
0.0
 10
15.8156
 20
12.102
 30
0.0
 10
15.8719
 20
12.0851
 30
0.0
 10
15.923
 20
12.0651
 30
0.0
 10
15.9689
 20
12.0431
 30
0.0
 10
15.9689
 20
12.0431
 30
0.0
 10
15.9689
 20
12.0431
 30
0.0
 10
16.0543
 20
12.3186
 30
0.0
 10
16.0543
 20
12.3186
 30
0.0
 10
16.0543
 20
12.3186
 30
0.0
 10
16.0161
 20
12.3374
 30
0.0
 10
15.9657
 20
12.3555
 30
0.0
 10
15.9017
 20
12.3742
 30
0.0
 10
15.9017
 20
12.3742
 30
0.0
 10
15.8376
 20
12.3924
 30
0.0
 10
15.7632
 20
12.4079
 30
0.0
 10
15.6779
 20
12.4202
 30
0.0
 10
15.6779
 20
12.4202
 30
0.0
 10
15.5932
 20
12.4318
 30
0.0
 10
15.5
 20
12.4383
 30
0.0
 10
15.3985
 20
12.4389
 30
0.0
 10
15.3985
 20
12.4389
 30
0.0
 10
15.1786
 20
12.4383
 30
0.0
 10
14.9813
 20
12.404
 30
0.0
 10
14.8074
 20
12.3374
 30
0.0
 10
14.8074
 20
12.3374
 30
0.0
 10
14.6327
 20
12.2708
 30
0.0
 10
14.484
 20
12.177
 30
0.0
 10
14.3617
 20
12.056
 30
0.0
 10
14.3617
 20
12.056
 30
0.0
 10
14.2389
 20
11.9351
 30
0.0
 10
14.1451
 20
11.7928
 30
0.0
 10
14.0804
 20
11.6285
 30
0.0
 10
14.0804
 20
11.6285
 30
0.0
 10
14.0151
 20
11.4643
 30
0.0
 10
13.9827
 20
11.2845
 30
0.0
 10
13.9821
 20
11.0885
 30
0.0
 10
13.9821
 20
11.0885
 30
0.0
 10
13.9827
 20
10.952
 30
0.0
 10
13.9976
 20
10.824
 30
0.0
 10
14.0267
 20
10.703
 30
0.0
 10
14.0267
 20
10.703
 30
0.0
 10
14.0558
 20
10.5827
 30
0.0
 10
14.0979
 20
10.4728
 30
0.0
 10
14.1522
 20
10.3732
 30
0.0
 10
14.1522
 20
10.3732
 30
0.0
 10
14.2065
 20
10.2736
 30
0.0
 10
14.2712
 20
10.1876
 30
0.0
 10
14.3469
 20
10.1145
 30
0.0
 10
14.3469
 20
10.1145
 30
0.0
 10
14.4749
 20
9.9929
 30
0.0
 10
14.6204
 20
9.905
 30
0.0
 10
14.7834
 20
9.85
 30
0.0
 10
14.7834
 20
9.85
 30
0.0
 10
14.9464
 20
9.795
 30
0.0
 10
15.1268
 20
9.7685
 30
0.0
 10
15.3248
 20
9.7691
 30
0.0
 10
15.3248
 20
9.7691
 30
0.0
 10
15.4431
 20
9.7698
 30
0.0
 10
15.5537
 20
9.7782
 30
0.0
 10
15.6572
 20
9.7937
 30
0.0
 10
15.6572
 20
9.7937
 30
0.0
 10
15.7607
 20
9.8092
 30
0.0
 10
15.8531
 20
9.828
 30
0.0
 10
15.934
 20
9.8493
 30
0.0
 10
15.934
 20
9.8493
 30
0.0
 10
16.0148
 20
9.8713
 30
0.0
 10
16.0808
 20
9.8927
 30
0.0
 10
16.1319
 20
9.9127
 30
0.0
 10
16.1319
 20
9.9127
 30
0.0
 10
16.1319
 20
9.9127
 30
0.0
 10
16.1319
 20
11.17
 30
0.0
 10
16.1319
 20
11.17
 30
0.0
  0
SPLINE
  5
74
330
1F
100
AcDbEntity
  8
Vrstva 1
 62
   250
100
AcDbSpline
210
0.0
220
0.0
230
1.0
 70
    11
 71
     3
 72
   124
 73
   120
 74
     0
 42
0.0000000001
 43
0.0000000001
 40
0.0
 40
0.0
 40
0.0
 40
0.0
 40
0.032258064516129
 40
0.032258064516129
 40
0.032258064516129
 40
0.032258064516129
 40
0.0645161290322581
 40
0.0645161290322581
 40
0.0645161290322581
 40
0.0645161290322581
 40
0.0967741935483871
 40
0.0967741935483871
 40
0.0967741935483871
 40
0.0967741935483871
 40
0.1290322580645161
 40
0.1290322580645161
 40
0.1290322580645161
 40
0.1290322580645161
 40
0.1612903225806452
 40
0.1612903225806452
 40
0.1612903225806452
 40
0.1612903225806452
 40
0.1935483870967742
 40
0.1935483870967742
 40
0.1935483870967742
 40
0.1935483870967742
 40
0.2258064516129032
 40
0.2258064516129032
 40
0.2258064516129032
 40
0.2258064516129032
 40
0.2580645161290323
 40
0.2580645161290323
 40
0.2580645161290323
 40
0.2580645161290323
 40
0.2903225806451613
 40
0.2903225806451613
 40
0.2903225806451613
 40
0.2903225806451613
 40
0.3225806451612903
 40
0.3225806451612903
 40
0.3225806451612903
 40
0.3225806451612903
 40
0.3548387096774194
 40
0.3548387096774194
 40
0.3548387096774194
 40
0.3548387096774194
 40
0.3870967741935484
 40
0.3870967741935484
 40
0.3870967741935484
 40
0.3870967741935484
 40
0.4193548387096774
 40
0.4193548387096774
 40
0.4193548387096774
 40
0.4193548387096774
 40
0.4516129032258064
 40
0.4516129032258064
 40
0.4516129032258064
 40
0.4516129032258064
 40
0.4838709677419355
 40
0.4838709677419355
 40
0.4838709677419355
 40
0.4838709677419355
 40
0.5161290322580645
 40
0.5161290322580645
 40
0.5161290322580645
 40
0.5161290322580645
 40
0.5483870967741935
 40
0.5483870967741935
 40
0.5483870967741935
 40
0.5483870967741935
 40
0.5806451612903226
 40
0.5806451612903226
 40
0.5806451612903226
 40
0.5806451612903226
 40
0.6129032258064516
 40
0.6129032258064516
 40
0.6129032258064516
 40
0.6129032258064516
 40
0.6451612903225806
 40
0.6451612903225806
 40
0.6451612903225806
 40
0.6451612903225806
 40
0.6774193548387096
 40
0.6774193548387096
 40
0.6774193548387096
 40
0.6774193548387096
 40
0.7096774193548387
 40
0.7096774193548387
 40
0.7096774193548387
 40
0.7096774193548387
 40
0.7419354838709677
 40
0.7419354838709677
 40
0.7419354838709677
 40
0.7419354838709677
 40
0.7741935483870968
 40
0.7741935483870968
 40
0.7741935483870968
 40
0.7741935483870968
 40
0.8064516129032258
 40
0.8064516129032258
 40
0.8064516129032258
 40
0.8064516129032258
 40
0.8387096774193549
 40
0.8387096774193549
 40
0.8387096774193549
 40
0.8387096774193549
 40
0.8709677419354839
 40
0.8709677419354839
 40
0.8709677419354839
 40
0.8709677419354839
 40
0.9032258064516129
 40
0.9032258064516129
 40
0.9032258064516129
 40
0.9032258064516129
 40
0.9354838709677419
 40
0.9354838709677419
 40
0.9354838709677419
 40
0.9354838709677419
 40
1.0
 40
1.0
 40
1.0
 40
1.0
 10
17.9635
 20
12.3574
 30
0.0
 10
17.9324
 20
12.3574
 30
0.0
 10
17.8956
 20
12.3561
 30
0.0
 10
17.8542
 20
12.3535
 30
0.0
 10
17.8542
 20
12.3535
 30
0.0
 10
17.8121
 20
12.351
 30
0.0
 10
17.7656
 20
12.3458
 30
0.0
 10
17.7151
 20
12.338
 30
0.0
 10
17.7151
 20
12.338
 30
0.0
 10
17.5554
 20
12.3186
 30
0.0
 10
17.4073
 20
12.2772
 30
0.0
 10
17.2708
 20
12.2145
 30
0.0
 10
17.2708
 20
12.2145
 30
0.0
 10
17.1344
 20
12.1518
 30
0.0
 10
17.0134
 20
12.069
 30
0.0
 10
16.908
 20
11.9655
 30
0.0
 10
16.908
 20
11.9655
 30
0.0
 10
16.8233
 20
11.8827
 30
0.0
 10
16.7489
 20
11.7844
 30
0.0
 10
16.6855
 20
11.6706
 30
0.0
 10
16.6855
 20
11.6706
 30
0.0
 10
16.6215
 20
11.5574
 30
0.0
 10
16.5717
 20
11.43
 30
0.0
 10
16.5355
 20
11.289
 30
0.0
 10
16.5355
 20
11.289
 30
0.0
 10
16.4999
 20
11.148
 30
0.0
 10
16.4818
 20
10.9941
 30
0.0
 10
16.4811
 20
10.8285
 30
0.0
 10
16.4811
 20
10.8285
 30
0.0
 10
16.4818
 20
10.6642
 30
0.0
 10
16.5031
 20
10.5161
 30
0.0
 10
16.5445
 20
10.3842
 30
0.0
 10
16.5445
 20
10.3842
 30
0.0
 10
16.5866
 20
10.2516
 30
0.0
 10
16.6467
 20
10.1391
 30
0.0
 10
16.725
 20
10.0453
 30
0.0
 10
16.725
 20
10.0453
 30
0.0
 10
16.8026
 20
9.9515
 30
0.0
 10
16.8964
 20
9.8791
 30
0.0
 10
17.005
 20
9.8293
 30
0.0
 10
17.005
 20
9.8293
 30
0.0
 10
17.1137
 20
9.7795
 30
0.0
 10
17.2352
 20
9.7543
 30
0.0
 10
17.3698
 20
9.7536
 30
0.0
 10
17.3698
 20
9.7536
 30
0.0
 10
17.5017
 20
9.7549
 30
0.0
 10
17.6201
 20
9.7795
 30
0.0
 10
17.7242
 20
9.8273
 30
0.0
 10
17.7242
 20
9.8273
 30
0.0
 10
17.8277
 20
9.8759
 30
0.0
 10
17.9163
 20
9.9418
 30
0.0
 10
17.9887
 20
10.0252
 30
0.0
 10
17.9887
 20
10.0252
 30
0.0
 10
18.0611
 20
10.1087
 30
0.0
 10
18.1168
 20
10.2038
 30
0.0
 10
18.1543
 20
10.3105
 30
0.0
 10
18.1543
 20
10.3105
 30
0.0
 10
18.1924
 20
10.4165
 30
0.0
 10
18.2118
 20
10.5284
 30
0.0
 10
18.2118
 20
10.6461
 30
0.0
 10
18.2118
 20
10.6461
 30
0.0
 10
18.2112
 20
10.769
 30
0.0
 10
18.1924
 20
10.8803
 30
0.0
 10
18.1556
 20
10.9799
 30
0.0
 10
18.1556
 20
10.9799
 30
0.0
 10
18.1187
 20
11.0795
 30
0.0
 10
18.0663
 20
11.1655
 30
0.0
 10
17.9991
 20
11.2373
 30
0.0
 10
17.9991
 20
11.2373
 30
0.0
 10
17.9312
 20
11.3084
 30
0.0
 10
17.851
 20
11.364
 30
0.0
 10
17.7585
 20
11.4022
 30
0.0
 10
17.7585
 20
11.4022
 30
0.0
 10
17.666
 20
11.441
 30
0.0
 10
17.5631
 20
11.4604
 30
0.0
 10
17.4513
 20
11.461
 30
0.0
 10
17.4513
 20
11.461
 30
0.0
 10
17.3581
 20
11.4604
 30
0.0
 10
17.2728
 20
11.4468
 30
0.0
 10
17.1951
 20
11.4209
 30
0.0
 10
17.1951
 20
11.4209
 30
0.0
 10
17.1175
 20
11.3944
 30
0.0
 10
17.0483
 20
11.3595
 30
0.0
 10
16.9882
 20
11.3149
 30
0.0
 10
16.9882
 20
11.3149
 30
0.0
 10
16.9287
 20
11.2709
 30
0.0
 10
16.8782
 20
11.2211
 30
0.0
 10
16.8381
 20
11.1661
 30
0.0
 10
16.8381
 20
11.1661
 30
0.0
 10
16.8381
 20
11.1661
 30
0.0
 10
16.8304
 20
11.1661
 30
0.0
 10
16.8304
 20
11.1661
 30
0.0
 10
16.8304
 20
11.1661
 30
0.0
 10
16.8446
 20
11.2715
 30
0.0
 10
16.8731
 20
11.3731
 30
0.0
 10
16.9164
 20
11.4707
 30
0.0
 10
16.9164
 20
11.4707
 30
0.0
 10
16.9591
 20
11.5677
 30
0.0
 10
17.016
 20
11.657
 30
0.0
 10
17.0884
 20
11.7378
 30
0.0
 10
17.0884
 20
11.7378
 30
0.0
 10
17.1609
 20
11.818
 30
0.0
 10
17.2482
 20
11.8866
 30
0.0
 10
17.351
 20
11.9422
 30
0.0
 10
17.351
 20
11.9422
 30
0.0
 10
17.4538
 20
11.9978
 30
0.0
 10
17.5729
 20
12.0366
 30
0.0
 10
17.7074
 20
12.0586
 30
0.0
 10
17.7074
 20
12.0586
 30
0.0
 10
17.7559
 20
12.0664
 30
0.0
 10
17.8024
 20
12.0722
 30
0.0
 10
17.8458
 20
12.0754
 30
0.0
 10
17.8458
 20
12.0754
 30
0.0
 10
17.8891
 20
12.0793
 30
0.0
 10
17.9286
 20
12.08
 30
0.0
 10
17.9635
 20
12.078
 30
0.0
 10
17.9635
 20
12.078
 30
0.0
 10
17.9635
 20
12.078
 30
0.0
 10
17.9635
 20
12.3574
 30
0.0
 10
17.9635
 20
12.3574
 30
0.0
  0
SPLINE
  5
75
330
1F
100
AcDbEntity
  8
Vrstva 1
 62
   250
100
AcDbSpline
210
0.0
220
0.0
230
1.0
 70
    11
 71
     3
 72
    64
 73
    60
 74
     0
 42
0.0000000001
 43
0.0000000001
 40
0.0
 40
0.0
 40
0.0
 40
0.0
 40
0.0625
 40
0.0625
 40
0.0625
 40
0.0625
 40
0.125
 40
0.125
 40
0.125
 40
0.125
 40
0.1875
 40
0.1875
 40
0.1875
 40
0.1875
 40
0.25
 40
0.25
 40
0.25
 40
0.25
 40
0.3125
 40
0.3125
 40
0.3125
 40
0.3125
 40
0.375
 40
0.375
 40
0.375
 40
0.375
 40
0.4375
 40
0.4375
 40
0.4375
 40
0.4375
 40
0.5
 40
0.5
 40
0.5
 40
0.5
 40
0.5625
 40
0.5625
 40
0.5625
 40
0.5625
 40
0.625
 40
0.625
 40
0.625
 40
0.625
 40
0.6875
 40
0.6875
 40
0.6875
 40
0.6875
 40
0.75
 40
0.75
 40
0.75
 40
0.75
 40
0.8125
 40
0.8125
 40
0.8125
 40
0.8125
 40
0.875
 40
0.875
 40
0.875
 40
0.875
 40
1.0
 40
1.0
 40
1.0
 40
1.0
 10
17.3775
 20
10.0175
 30
0.0
 10
17.287
 20
10.0181
 30
0.0
 10
17.2074
 20
10.0362
 30
0.0
 10
17.1382
 20
10.0725
 30
0.0
 10
17.1382
 20
10.0725
 30
0.0
 10
17.0697
 20
10.1087
 30
0.0
 10
17.0115
 20
10.1591
 30
0.0
 10
16.9643
 20
10.2244
 30
0.0
 10
16.9643
 20
10.2244
 30
0.0
 10
16.917
 20
10.2898
 30
0.0
 10
16.8815
 20
10.3667
 30
0.0
 10
16.8569
 20
10.4547
 30
0.0
 10
16.8569
 20
10.4547
 30
0.0
 10
16.8323
 20
10.5426
 30
0.0
 10
16.82
 20
10.639
 30
0.0
 10
16.8187
 20
10.7431
 30
0.0
 10
16.8187
 20
10.7431
 30
0.0
 10
16.8187
 20
10.7742
 30
0.0
 10
16.8226
 20
10.8013
 30
0.0
 10
16.8291
 20
10.8259
 30
0.0
 10
16.8291
 20
10.8259
 30
0.0
 10
16.8356
 20
10.8499
 30
0.0
 10
16.844
 20
10.8712
 30
0.0
 10
16.8537
 20
10.8906
 30
0.0
 10
16.8537
 20
10.8906
 30
0.0
 10
16.8854
 20
10.9533
 30
0.0
 10
16.9261
 20
11.0077
 30
0.0
 10
16.9772
 20
11.0542
 30
0.0
 10
16.9772
 20
11.0542
 30
0.0
 10
17.0276
 20
11.1001
 30
0.0
 10
17.0846
 20
11.1364
 30
0.0
 10
17.1479
 20
11.1622
 30
0.0
 10
17.1479
 20
11.1622
 30
0.0
 10
17.2113
 20
11.1875
 30
0.0
 10
17.2773
 20
11.201
 30
0.0
 10
17.3465
 20
11.201
 30
0.0
 10
17.3465
 20
11.201
 30
0.0
 10
17.4519
 20
11.2004
 30
0.0
 10
17.5431
 20
11.1771
 30
0.0
 10
17.6214
 20
11.1312
 30
0.0
 10
17.6214
 20
11.1312
 30
0.0
 10
17.699
 20
11.0853
 30
0.0
 10
17.7591
 20
11.0193
 30
0.0
 10
17.8018
 20
10.9333
 30
0.0
 10
17.8018
 20
10.9333
 30
0.0
 10
17.8445
 20
10.8473
 30
0.0
 10
17.8658
 20
10.7438
 30
0.0
 10
17.8665
 20
10.6228
 30
0.0
 10
17.8665
 20
10.6228
 30
0.0
 10
17.8658
 20
10.5019
 30
0.0
 10
17.8451
 20
10.3958
 30
0.0
 10
17.8044
 20
10.3053
 30
0.0
 10
17.8044
 20
10.3053
 30
0.0
 10
17.7636
 20
10.2147
 30
0.0
 10
17.7067
 20
10.1449
 30
0.0
 10
17.6336
 20
10.0945
 30
0.0
 10
17.6336
 20
10.0945
 30
0.0
 10
17.5606
 20
10.044
 30
0.0
 10
17.4752
 20
10.0181
 30
0.0
 10
17.3775
 20
10.0175
 30
0.0
  0
SPLINE
  5
76
330
1F
100
AcDbEntity
  8
Vrstva 1
 62
   250
100
AcDbSpline
210
0.0
220
0.0
230
1.0
 70
    11
 71
     3
 72
    20
 73
    16
 74
     0
 42
0.0000000001
 43
0.0000000001
 40
0.0
 40
0.0
 40
0.0
 40
0.0
 40
0.2
 40
0.2
 40
0.2
 40
0.2
 40
0.4
 40
0.4
 40
0.4
 40
0.4
 40
0.6
 40
0.6
 40
0.6
 40
0.6
 40
1.0
 40
1.0
 40
1.0
 40
1.0
 10
18.596
 20
9.645
 30
0.0
 10
18.596
 20
9.645
 30
0.0
 10
19.6826
 20
12.4583
 30
0.0
 10
19.6826
 20
12.4583
 30
0.0
 10
19.6826
 20
12.4583
 30
0.0
 10
19.6826
 20
12.4583
 30
0.0
 10
19.4148
 20
12.4583
 30
0.0
 10
19.4148
 20
12.4583
 30
0.0
 10
19.4148
 20
12.4583
 30
0.0
 10
19.4148
 20
12.4583
 30
0.0
 10
18.336
 20
9.645
 30
0.0
 10
18.336
 20
9.645
 30
0.0
 10
18.336
 20
9.645
 30
0.0
 10
18.336
 20
9.645
 30
0.0
 10
18.596
 20
9.645
 30
0.0
 10
18.596
 20
9.645
 30
0.0
  0
SPLINE
  5
77
330
1F
100
AcDbEntity
  8
Vrstva 1
 62
   250
100
AcDbSpline
210
0.0
220
0.0
230
1.0
 70
    11
 71
     3
 72
    48
 73
    44
 74
     0
 42
0.0000000001
 43
0.0000000001
 40
0.0
 40
0.0
 40
0.0
 40
0.0
 40
0.0833333333333333
 40
0.0833333333333333
 40
0.0833333333333333
 40
0.0833333333333333
 40
0.1666666666666667
 40
0.1666666666666667
 40
0.1666666666666667
 40
0.1666666666666667
 40
0.25
 40
0.25
 40
0.25
 40
0.25
 40
0.3333333333333333
 40
0.3333333333333333
 40
0.3333333333333333
 40
0.3333333333333333
 40
0.4166666666666667
 40
0.4166666666666667
 40
0.4166666666666667
 40
0.4166666666666667
 40
0.5
 40
0.5
 40
0.5
 40
0.5
 40
0.5833333333333334
 40
0.5833333333333334
 40
0.5833333333333334
 40
0.5833333333333334
 40
0.6666666666666666
 40
0.6666666666666666
 40
0.6666666666666666
 40
0.6666666666666666
 40
0.75
 40
0.75
 40
0.75
 40
0.75
 40
0.8333333333333334
 40
0.8333333333333334
 40
0.8333333333333334
 40
0.8333333333333334
 40
1.0
 40
1.0
 40
1.0
 40
1.0
 10
21.2231
 20
9.7963
 30
0.0
 10
21.2231
 20
9.7963
 30
0.0
 10
21.2231
 20
10.487
 30
0.0
 10
21.2231
 20
10.487
 30
0.0
 10
21.2231
 20
10.487
 30
0.0
 10
21.2231
 20
10.487
 30
0.0
 10
21.5762
 20
10.487
 30
0.0
 10
21.5762
 20
10.487
 30
0.0
 10
21.5762
 20
10.487
 30
0.0
 10
21.5762
 20
10.487
 30
0.0
 10
21.5762
 20
10.7509
 30
0.0
 10
21.5762
 20
10.7509
 30
0.0
 10
21.5762
 20
10.7509
 30
0.0
 10
21.5762
 20
10.7509
 30
0.0
 10
21.2231
 20
10.7509
 30
0.0
 10
21.2231
 20
10.7509
 30
0.0
 10
21.2231
 20
10.7509
 30
0.0
 10
21.2231
 20
10.7509
 30
0.0
 10
21.2231
 20
12.3186
 30
0.0
 10
21.2231
 20
12.3186
 30
0.0
 10
21.2231
 20
12.3186
 30
0.0
 10
21.2231
 20
12.3186
 30
0.0
 10
20.8545
 20
12.3186
 30
0.0
 10
20.8545
 20
12.3186
 30
0.0
 10
20.8545
 20
12.3186
 30
0.0
 10
20.8545
 20
12.3186
 30
0.0
 10
19.7291
 20
10.7082
 30
0.0
 10
19.7291
 20
10.7082
 30
0.0
 10
19.7291
 20
10.7082
 30
0.0
 10
19.7291
 20
10.7082
 30
0.0
 10
19.7291
 20
10.487
 30
0.0
 10
19.7291
 20
10.487
 30
0.0
 10
19.7291
 20
10.487
 30
0.0
 10
19.7291
 20
10.487
 30
0.0
 10
20.901
 20
10.487
 30
0.0
 10
20.901
 20
10.487
 30
0.0
 10
20.901
 20
10.487
 30
0.0
 10
20.901
 20
10.487
 30
0.0
 10
20.901
 20
9.7963
 30
0.0
 10
20.901
 20
9.7963
 30
0.0
 10
20.901
 20
9.7963
 30
0.0
 10
20.901
 20
9.7963
 30
0.0
 10
21.2231
 20
9.7963
 30
0.0
 10
21.2231
 20
9.7963
 30
0.0
  0
SPLINE
  5
78
330
1F
100
AcDbEntity
  8
Vrstva 1
 62
   250
100
AcDbSpline
210
0.0
220
0.0
230
1.0
 70
    11
 71
     3
 72
    36
 73
    32
 74
     0
 42
0.0000000001
 43
0.0000000001
 40
0.0
 40
0.0
 40
0.0
 40
0.0
 40
0.1111111111111111
 40
0.1111111111111111
 40
0.1111111111111111
 40
0.1111111111111111
 40
0.2222222222222222
 40
0.2222222222222222
 40
0.2222222222222222
 40
0.2222222222222222
 40
0.3333333333333333
 40
0.3333333333333333
 40
0.3333333333333333
 40
0.3333333333333333
 40
0.4444444444444444
 40
0.4444444444444444
 40
0.4444444444444444
 40
0.4444444444444444
 40
0.5555555555555556
 40
0.5555555555555556
 40
0.5555555555555556
 40
0.5555555555555556
 40
0.6666666666666666
 40
0.6666666666666666
 40
0.6666666666666666
 40
0.6666666666666666
 40
0.7777777777777778
 40
0.7777777777777778
 40
0.7777777777777778
 40
0.7777777777777778
 40
1.0
 40
1.0
 40
1.0
 40
1.0
 10
20.0745
 20
10.7509
 30
0.0
 10
20.0745
 20
10.7509
 30
0.0
 10
20.0745
 20
10.7587
 30
0.0
 10
20.0745
 20
10.7587
 30
0.0
 10
20.0745
 20
10.7587
 30
0.0
 10
20.0745
 20
10.7587
 30
0.0
 10
20.6915
 20
11.6163
 30
0.0
 10
20.6915
 20
11.6163
 30
0.0
 10
20.6915
 20
11.6163
 30
0.0
 10
20.7257
 20
11.6738
 30
0.0
 10
20.76
 20
11.732
 30
0.0
 10
20.7937
 20
11.7909
 30
0.0
 10
20.7937
 20
11.7909
 30
0.0
 10
20.8266
 20
11.8504
 30
0.0
 10
20.8629
 20
11.9163
 30
0.0
 10
20.901
 20
11.9888
 30
0.0
 10
20.901
 20
11.9888
 30
0.0
 10
20.901
 20
11.9888
 30
0.0
 10
20.9127
 20
11.9888
 30
0.0
 10
20.9127
 20
11.9888
 30
0.0
 10
20.9127
 20
11.9888
 30
0.0
 10
20.9049
 20
11.8568
 30
0.0
 10
20.901
 20
11.7249
 30
0.0
 10
20.901
 20
11.593
 30
0.0
 10
20.901
 20
11.593
 30
0.0
 10
20.901
 20
11.593
 30
0.0
 10
20.901
 20
10.7509
 30
0.0
 10
20.901
 20
10.7509
 30
0.0
 10
20.901
 20
10.7509
 30
0.0
 10
20.901
 20
10.7509
 30
0.0
 10
20.0745
 20
10.7509
 30
0.0
 10
20.0745
 20
10.7509
 30
0.0
  0
SPLINE
  5
79
330
1F
100
AcDbEntity
  8
Vrstva 1
 62
   250
100
AcDbSpline
210
0.0
220
0.0
230
1.0
 70
    11
 71
     3
 72
    20
 73
    16
 74
     0
 42
0.0000000001
 43
0.0000000001
 40
0.0
 40
0.0
 40
0.0
 40
0.0
 40
0.2
 40
0.2
 40
0.2
 40
0.2
 40
0.4
 40
0.4
 40
0.4
 40
0.4
 40
0.6
 40
0.6
 40
0.6
 40
0.6
 40
1.0
 40
1.0
 40
1.0
 40
1.0
 10
21.8595
 20
12.4816
 30
0.0
 10
21.8595
 20
12.4816
 30
0.0
 10
21.9216
 20
11.5503
 30
0.0
 10
21.9216
 20
11.5503
 30
0.0
 10
21.9216
 20
11.5503
 30
0.0
 10
21.9216
 20
11.5503
 30
0.0
 10
22.1311
 20
11.5503
 30
0.0
 10
22.1311
 20
11.5503
 30
0.0
 10
22.1311
 20
11.5503
 30
0.0
 10
22.1311
 20
11.5503
 30
0.0
 10
22.1971
 20
12.4816
 30
0.0
 10
22.1971
 20
12.4816
 30
0.0
 10
22.1971
 20
12.4816
 30
0.0
 10
22.1971
 20
12.4816
 30
0.0
 10
21.8595
 20
12.4816
 30
0.0
 10
21.8595
 20
12.4816
 30
0.0
  0
SPLINE
  5
7A
330
1F
100
AcDbEntity
  8
Vrstva 1
 62
   250
100
AcDbSpline
210
0.0
220
0.0
230
1.0
 70
    11
 71
     3
 72
    20
 73
    16
 74
     0
 42
0.0000000001
 43
0.0000000001
 40
0.0
 40
0.0
 40
0.0
 40
0.0
 40
0.2
 40
0.2
 40
0.2
 40
0.2
 40
0.4
 40
0.4
 40
0.4
 40
0.4
 40
0.6
 40
0.6
 40
0.6
 40
0.6
 40
1.0
 40
1.0
 40
1.0
 40
1.0
 10
22.4377
 20
12.4816
 30
0.0
 10
22.4377
 20
12.4816
 30
0.0
 10
22.5037
 20
11.5503
 30
0.0
 10
22.5037
 20
11.5503
 30
0.0
 10
22.5037
 20
11.5503
 30
0.0
 10
22.5037
 20
11.5503
 30
0.0
 10
22.7093
 20
11.5503
 30
0.0
 10
22.7093
 20
11.5503
 30
0.0
 10
22.7093
 20
11.5503
 30
0.0
 10
22.7093
 20
11.5503
 30
0.0
 10
22.7753
 20
12.4816
 30
0.0
 10
22.7753
 20
12.4816
 30
0.0
 10
22.7753
 20
12.4816
 30
0.0
 10
22.7753
 20
12.4816
 30
0.0
 10
22.4377
 20
12.4816
 30
0.0
 10
22.4377
 20
12.4816
 30
0.0
  0
SPLINE
  5
7B
330
1F
100
AcDbEntity
  8
Vrstva 1
 62
   250
100
AcDbSpline
210
0.0
220
0.0
230
1.0
 70
    11
 71
     3
 72
    68
 73
    64
 74
     0
 42
0.0000000001
 43
0.0000000001
 40
0.0
 40
0.0
 40
0.0
 40
0.0
 40
0.0588235294117647
 40
0.0588235294117647
 40
0.0588235294117647
 40
0.0588235294117647
 40
0.1176470588235294
 40
0.1176470588235294
 40
0.1176470588235294
 40
0.1176470588235294
 40
0.1764705882352941
 40
0.1764705882352941
 40
0.1764705882352941
 40
0.1764705882352941
 40
0.2352941176470588
 40
0.2352941176470588
 40
0.2352941176470588
 40
0.2352941176470588
 40
0.2941176470588235
 40
0.2941176470588235
 40
0.2941176470588235
 40
0.2941176470588235
 40
0.3529411764705883
 40
0.3529411764705883
 40
0.3529411764705883
 40
0.3529411764705883
 40
0.4117647058823529
 40
0.4117647058823529
 40
0.4117647058823529
 40
0.4117647058823529
 40
0.4705882352941176
 40
0.4705882352941176
 40
0.4705882352941176
 40
0.4705882352941176
 40
0.5294117647058824
 40
0.5294117647058824
 40
0.5294117647058824
 40
0.5294117647058824
 40
0.5882352941176471
 40
0.5882352941176471
 40
0.5882352941176471
 40
0.5882352941176471
 40
0.6470588235294118
 40
0.6470588235294118
 40
0.6470588235294118
 40
0.6470588235294118
 40
0.7058823529411765
 40
0.7058823529411765
 40
0.7058823529411765
 40
0.7058823529411765
 40
0.7647058823529411
 40
0.7647058823529411
 40
0.7647058823529411
 40
0.7647058823529411
 40
0.8235294117647058
 40
0.8235294117647058
 40
0.8235294117647058
 40
0.8235294117647058
 40
0.8823529411764706
 40
0.8823529411764706
 40
0.8823529411764706
 40
0.8823529411764706
 40
1.0
 40
1.0
 40
1.0
 40
1.0
 10
24.5487
 20
12.4894
 30
0.0
 10
24.4866
 20
12.4079
 30
0.0
 10
24.4265
 20
12.3154
 30
0.0
 10
24.367
 20
12.2106
 30
0.0
 10
24.367
 20
12.2106
 30
0.0
 10
24.3075
 20
12.1065
 30
0.0
 10
24.2531
 20
11.9888
 30
0.0
 10
24.2046
 20
11.8588
 30
0.0
 10
24.2046
 20
11.8588
 30
0.0
 10
24.1555
 20
11.7288
 30
0.0
 10
24.1167
 20
11.5839
 30
0.0
 10
24.0869
 20
11.4255
 30
0.0
 10
24.0869
 20
11.4255
 30
0.0
 10
24.0578
 20
11.2664
 30
0.0
 10
24.0423
 20
11.0924
 30
0.0
 10
24.0404
 20
10.9022
 30
0.0
 10
24.0404
 20
10.9022
 30
0.0
 10
24.041
 20
10.7134
 30
0.0
 10
24.0559
 20
10.5401
 30
0.0
 10
24.0856
 20
10.3823
 30
0.0
 10
24.0856
 20
10.3823
 30
0.0
 10
24.1147
 20
10.2244
 30
0.0
 10
24.1542
 20
10.0809
 30
0.0
 10
24.2027
 20
9.9515
 30
0.0
 10
24.2027
 20
9.9515
 30
0.0
 10
24.2518
 20
9.8222
 30
0.0
 10
24.3062
 20
9.7058
 30
0.0
 10
24.3663
 20
9.6023
 30
0.0
 10
24.3663
 20
9.6023
 30
0.0
 10
24.4258
 20
9.4988
 30
0.0
 10
24.4866
 20
9.407
 30
0.0
 10
24.5487
 20
9.3268
 30
0.0
 10
24.5487
 20
9.3268
 30
0.0
 10
24.5487
 20
9.3268
 30
0.0
 10
24.8126
 20
9.3268
 30
0.0
 10
24.8126
 20
9.3268
 30
0.0
 10
24.8126
 20
9.3268
 30
0.0
 10
24.7207
 20
9.4555
 30
0.0
 10
24.6386
 20
9.5977
 30
0.0
 10
24.5662
 20
9.753
 30
0.0
 10
24.5662
 20
9.753
 30
0.0
 10
24.4931
 20
9.9088
 30
0.0
 10
24.4355
 20
10.0809
 30
0.0
 10
24.3928
 20
10.2704
 30
0.0
 10
24.3928
 20
10.2704
 30
0.0
 10
24.3501
 20
10.4592
 30
0.0
 10
24.3282
 20
10.6688
 30
0.0
 10
24.3275
 20
10.8984
 30
0.0
 10
24.3275
 20
10.8984
 30
0.0
 10
24.3282
 20
11.1331
 30
0.0
 10
24.3489
 20
11.3472
 30
0.0
 10
24.3902
 20
11.5393
 30
0.0
 10
24.3902
 20
11.5393
 30
0.0
 10
24.4316
 20
11.732
 30
0.0
 10
24.4885
 20
11.9066
 30
0.0
 10
24.561
 20
12.0632
 30
0.0
 10
24.561
 20
12.0632
 30
0.0
 10
24.6334
 20
12.2197
 30
0.0
 10
24.7175
 20
12.362
 30
0.0
 10
24.8126
 20
12.4894
 30
0.0
 10
24.8126
 20
12.4894
 30
0.0
 10
24.8126
 20
12.4894
 30
0.0
 10
24.5487
 20
12.4894
 30
0.0
 10
24.5487
 20
12.4894
 30
0.0
  0
SPLINE
  5
7C
330
1F
100
AcDbEntity
  8
Vrstva 1
 62
   250
100
AcDbSpline
210
0.0
220
0.0
230
1.0
 70
    11
 71
     3
 72
   104
 73
   100
 74
     0
 42
0.0000000001
 43
0.0000000001
 40
0.0
 40
0.0
 40
0.0
 40
0.0
 40
0.0384615384615385
 40
0.0384615384615385
 40
0.0384615384615385
 40
0.0384615384615385
 40
0.0769230769230769
 40
0.0769230769230769
 40
0.0769230769230769
 40
0.0769230769230769
 40
0.1153846153846154
 40
0.1153846153846154
 40
0.1153846153846154
 40
0.1153846153846154
 40
0.1538461538461539
 40
0.1538461538461539
 40
0.1538461538461539
 40
0.1538461538461539
 40
0.1923076923076923
 40
0.1923076923076923
 40
0.1923076923076923
 40
0.1923076923076923
 40
0.2307692307692308
 40
0.2307692307692308
 40
0.2307692307692308
 40
0.2307692307692308
 40
0.2692307692307692
 40
0.2692307692307692
 40
0.2692307692307692
 40
0.2692307692307692
 40
0.3076923076923077
 40
0.3076923076923077
 40
0.3076923076923077
 40
0.3076923076923077
 40
0.3461538461538461
 40
0.3461538461538461
 40
0.3461538461538461
 40
0.3461538461538461
 40
0.3846153846153846
 40
0.3846153846153846
 40
0.3846153846153846
 40
0.3846153846153846
 40
0.4230769230769231
 40
0.4230769230769231
 40
0.4230769230769231
 40
0.4230769230769231
 40
0.4615384615384616
 40
0.4615384615384616
 40
0.4615384615384616
 40
0.4615384615384616
 40
0.5
 40
0.5
 40
0.5
 40
0.5
 40
0.5384615384615384
 40
0.5384615384615384
 40
0.5384615384615384
 40
0.5384615384615384
 40
0.5769230769230769
 40
0.5769230769230769
 40
0.5769230769230769
 40
0.5769230769230769
 40
0.6153846153846154
 40
0.6153846153846154
 40
0.6153846153846154
 40
0.6153846153846154
 40
0.6538461538461539
 40
0.6538461538461539
 40
0.6538461538461539
 40
0.6538461538461539
 40
0.6923076923076923
 40
0.6923076923076923
 40
0.6923076923076923
 40
0.6923076923076923
 40
0.7307692307692307
 40
0.7307692307692307
 40
0.7307692307692307
 40
0.7307692307692307
 40
0.7692307692307693
 40
0.7692307692307693
 40
0.7692307692307693
 40
0.7692307692307693
 40
0.8076923076923077
 40
0.8076923076923077
 40
0.8076923076923077
 40
0.8076923076923077
 40
0.8461538461538461
 40
0.8461538461538461
 40
0.8461538461538461
 40
0.8461538461538461
 40
0.8846153846153846
 40
0.8846153846153846
 40
0.8846153846153846
 40
0.8846153846153846
 40
0.9230769230769231
 40
0.9230769230769231
 40
0.9230769230769231
 40
0.9230769230769231
 40
1.0
 40
1.0
 40
1.0
 40
1.0
 10
25.2821
 20
9.6294
 30
0.0
 10
25.2821
 20
9.6294
 30
0.0
 10
25.5266
 20
9.9632
 30
0.0
 10
25.5266
 20
9.9632
 30
0.0
 10
25.5266
 20
9.9632
 30
0.0
 10
25.6204
 20
9.8953
 30
0.0
 10
25.7232
 20
9.8429
 30
0.0
 10
25.8344
 20
9.8073
 30
0.0
 10
25.8344
 20
9.8073
 30
0.0
 10
25.9463
 20
9.7717
 30
0.0
 10
26.0634
 20
9.7536
 30
0.0
 10
26.1863
 20
9.7536
 30
0.0
 10
26.1863
 20
9.7536
 30
0.0
 10
26.3124
 20
9.7536
 30
0.0
 10
26.4346
 20
9.7724
 30
0.0
 10
26.5517
 20
9.8092
 30
0.0
 10
26.5517
 20
9.8092
 30
0.0
 10
26.6687
 20
9.8461
 30
0.0
 10
26.7774
 20
9.9011
 30
0.0
 10
26.877
 20
9.9748
 30
0.0
 10
26.877
 20
9.9748
 30
0.0
 10
26.9772
 20
10.0479
 30
0.0
 10
27.0646
 20
10.1397
 30
0.0
 10
27.1396
 20
10.2497
 30
0.0
 10
27.1396
 20
10.2497
 30
0.0
 10
27.214
 20
10.3596
 30
0.0
 10
27.2722
 20
10.4877
 30
0.0
 10
27.3142
 20
10.6345
 30
0.0
 10
27.3142
 20
10.6345
 30
0.0
 10
27.3556
 20
10.7807
 30
0.0
 10
27.3769
 20
10.9449
 30
0.0
 10
27.3776
 20
11.1273
 30
0.0
 10
27.3776
 20
11.1273
 30
0.0
 10
27.3776
 20
11.256
 30
0.0
 10
27.3647
 20
11.3783
 30
0.0
 10
27.3381
 20
11.4947
 30
0.0
 10
27.3381
 20
11.4947
 30
0.0
 10
27.3123
 20
11.6117
 30
0.0
 10
27.2741
 20
11.7204
 30
0.0
 10
27.2243
 20
11.8206
 30
0.0
 10
27.2243
 20
11.8206
 30
0.0
 10
27.1739
 20
11.9209
 30
0.0
 10
27.1124
 20
12.0101
 30
0.0
 10
27.04
 20
12.0897
 30
0.0
 10
27.04
 20
12.0897
 30
0.0
 10
27.04
 20
12.0897
 30
0.0
 10
27.2806
 20
12.4234
 30
0.0
 10
27.2806
 20
12.4234
 30
0.0
 10
27.2806
 20
12.4234
 30
0.0
 10
27.2806
 20
12.4234
 30
0.0
 10
27.0749
 20
12.5631
 30
0.0
 10
27.0749
 20
12.5631
 30
0.0
 10
27.0749
 20
12.5631
 30
0.0
 10
27.0749
 20
12.5631
 30
0.0
 10
26.846
 20
12.2488
 30
0.0
 10
26.846
 20
12.2488
 30
0.0
 10
26.846
 20
12.2488
 30
0.0
 10
26.7522
 20
12.3186
 30
0.0
 10
26.6506
 20
12.371
 30
0.0
 10
26.5407
 20
12.4059
 30
0.0
 10
26.5407
 20
12.4059
 30
0.0
 10
26.4301
 20
12.4409
 30
0.0
 10
26.315
 20
12.4583
 30
0.0
 10
26.194
 20
12.4583
 30
0.0
 10
26.194
 20
12.4583
 30
0.0
 10
26.0214
 20
12.4577
 30
0.0
 10
25.8623
 20
12.4253
 30
0.0
 10
25.7154
 20
12.3613
 30
0.0
 10
25.7154
 20
12.3613
 30
0.0
 10
25.5693
 20
12.2973
 30
0.0
 10
25.4419
 20
12.2048
 30
0.0
 10
25.3332
 20
12.0851
 30
0.0
 10
25.3332
 20
12.0851
 30
0.0
 10
25.2239
 20
11.9655
 30
0.0
 10
25.1398
 20
11.8219
 30
0.0
 10
25.079
 20
11.6544
 30
0.0
 10
25.079
 20
11.6544
 30
0.0
 10
25.0189
 20
11.4869
 30
0.0
 10
24.9878
 20
11.3
 30
0.0
 10
24.9872
 20
11.0924
 30
0.0
 10
24.9872
 20
11.0924
 30
0.0
 10
24.9872
 20
10.9617
 30
0.0
 10
25.0014
 20
10.8369
 30
0.0
 10
25.0286
 20
10.7192
 30
0.0
 10
25.0286
 20
10.7192
 30
0.0
 10
25.0558
 20
10.6015
 30
0.0
 10
25.0952
 20
10.4922
 30
0.0
 10
25.1463
 20
10.392
 30
0.0
 10
25.1463
 20
10.392
 30
0.0
 10
25.198
 20
10.2917
 30
0.0
 10
25.2601
 20
10.2018
 30
0.0
 10
25.3326
 20
10.1223
 30
0.0
 10
25.3326
 20
10.1223
 30
0.0
 10
25.3326
 20
10.1223
 30
0.0
 10
25.092
 20
9.7847
 30
0.0
 10
25.092
 20
9.7847
 30
0.0
 10
25.092
 20
9.7847
 30
0.0
 10
25.092
 20
9.7847
 30
0.0
 10
25.2821
 20
9.6294
 30
0.0
 10
25.2821
 20
9.6294
 30
0.0
  0
SPLINE
  5
7D
330
1F
100
AcDbEntity
  8
Vrstva 1
 62
   250
100
AcDbSpline
210
0.0
220
0.0
230
1.0
 70
    11
 71
     3
 72
    52
 73
    48
 74
     0
 42
0.0000000001
 43
0.0000000001
 40
0.0
 40
0.0
 40
0.0
 40
0.0
 40
0.0769230769230769
 40
0.0769230769230769
 40
0.0769230769230769
 40
0.0769230769230769
 40
0.1538461538461539
 40
0.1538461538461539
 40
0.1538461538461539
 40
0.1538461538461539
 40
0.2307692307692308
 40
0.2307692307692308
 40
0.2307692307692308
 40
0.2307692307692308
 40
0.3076923076923077
 40
0.3076923076923077
 40
0.3076923076923077
 40
0.3076923076923077
 40
0.3846153846153846
 40
0.3846153846153846
 40
0.3846153846153846
 40
0.3846153846153846
 40
0.4615384615384616
 40
0.4615384615384616
 40
0.4615384615384616
 40
0.4615384615384616
 40
0.5384615384615384
 40
0.5384615384615384
 40
0.5384615384615384
 40
0.5384615384615384
 40
0.6153846153846154
 40
0.6153846153846154
 40
0.6153846153846154
 40
0.6153846153846154
 40
0.6923076923076923
 40
0.6923076923076923
 40
0.6923076923076923
 40
0.6923076923076923
 40
0.7692307692307693
 40
0.7692307692307693
 40
0.7692307692307693
 40
0.7692307692307693
 40
0.8461538461538461
 40
0.8461538461538461
 40
0.8461538461538461
 40
0.8461538461538461
 40
1.0
 40
1.0
 40
1.0
 40
1.0
 10
25.5305
 20
10.4094
 30
0.0
 10
25.5305
 20
10.4094
 30
0.0
 10
25.5227
 20
10.4055
 30
0.0
 10
25.5227
 20
10.4055
 30
0.0
 10
25.5227
 20
10.4055
 30
0.0
 10
25.4839
 20
10.4722
 30
0.0
 10
25.4503
 20
10.5414
 30
0.0
 10
25.4218
 20
10.6125
 30
0.0
 10
25.4218
 20
10.6125
 30
0.0
 10
25.3934
 20
10.6843
 30
0.0
 10
25.3714
 20
10.76
 30
0.0
 10
25.3558
 20
10.8414
 30
0.0
 10
25.3558
 20
10.8414
 30
0.0
 10
25.3403
 20
10.9223
 30
0.0
 10
25.3326
 20
11.0115
 30
0.0
 10
25.3326
 20
11.1079
 30
0.0
 10
25.3326
 20
11.1079
 30
0.0
 10
25.3326
 20
11.2192
 30
0.0
 10
25.3442
 20
11.3265
 30
0.0
 10
25.3668
 20
11.4319
 30
0.0
 10
25.3668
 20
11.4319
 30
0.0
 10
25.3901
 20
11.5367
 30
0.0
 10
25.4244
 20
11.635
 30
0.0
 10
25.4697
 20
11.7256
 30
0.0
 10
25.4697
 20
11.7256
 30
0.0
 10
25.5156
 20
11.8167
 30
0.0
 10
25.5725
 20
11.8969
 30
0.0
 10
25.6411
 20
11.9655
 30
0.0
 10
25.6411
 20
11.9655
 30
0.0
 10
25.7096
 20
12.0347
 30
0.0
 10
25.7892
 20
12.0884
 30
0.0
 10
25.8797
 20
12.1272
 30
0.0
 10
25.8797
 20
12.1272
 30
0.0
 10
25.9709
 20
12.1666
 30
0.0
 10
26.0731
 20
12.186
 30
0.0
 10
26.1863
 20
12.1867
 30
0.0
 10
26.1863
 20
12.1867
 30
0.0
 10
26.2852
 20
12.186
 30
0.0
 10
26.3758
 20
12.1699
 30
0.0
 10
26.4573
 20
12.1375
 30
0.0
 10
26.4573
 20
12.1375
 30
0.0
 10
26.5394
 20
12.1058
 30
0.0
 10
26.6131
 20
12.0612
 30
0.0
 10
26.6791
 20
12.0043
 30
0.0
 10
26.6791
 20
12.0043
 30
0.0
 10
26.6791
 20
12.0043
 30
0.0
 10
25.5305
 20
10.4094
 30
0.0
 10
25.5305
 20
10.4094
 30
0.0
  0
SPLINE
  5
7E
330
1F
100
AcDbEntity
  8
Vrstva 1
 62
   250
100
AcDbSpline
210
0.0
220
0.0
230
1.0
 70
    11
 71
     3
 72
    48
 73
    44
 74
     0
 42
0.0000000001
 43
0.0000000001
 40
0.0
 40
0.0
 40
0.0
 40
0.0
 40
0.0833333333333333
 40
0.0833333333333333
 40
0.0833333333333333
 40
0.0833333333333333
 40
0.1666666666666667
 40
0.1666666666666667
 40
0.1666666666666667
 40
0.1666666666666667
 40
0.25
 40
0.25
 40
0.25
 40
0.25
 40
0.3333333333333333
 40
0.3333333333333333
 40
0.3333333333333333
 40
0.3333333333333333
 40
0.4166666666666667
 40
0.4166666666666667
 40
0.4166666666666667
 40
0.4166666666666667
 40
0.5
 40
0.5
 40
0.5
 40
0.5
 40
0.5833333333333334
 40
0.5833333333333334
 40
0.5833333333333334
 40
0.5833333333333334
 40
0.6666666666666666
 40
0.6666666666666666
 40
0.6666666666666666
 40
0.6666666666666666
 40
0.75
 40
0.75
 40
0.75
 40
0.75
 40
0.8333333333333334
 40
0.8333333333333334
 40
0.8333333333333334
 40
0.8333333333333334
 40
1.0
 40
1.0
 40
1.0
 40
1.0
 10
26.8382
 20
11.7986
 30
0.0
 10
26.8382
 20
11.7986
 30
0.0
 10
26.8498
 20
11.7986
 30
0.0
 10
26.8498
 20
11.7986
 30
0.0
 10
26.8498
 20
11.7986
 30
0.0
 10
26.9171
 20
11.6861
 30
0.0
 10
26.9643
 20
11.5723
 30
0.0
 10
26.9921
 20
11.4572
 30
0.0
 10
26.9921
 20
11.4572
 30
0.0
 10
27.0199
 20
11.3427
 30
0.0
 10
27.0335
 20
11.2289
 30
0.0
 10
27.0322
 20
11.1157
 30
0.0
 10
27.0322
 20
11.1157
 30
0.0
 10
27.0322
 20
10.998
 30
0.0
 10
27.0199
 20
10.8854
 30
0.0
 10
26.996
 20
10.7774
 30
0.0
 10
26.996
 20
10.7774
 30
0.0
 10
26.9721
 20
10.6694
 30
0.0
 10
26.9365
 20
10.5698
 30
0.0
 10
26.8899
 20
10.4786
 30
0.0
 10
26.8899
 20
10.4786
 30
0.0
 10
26.8427
 20
10.3874
 30
0.0
 10
26.7852
 20
10.3079
 30
0.0
 10
26.7166
 20
10.2406
 30
0.0
 10
26.7166
 20
10.2406
 30
0.0
 10
26.6474
 20
10.1727
 30
0.0
 10
26.5685
 20
10.1197
 30
0.0
 10
26.4793
 20
10.0822
 30
0.0
 10
26.4793
 20
10.0822
 30
0.0
 10
26.39
 20
10.0447
 30
0.0
 10
26.291
 20
10.0259
 30
0.0
 10
26.1824
 20
10.0252
 30
0.0
 10
26.1824
 20
10.0252
 30
0.0
 10
26.077
 20
10.0252
 30
0.0
 10
25.9845
 20
10.0414
 30
0.0
 10
25.9062
 20
10.0731
 30
0.0
 10
25.9062
 20
10.0731
 30
0.0
 10
25.8273
 20
10.1048
 30
0.0
 10
25.7568
 20
10.1514
 30
0.0
 10
25.6934
 20
10.2115
 30
0.0
 10
25.6934
 20
10.2115
 30
0.0
 10
25.6934
 20
10.2115
 30
0.0
 10
26.8382
 20
11.7986
 30
0.0
 10
26.8382
 20
11.7986
 30
0.0
  0
SPLINE
  5
7F
330
1F
100
AcDbEntity
  8
Vrstva 1
 62
   250
100
AcDbSpline
210
0.0
220
0.0
230
1.0
 70
    11
 71
     3
 72
    48
 73
    44
 74
     0
 42
0.0000000001
 43
0.0000000001
 40
0.0
 40
0.0
 40
0.0
 40
0.0
 40
0.0833333333333333
 40
0.0833333333333333
 40
0.0833333333333333
 40
0.0833333333333333
 40
0.1666666666666667
 40
0.1666666666666667
 40
0.1666666666666667
 40
0.1666666666666667
 40
0.25
 40
0.25
 40
0.25
 40
0.25
 40
0.3333333333333333
 40
0.3333333333333333
 40
0.3333333333333333
 40
0.3333333333333333
 40
0.4166666666666667
 40
0.4166666666666667
 40
0.4166666666666667
 40
0.4166666666666667
 40
0.5
 40
0.5
 40
0.5
 40
0.5
 40
0.5833333333333334
 40
0.5833333333333334
 40
0.5833333333333334
 40
0.5833333333333334
 40
0.6666666666666666
 40
0.6666666666666666
 40
0.6666666666666666
 40
0.6666666666666666
 40
0.75
 40
0.75
 40
0.75
 40
0.75
 40
0.8333333333333334
 40
0.8333333333333334
 40
0.8333333333333334
 40
0.8333333333333334
 40
1.0
 40
1.0
 40
1.0
 40
1.0
 10
29.0734
 20
9.7963
 30
0.0
 10
29.0734
 20
9.7963
 30
0.0
 10
29.0734
 20
10.487
 30
0.0
 10
29.0734
 20
10.487
 30
0.0
 10
29.0734
 20
10.487
 30
0.0
 10
29.0734
 20
10.487
 30
0.0
 10
29.4265
 20
10.487
 30
0.0
 10
29.4265
 20
10.487
 30
0.0
 10
29.4265
 20
10.487
 30
0.0
 10
29.4265
 20
10.487
 30
0.0
 10
29.4265
 20
10.7509
 30
0.0
 10
29.4265
 20
10.7509
 30
0.0
 10
29.4265
 20
10.7509
 30
0.0
 10
29.4265
 20
10.7509
 30
0.0
 10
29.0734
 20
10.7509
 30
0.0
 10
29.0734
 20
10.7509
 30
0.0
 10
29.0734
 20
10.7509
 30
0.0
 10
29.0734
 20
10.7509
 30
0.0
 10
29.0734
 20
12.3186
 30
0.0
 10
29.0734
 20
12.3186
 30
0.0
 10
29.0734
 20
12.3186
 30
0.0
 10
29.0734
 20
12.3186
 30
0.0
 10
28.7048
 20
12.3186
 30
0.0
 10
28.7048
 20
12.3186
 30
0.0
 10
28.7048
 20
12.3186
 30
0.0
 10
28.7048
 20
12.3186
 30
0.0
 10
27.5794
 20
10.7082
 30
0.0
 10
27.5794
 20
10.7082
 30
0.0
 10
27.5794
 20
10.7082
 30
0.0
 10
27.5794
 20
10.7082
 30
0.0
 10
27.5794
 20
10.487
 30
0.0
 10
27.5794
 20
10.487
 30
0.0
 10
27.5794
 20
10.487
 30
0.0
 10
27.5794
 20
10.487
 30
0.0
 10
28.7513
 20
10.487
 30
0.0
 10
28.7513
 20
10.487
 30
0.0
 10
28.7513
 20
10.487
 30
0.0
 10
28.7513
 20
10.487
 30
0.0
 10
28.7513
 20
9.7963
 30
0.0
 10
28.7513
 20
9.7963
 30
0.0
 10
28.7513
 20
9.7963
 30
0.0
 10
28.7513
 20
9.7963
 30
0.0
 10
29.0734
 20
9.7963
 30
0.0
 10
29.0734
 20
9.7963
 30
0.0
  0
SPLINE
  5
80
330
1F
100
AcDbEntity
  8
Vrstva 1
 62
   250
100
AcDbSpline
210
0.0
220
0.0
230
1.0
 70
    11
 71
     3
 72
    36
 73
    32
 74
     0
 42
0.0000000001
 43
0.0000000001
 40
0.0
 40
0.0
 40
0.0
 40
0.0
 40
0.1111111111111111
 40
0.1111111111111111
 40
0.1111111111111111
 40
0.1111111111111111
 40
0.2222222222222222
 40
0.2222222222222222
 40
0.2222222222222222
 40
0.2222222222222222
 40
0.3333333333333333
 40
0.3333333333333333
 40
0.3333333333333333
 40
0.3333333333333333
 40
0.4444444444444444
 40
0.4444444444444444
 40
0.4444444444444444
 40
0.4444444444444444
 40
0.5555555555555556
 40
0.5555555555555556
 40
0.5555555555555556
 40
0.5555555555555556
 40
0.6666666666666666
 40
0.6666666666666666
 40
0.6666666666666666
 40
0.6666666666666666
 40
0.7777777777777778
 40
0.7777777777777778
 40
0.7777777777777778
 40
0.7777777777777778
 40
1.0
 40
1.0
 40
1.0
 40
1.0
 10
27.9248
 20
10.7509
 30
0.0
 10
27.9248
 20
10.7509
 30
0.0
 10
27.9248
 20
10.7587
 30
0.0
 10
27.9248
 20
10.7587
 30
0.0
 10
27.9248
 20
10.7587
 30
0.0
 10
27.9248
 20
10.7587
 30
0.0
 10
28.5418
 20
11.6163
 30
0.0
 10
28.5418
 20
11.6163
 30
0.0
 10
28.5418
 20
11.6163
 30
0.0
 10
28.576
 20
11.6738
 30
0.0
 10
28.6103
 20
11.732
 30
0.0
 10
28.644
 20
11.7909
 30
0.0
 10
28.644
 20
11.7909
 30
0.0
 10
28.6769
 20
11.8504
 30
0.0
 10
28.7132
 20
11.9163
 30
0.0
 10
28.7513
 20
11.9888
 30
0.0
 10
28.7513
 20
11.9888
 30
0.0
 10
28.7513
 20
11.9888
 30
0.0
 10
28.763
 20
11.9888
 30
0.0
 10
28.763
 20
11.9888
 30
0.0
 10
28.763
 20
11.9888
 30
0.0
 10
28.7552
 20
11.8568
 30
0.0
 10
28.7513
 20
11.7249
 30
0.0
 10
28.7513
 20
11.593
 30
0.0
 10
28.7513
 20
11.593
 30
0.0
 10
28.7513
 20
11.593
 30
0.0
 10
28.7513
 20
10.7509
 30
0.0
 10
28.7513
 20
10.7509
 30
0.0
 10
28.7513
 20
10.7509
 30
0.0
 10
28.7513
 20
10.7509
 30
0.0
 10
27.9248
 20
10.7509
 30
0.0
 10
27.9248
 20
10.7509
 30
0.0
  0
SPLINE
  5
81
330
1F
100
AcDbEntity
  8
Vrstva 1
 62
   250
100
AcDbSpline
210
0.0
220
0.0
230
1.0
 70
    11
 71
     3
 72
   124
 73
   120
 74
     0
 42
0.0000000001
 43
0.0000000001
 40
0.0
 40
0.0
 40
0.0
 40
0.0
 40
0.032258064516129
 40
0.032258064516129
 40
0.032258064516129
 40
0.032258064516129
 40
0.0645161290322581
 40
0.0645161290322581
 40
0.0645161290322581
 40
0.0645161290322581
 40
0.0967741935483871
 40
0.0967741935483871
 40
0.0967741935483871
 40
0.0967741935483871
 40
0.1290322580645161
 40
0.1290322580645161
 40
0.1290322580645161
 40
0.1290322580645161
 40
0.1612903225806452
 40
0.1612903225806452
 40
0.1612903225806452
 40
0.1612903225806452
 40
0.1935483870967742
 40
0.1935483870967742
 40
0.1935483870967742
 40
0.1935483870967742
 40
0.2258064516129032
 40
0.2258064516129032
 40
0.2258064516129032
 40
0.2258064516129032
 40
0.2580645161290323
 40
0.2580645161290323
 40
0.2580645161290323
 40
0.2580645161290323
 40
0.2903225806451613
 40
0.2903225806451613
 40
0.2903225806451613
 40
0.2903225806451613
 40
0.3225806451612903
 40
0.3225806451612903
 40
0.3225806451612903
 40
0.3225806451612903
 40
0.3548387096774194
 40
0.3548387096774194
 40
0.3548387096774194
 40
0.3548387096774194
 40
0.3870967741935484
 40
0.3870967741935484
 40
0.3870967741935484
 40
0.3870967741935484
 40
0.4193548387096774
 40
0.4193548387096774
 40
0.4193548387096774
 40
0.4193548387096774
 40
0.4516129032258064
 40
0.4516129032258064
 40
0.4516129032258064
 40
0.4516129032258064
 40
0.4838709677419355
 40
0.4838709677419355
 40
0.4838709677419355
 40
0.4838709677419355
 40
0.5161290322580645
 40
0.5161290322580645
 40
0.5161290322580645
 40
0.5161290322580645
 40
0.5483870967741935
 40
0.5483870967741935
 40
0.5483870967741935
 40
0.5483870967741935
 40
0.5806451612903226
 40
0.5806451612903226
 40
0.5806451612903226
 40
0.5806451612903226
 40
0.6129032258064516
 40
0.6129032258064516
 40
0.6129032258064516
 40
0.6129032258064516
 40
0.6451612903225806
 40
0.6451612903225806
 40
0.6451612903225806
 40
0.6451612903225806
 40
0.6774193548387096
 40
0.6774193548387096
 40
0.6774193548387096
 40
0.6774193548387096
 40
0.7096774193548387
 40
0.7096774193548387
 40
0.7096774193548387
 40
0.7096774193548387
 40
0.7419354838709677
 40
0.7419354838709677
 40
0.7419354838709677
 40
0.7419354838709677
 40
0.7741935483870968
 40
0.7741935483870968
 40
0.7741935483870968
 40
0.7741935483870968
 40
0.8064516129032258
 40
0.8064516129032258
 40
0.8064516129032258
 40
0.8064516129032258
 40
0.8387096774193549
 40
0.8387096774193549
 40
0.8387096774193549
 40
0.8387096774193549
 40
0.8709677419354839
 40
0.8709677419354839
 40
0.8709677419354839
 40
0.8709677419354839
 40
0.9032258064516129
 40
0.9032258064516129
 40
0.9032258064516129
 40
0.9032258064516129
 40
0.9354838709677419
 40
0.9354838709677419
 40
0.9354838709677419
 40
0.9354838709677419
 40
1.0
 40
1.0
 40
1.0
 40
1.0
 10
30.1561
 20
11.1118
 30
0.0
 10
30.0519
 20
11.0678
 30
0.0
 10
29.9627
 20
11.0128
 30
0.0
 10
29.8883
 20
10.9482
 30
0.0
 10
29.8883
 20
10.9482
 30
0.0
 10
29.8139
 20
10.8828
 30
0.0
 10
29.7564
 20
10.8072
 30
0.0
 10
29.7163
 20
10.7212
 30
0.0
 10
29.7163
 20
10.7212
 30
0.0
 10
29.6762
 20
10.6351
 30
0.0
 10
29.6561
 20
10.5388
 30
0.0
 10
29.6555
 20
10.4327
 30
0.0
 10
29.6555
 20
10.4327
 30
0.0
 10
29.6561
 20
10.3396
 30
0.0
 10
29.6749
 20
10.2529
 30
0.0
 10
29.7137
 20
10.1708
 30
0.0
 10
29.7137
 20
10.1708
 30
0.0
 10
29.7518
 20
10.0893
 30
0.0
 10
29.8075
 20
10.0175
 30
0.0
 10
29.8805
 20
9.9548
 30
0.0
 10
29.8805
 20
9.9548
 30
0.0
 10
29.9536
 20
9.8927
 30
0.0
 10
30.0422
 20
9.8435
 30
0.0
 10
30.1464
 20
9.8079
 30
0.0
 10
30.1464
 20
9.8079
 30
0.0
 10
30.2511
 20
9.7724
 30
0.0
 10
30.3695
 20
9.7543
 30
0.0
 10
30.5014
 20
9.7536
 30
0.0
 10
30.5014
 20
9.7536
 30
0.0
 10
30.6224
 20
9.7543
 30
0.0
 10
30.7349
 20
9.7717
 30
0.0
 10
30.8384
 20
9.806
 30
0.0
 10
30.8384
 20
9.806
 30
0.0
 10
30.9419
 20
9.8403
 30
0.0
 10
31.0331
 20
9.8901
 30
0.0
 10
31.1107
 20
9.9548
 30
0.0
 10
31.1107
 20
9.9548
 30
0.0
 10
31.1883
 20
10.0188
 30
0.0
 10
31.2491
 20
10.0957
 30
0.0
 10
31.2924
 20
10.1856
 30
0.0
 10
31.2924
 20
10.1856
 30
0.0
 10
31.3364
 20
10.2755
 30
0.0
 10
31.3584
 20
10.3758
 30
0.0
 10
31.359
 20
10.487
 30
0.0
 10
31.359
 20
10.487
 30
0.0
 10
31.3584
 20
10.5879
 30
0.0
 10
31.3377
 20
10.6798
 30
0.0
 10
31.2969
 20
10.7632
 30
0.0
 10
31.2969
 20
10.7632
 30
0.0
 10
31.2562
 20
10.846
 30
0.0
 10
31.198
 20
10.9191
 30
0.0
 10
31.1223
 20
10.9818
 30
0.0
 10
31.1223
 20
10.9818
 30
0.0
 10
31.0466
 20
11.0452
 30
0.0
 10
30.9561
 20
11.0976
 30
0.0
 10
30.8507
 20
11.139
 30
0.0
 10
30.8507
 20
11.139
 30
0.0
 10
30.8507
 20
11.139
 30
0.0
 10
30.8507
 20
11.1506
 30
0.0
 10
30.8507
 20
11.1506
 30
0.0
 10
30.8507
 20
11.1506
 30
0.0
 10
30.9535
 20
11.1991
 30
0.0
 10
31.0356
 20
11.2554
 30
0.0
 10
31.0971
 20
11.32
 30
0.0
 10
31.0971
 20
11.32
 30
0.0
 10
31.1585
 20
11.3841
 30
0.0
 10
31.2032
 20
11.4526
 30
0.0
 10
31.2303
 20
11.5244
 30
0.0
 10
31.2303
 20
11.5244
 30
0.0
 10
31.2568
 20
11.5969
 30
0.0
 10
31.2704
 20
11.6686
 30
0.0
 10
31.2698
 20
11.7404
 30
0.0
 10
31.2698
 20
11.7404
 30
0.0
 10
31.2698
 20
11.8206
 30
0.0
 10
31.2542
 20
11.8982
 30
0.0
 10
31.2232
 20
11.972
 30
0.0
 10
31.2232
 20
11.972
 30
0.0
 10
31.1922
 20
12.0457
 30
0.0
 10
31.1462
 20
12.1117
 30
0.0
 10
31.0848
 20
12.1705
 30
0.0
 10
31.0848
 20
12.1705
 30
0.0
 10
31.0227
 20
12.2287
 30
0.0
 10
30.9457
 20
12.2753
 30
0.0
 10
30.8539
 20
12.3089
 30
0.0
 10
30.8539
 20
12.3089
 30
0.0
 10
30.7621
 20
12.3432
 30
0.0
 10
30.6547
 20
12.3607
 30
0.0
 10
30.5325
 20
12.3613
 30
0.0
 10
30.5325
 20
12.3613
 30
0.0
 10
30.4206
 20
12.3607
 30
0.0
 10
30.3165
 20
12.3445
 30
0.0
 10
30.222
 20
12.3128
 30
0.0
 10
30.222
 20
12.3128
 30
0.0
 10
30.127
 20
12.2805
 30
0.0
 10
30.0442
 20
12.2352
 30
0.0
 10
29.973
 20
12.1757
 30
0.0
 10
29.973
 20
12.1757
 30
0.0
 10
29.9025
 20
12.1162
 30
0.0
 10
29.8476
 20
12.0457
 30
0.0
 10
29.8081
 20
11.9636
 30
0.0
 10
29.8081
 20
11.9636
 30
0.0
 10
29.7693
 20
11.8814
 30
0.0
 10
29.7493
 20
11.7902
 30
0.0
 10
29.7486
 20
11.69
 30
0.0
 10
29.7486
 20
11.69
 30
0.0
 10
29.7486
 20
11.6169
 30
0.0
 10
29.7622
 20
11.5458
 30
0.0
 10
29.7906
 20
11.4759
 30
0.0
 10
29.7906
 20
11.4759
 30
0.0
 10
29.8185
 20
11.4061
 30
0.0
 10
29.8624
 20
11.3407
 30
0.0
 10
29.9219
 20
11.2806
 30
0.0
 10
29.9219
 20
11.2806
 30
0.0
 10
29.9814
 20
11.2204
 30
0.0
 10
30.0578
 20
11.1681
 30
0.0
 10
30.1522
 20
11.1234
 30
0.0
 10
30.1522
 20
11.1234
 30
0.0
 10
30.1522
 20
11.1234
 30
0.0
 10
30.1561
 20
11.1118
 30
0.0
 10
30.1561
 20
11.1118
 30
0.0
  0
SPLINE
  5
82
330
1F
100
AcDbEntity
  8
Vrstva 1
 62
   250
100
AcDbSpline
210
0.0
220
0.0
230
1.0
 70
    11
 71
     3
 72
    56
 73
    52
 74
     0
 42
0.0000000001
 43
0.0000000001
 40
0.0
 40
0.0
 40
0.0
 40
0.0
 40
0.0714285714285714
 40
0.0714285714285714
 40
0.0714285714285714
 40
0.0714285714285714
 40
0.1428571428571428
 40
0.1428571428571428
 40
0.1428571428571428
 40
0.1428571428571428
 40
0.2142857142857143
 40
0.2142857142857143
 40
0.2142857142857143
 40
0.2142857142857143
 40
0.2857142857142857
 40
0.2857142857142857
 40
0.2857142857142857
 40
0.2857142857142857
 40
0.3571428571428572
 40
0.3571428571428572
 40
0.3571428571428572
 40
0.3571428571428572
 40
0.4285714285714285
 40
0.4285714285714285
 40
0.4285714285714285
 40
0.4285714285714285
 40
0.5
 40
0.5
 40
0.5
 40
0.5
 40
0.5714285714285714
 40
0.5714285714285714
 40
0.5714285714285714
 40
0.5714285714285714
 40
0.6428571428571429
 40
0.6428571428571429
 40
0.6428571428571429
 40
0.6428571428571429
 40
0.7142857142857143
 40
0.7142857142857143
 40
0.7142857142857143
 40
0.7142857142857143
 40
0.7857142857142857
 40
0.7857142857142857
 40
0.7857142857142857
 40
0.7857142857142857
 40
0.8571428571428571
 40
0.8571428571428571
 40
0.8571428571428571
 40
0.8571428571428571
 40
1.0
 40
1.0
 40
1.0
 40
1.0
 10
30.5092
 20
10.002
 30
0.0
 10
30.4283
 20
10.0026
 30
0.0
 10
30.3566
 20
10.0155
 30
0.0
 10
30.2932
 20
10.0408
 30
0.0
 10
30.2932
 20
10.0408
 30
0.0
 10
30.2291
 20
10.0666
 30
0.0
 10
30.1755
 20
10.1016
 30
0.0
 10
30.1315
 20
10.1462
 30
0.0
 10
30.1315
 20
10.1462
 30
0.0
 10
30.0882
 20
10.1902
 30
0.0
 10
30.0552
 20
10.2413
 30
0.0
 10
30.0332
 20
10.2982
 30
0.0
 10
30.0332
 20
10.2982
 30
0.0
 10
30.0118
 20
10.3551
 30
0.0
 10
30.0021
 20
10.4159
 30
0.0
 10
30.0047
 20
10.4793
 30
0.0
 10
30.0047
 20
10.4793
 30
0.0
 10
30.0047
 20
10.5601
 30
0.0
 10
30.0222
 20
10.6345
 30
0.0
 10
30.0571
 20
10.703
 30
0.0
 10
30.0571
 20
10.703
 30
0.0
 10
30.0914
 20
10.7716
 30
0.0
 10
30.1425
 20
10.8317
 30
0.0
 10
30.2097
 20
10.8828
 30
0.0
 10
30.2097
 20
10.8828
 30
0.0
 10
30.2777
 20
10.9339
 30
0.0
 10
30.3604
 20
10.974
 30
0.0
 10
30.4587
 20
11.0031
 30
0.0
 10
30.4587
 20
11.0031
 30
0.0
 10
30.5732
 20
10.9714
 30
0.0
 10
30.6715
 20
10.932
 30
0.0
 10
30.7543
 20
10.8841
 30
0.0
 10
30.7543
 20
10.8841
 30
0.0
 10
30.8371
 20
10.8369
 30
0.0
 10
30.9011
 20
10.7781
 30
0.0
 10
30.9457
 20
10.7082
 30
0.0
 10
30.9457
 20
10.7082
 30
0.0
 10
30.9904
 20
10.6377
 30
0.0
 10
31.013
 20
10.5524
 30
0.0
 10
31.0137
 20
10.4521
 30
0.0
 10
31.0137
 20
10.4521
 30
0.0
 10
31.013
 20
10.3648
 30
0.0
 10
30.9923
 20
10.2872
 30
0.0
 10
30.9509
 20
10.2199
 30
0.0
 10
30.9509
 20
10.2199
 30
0.0
 10
30.9095
 20
10.1527
 30
0.0
 10
30.8513
 20
10.0996
 30
0.0
 10
30.7763
 20
10.0608
 30
0.0
 10
30.7763
 20
10.0608
 30
0.0
 10
30.7013
 20
10.022
 30
0.0
 10
30.612
 20
10.0026
 30
0.0
 10
30.5092
 20
10.002
 30
0.0
  0
SPLINE
  5
83
330
1F
100
AcDbEntity
  8
Vrstva 1
 62
   250
100
AcDbSpline
210
0.0
220
0.0
230
1.0
 70
    11
 71
     3
 72
    56
 73
    52
 74
     0
 42
0.0000000001
 43
0.0000000001
 40
0.0
 40
0.0
 40
0.0
 40
0.0
 40
0.0714285714285714
 40
0.0714285714285714
 40
0.0714285714285714
 40
0.0714285714285714
 40
0.1428571428571428
 40
0.1428571428571428
 40
0.1428571428571428
 40
0.1428571428571428
 40
0.2142857142857143
 40
0.2142857142857143
 40
0.2142857142857143
 40
0.2142857142857143
 40
0.2857142857142857
 40
0.2857142857142857
 40
0.2857142857142857
 40
0.2857142857142857
 40
0.3571428571428572
 40
0.3571428571428572
 40
0.3571428571428572
 40
0.3571428571428572
 40
0.4285714285714285
 40
0.4285714285714285
 40
0.4285714285714285
 40
0.4285714285714285
 40
0.5
 40
0.5
 40
0.5
 40
0.5
 40
0.5714285714285714
 40
0.5714285714285714
 40
0.5714285714285714
 40
0.5714285714285714
 40
0.6428571428571429
 40
0.6428571428571429
 40
0.6428571428571429
 40
0.6428571428571429
 40
0.7142857142857143
 40
0.7142857142857143
 40
0.7142857142857143
 40
0.7142857142857143
 40
0.7857142857142857
 40
0.7857142857142857
 40
0.7857142857142857
 40
0.7857142857142857
 40
0.8571428571428571
 40
0.8571428571428571
 40
0.8571428571428571
 40
0.8571428571428571
 40
1.0
 40
1.0
 40
1.0
 40
1.0
 10
30.5131
 20
12.1168
 30
0.0
 10
30.5894
 20
12.1162
 30
0.0
 10
30.6547
 20
12.1046
 30
0.0
 10
30.709
 20
12.0813
 30
0.0
 10
30.709
 20
12.0813
 30
0.0
 10
30.7634
 20
12.058
 30
0.0
 10
30.8073
 20
12.0263
 30
0.0
 10
30.8416
 20
11.9868
 30
0.0
 10
30.8416
 20
11.9868
 30
0.0
 10
30.8752
 20
11.9474
 30
0.0
 10
30.9005
 20
11.9034
 30
0.0
 10
30.9166
 20
11.8549
 30
0.0
 10
30.9166
 20
11.8549
 30
0.0
 10
30.9322
 20
11.8064
 30
0.0
 10
30.9399
 20
11.7566
 30
0.0
 10
30.9399
 20
11.7055
 30
0.0
 10
30.9399
 20
11.7055
 30
0.0
 10
30.9393
 20
11.6292
 30
0.0
 10
30.9225
 20
11.5613
 30
0.0
 10
30.8888
 20
11.5018
 30
0.0
 10
30.8888
 20
11.5018
 30
0.0
 10
30.8552
 20
11.4416
 30
0.0
 10
30.8099
 20
11.3905
 30
0.0
 10
30.7517
 20
11.3485
 30
0.0
 10
30.7517
 20
11.3485
 30
0.0
 10
30.6942
 20
11.3058
 30
0.0
 10
30.6288
 20
11.2722
 30
0.0
 10
30.5558
 20
11.2476
 30
0.0
 10
30.5558
 20
11.2476
 30
0.0
 10
30.4581
 20
11.2735
 30
0.0
 10
30.3734
 20
11.3065
 30
0.0
 10
30.3009
 20
11.3466
 30
0.0
 10
30.3009
 20
11.3466
 30
0.0
 10
30.2285
 20
11.3873
 30
0.0
 10
30.1722
 20
11.4378
 30
0.0
 10
30.1328
 20
11.4979
 30
0.0
 10
30.1328
 20
11.4979
 30
0.0
 10
30.0933
 20
11.558
 30
0.0
 10
30.0739
 20
11.6298
 30
0.0
 10
30.0746
 20
11.7133
 30
0.0
 10
30.0746
 20
11.7133
 30
0.0
 10
30.0746
 20
11.787
 30
0.0
 10
30.0914
 20
11.8536
 30
0.0
 10
30.125
 20
11.9144
 30
0.0
 10
30.125
 20
11.9144
 30
0.0
 10
30.1587
 20
11.9752
 30
0.0
 10
30.2084
 20
12.0237
 30
0.0
 10
30.2738
 20
12.0606
 30
0.0
 10
30.2738
 20
12.0606
 30
0.0
 10
30.3384
 20
12.0974
 30
0.0
 10
30.4186
 20
12.1162
 30
0.0
 10
30.5131
 20
12.1168
 30
0.0
  0
SPLINE
  5
84
330
1F
100
AcDbEntity
  8
Vrstva 1
 62
   250
100
AcDbSpline
210
0.0
220
0.0
230
1.0
 70
    11
 71
     3
 72
    68
 73
    64
 74
     0
 42
0.0000000001
 43
0.0000000001
 40
0.0
 40
0.0
 40
0.0
 40
0.0
 40
0.0588235294117647
 40
0.0588235294117647
 40
0.0588235294117647
 40
0.0588235294117647
 40
0.1176470588235294
 40
0.1176470588235294
 40
0.1176470588235294
 40
0.1176470588235294
 40
0.1764705882352941
 40
0.1764705882352941
 40
0.1764705882352941
 40
0.1764705882352941
 40
0.2352941176470588
 40
0.2352941176470588
 40
0.2352941176470588
 40
0.2352941176470588
 40
0.2941176470588235
 40
0.2941176470588235
 40
0.2941176470588235
 40
0.2941176470588235
 40
0.3529411764705883
 40
0.3529411764705883
 40
0.3529411764705883
 40
0.3529411764705883
 40
0.4117647058823529
 40
0.4117647058823529
 40
0.4117647058823529
 40
0.4117647058823529
 40
0.4705882352941176
 40
0.4705882352941176
 40
0.4705882352941176
 40
0.4705882352941176
 40
0.5294117647058824
 40
0.5294117647058824
 40
0.5294117647058824
 40
0.5294117647058824
 40
0.5882352941176471
 40
0.5882352941176471
 40
0.5882352941176471
 40
0.5882352941176471
 40
0.6470588235294118
 40
0.6470588235294118
 40
0.6470588235294118
 40
0.6470588235294118
 40
0.7058823529411765
 40
0.7058823529411765
 40
0.7058823529411765
 40
0.7058823529411765
 40
0.7647058823529411
 40
0.7647058823529411
 40
0.7647058823529411
 40
0.7647058823529411
 40
0.8235294117647058
 40
0.8235294117647058
 40
0.8235294117647058
 40
0.8235294117647058
 40
0.8823529411764706
 40
0.8823529411764706
 40
0.8823529411764706
 40
0.8823529411764706
 40
1.0
 40
1.0
 40
1.0
 40
1.0
 10
31.8441
 20
9.3268
 30
0.0
 10
31.9062
 20
9.4082
 30
0.0
 10
31.9663
 20
9.5007
 30
0.0
 10
32.0265
 20
9.6049
 30
0.0
 10
32.0265
 20
9.6049
 30
0.0
 10
32.086
 20
9.709
 30
0.0
 10
32.1396
 20
9.8254
 30
0.0
 10
32.1888
 20
9.9554
 30
0.0
 10
32.1888
 20
9.9554
 30
0.0
 10
32.2373
 20
10.0854
 30
0.0
 10
32.2761
 20
10.229
 30
0.0
 10
32.3059
 20
10.3874
 30
0.0
 10
32.3059
 20
10.3874
 30
0.0
 10
32.335
 20
10.5459
 30
0.0
 10
32.3505
 20
10.7199
 30
0.0
 10
32.3524
 20
10.91
 30
0.0
 10
32.3524
 20
10.91
 30
0.0
 10
32.3518
 20
11.1001
 30
0.0
 10
32.3369
 20
11.2741
 30
0.0
 10
32.3072
 20
11.4332
 30
0.0
 10
32.3072
 20
11.4332
 30
0.0
 10
32.2781
 20
11.5917
 30
0.0
 10
32.2392
 20
11.7359
 30
0.0
 10
32.1901
 20
11.8659
 30
0.0
 10
32.1901
 20
11.8659
 30
0.0
 10
32.1409
 20
11.9953
 30
0.0
 10
32.0866
 20
12.1117
 30
0.0
 10
32.0265
 20
12.2151
 30
0.0
 10
32.0265
 20
12.2151
 30
0.0
 10
31.967
 20
12.3186
 30
0.0
 10
31.9062
 20
12.4098
 30
0.0
 10
31.8441
 20
12.4894
 30
0.0
 10
31.8441
 20
12.4894
 30
0.0
 10
31.8441
 20
12.4894
 30
0.0
 10
31.5802
 20
12.4894
 30
0.0
 10
31.5802
 20
12.4894
 30
0.0
 10
31.5802
 20
12.4894
 30
0.0
 10
31.6727
 20
12.3607
 30
0.0
 10
31.7555
 20
12.2184
 30
0.0
 10
31.8286
 20
12.0625
 30
0.0
 10
31.8286
 20
12.0625
 30
0.0
 10
31.901
 20
11.9066
 30
0.0
 10
31.9586
 20
11.734
 30
0.0
 10
32.0006
 20
11.5438
 30
0.0
 10
32.0006
 20
11.5438
 30
0.0
 10
32.0426
 20
11.3537
 30
0.0
 10
32.0646
 20
11.1422
 30
0.0
 10
32.0653
 20
10.91
 30
0.0
 10
32.0653
 20
10.91
 30
0.0
 10
32.0646
 20
10.6778
 30
0.0
 10
32.0426
 20
10.4657
 30
0.0
 10
32.0
 20
10.2742
 30
0.0
 10
32.0
 20
10.2742
 30
0.0
 10
31.9573
 20
10.0828
 30
0.0
 10
31.8997
 20
9.9095
 30
0.0
 10
31.8266
 20
9.753
 30
0.0
 10
31.8266
 20
9.753
 30
0.0
 10
31.7542
 20
9.5965
 30
0.0
 10
31.672
 20
9.4542
 30
0.0
 10
31.5802
 20
9.3268
 30
0.0
 10
31.5802
 20
9.3268
 30
0.0
 10
31.5802
 20
9.3268
 30
0.0
 10
31.8441
 20
9.3268
 30
0.0
 10
31.8441
 20
9.3268
 30
0.0
  0
SPLINE
  5
85
330
1F
100
AcDbEntity
  8
Vrstva 1
 62
   250
370
    13
100
AcDbSpline
210
0.0
220
0.0
230
1.0
 70
    24
 71
     3
 72
     8
 73
     4
 74
     0
 42
0.0000000001
 43
0.0000000001
 40
0.0
 40
0.0
 40
0.0
 40
0.0
 40
1.0
 40
1.0
 40
1.0
 40
1.0
 10
34.5652
 20
-7.0257
 30
0.0
 10
34.5652
 20
-7.0257
 30
0.0
 10
34.5652
 20
-21.9997
 30
0.0
 10
34.5652
 20
-21.9997
 30
0.0
  0
SPLINE
  5
86
330
1F
100
AcDbEntity
  8
Vrstva 1
 62
   250
100
AcDbSpline
210
0.0
220
0.0
230
1.0
 70
    11
 71
     3
 72
   104
 73
   100
 74
     0
 42
0.0000000001
 43
0.0000000001
 40
0.0
 40
0.0
 40
0.0
 40
0.0
 40
0.0384615384615385
 40
0.0384615384615385
 40
0.0384615384615385
 40
0.0384615384615385
 40
0.0769230769230769
 40
0.0769230769230769
 40
0.0769230769230769
 40
0.0769230769230769
 40
0.1153846153846154
 40
0.1153846153846154
 40
0.1153846153846154
 40
0.1153846153846154
 40
0.1538461538461539
 40
0.1538461538461539
 40
0.1538461538461539
 40
0.1538461538461539
 40
0.1923076923076923
 40
0.1923076923076923
 40
0.1923076923076923
 40
0.1923076923076923
 40
0.2307692307692308
 40
0.2307692307692308
 40
0.2307692307692308
 40
0.2307692307692308
 40
0.2692307692307692
 40
0.2692307692307692
 40
0.2692307692307692
 40
0.2692307692307692
 40
0.3076923076923077
 40
0.3076923076923077
 40
0.3076923076923077
 40
0.3076923076923077
 40
0.3461538461538461
 40
0.3461538461538461
 40
0.3461538461538461
 40
0.3461538461538461
 40
0.3846153846153846
 40
0.3846153846153846
 40
0.3846153846153846
 40
0.3846153846153846
 40
0.4230769230769231
 40
0.4230769230769231
 40
0.4230769230769231
 40
0.4230769230769231
 40
0.4615384615384616
 40
0.4615384615384616
 40
0.4615384615384616
 40
0.4615384615384616
 40
0.5
 40
0.5
 40
0.5
 40
0.5
 40
0.5384615384615384
 40
0.5384615384615384
 40
0.5384615384615384
 40
0.5384615384615384
 40
0.5769230769230769
 40
0.5769230769230769
 40
0.5769230769230769
 40
0.5769230769230769
 40
0.6153846153846154
 40
0.6153846153846154
 40
0.6153846153846154
 40
0.6153846153846154
 40
0.6538461538461539
 40
0.6538461538461539
 40
0.6538461538461539
 40
0.6538461538461539
 40
0.6923076923076923
 40
0.6923076923076923
 40
0.6923076923076923
 40
0.6923076923076923
 40
0.7307692307692307
 40
0.7307692307692307
 40
0.7307692307692307
 40
0.7307692307692307
 40
0.7692307692307693
 40
0.7692307692307693
 40
0.7692307692307693
 40
0.7692307692307693
 40
0.8076923076923077
 40
0.8076923076923077
 40
0.8076923076923077
 40
0.8076923076923077
 40
0.8461538461538461
 40
0.8461538461538461
 40
0.8461538461538461
 40
0.8461538461538461
 40
0.8846153846153846
 40
0.8846153846153846
 40
0.8846153846153846
 40
0.8846153846153846
 40
0.9230769230769231
 40
0.9230769230769231
 40
0.9230769230769231
 40
0.9230769230769231
 40
1.0
 40
1.0
 40
1.0
 40
1.0
 10
34.1129
 20
-17.4511
 30
0.0
 10
34.1129
 20
-17.4511
 30
0.0
 10
33.7791
 20
-17.2066
 30
0.0
 10
33.7791
 20
-17.2066
 30
0.0
 10
33.7791
 20
-17.2066
 30
0.0
 10
33.847
 20
-17.1128
 30
0.0
 10
33.8994
 20
-17.01
 30
0.0
 10
33.935
 20
-16.8988
 30
0.0
 10
33.935
 20
-16.8988
 30
0.0
 10
33.9706
 20
-16.7869
 30
0.0
 10
33.9887
 20
-16.6698
 30
0.0
 10
33.9887
 20
-16.5469
 30
0.0
 10
33.9887
 20
-16.5469
 30
0.0
 10
33.9887
 20
-16.4208
 30
0.0
 10
33.9699
 20
-16.2986
 30
0.0
 10
33.9331
 20
-16.1815
 30
0.0
 10
33.9331
 20
-16.1815
 30
0.0
 10
33.8962
 20
-16.0645
 30
0.0
 10
33.8412
 20
-15.9558
 30
0.0
 10
33.7675
 20
-15.8562
 30
0.0
 10
33.7675
 20
-15.8562
 30
0.0
 10
33.6944
 20
-15.756
 30
0.0
 10
33.6026
 20
-15.6686
 30
0.0
 10
33.4926
 20
-15.5936
 30
0.0
 10
33.4926
 20
-15.5936
 30
0.0
 10
33.3827
 20
-15.5192
 30
0.0
 10
33.2546
 20
-15.461
 30
0.0
 10
33.1078
 20
-15.419
 30
0.0
 10
33.1078
 20
-15.419
 30
0.0
 10
32.9616
 20
-15.3776
 30
0.0
 10
32.7974
 20
-15.3563
 30
0.0
 10
32.615
 20
-15.3556
 30
0.0
 10
32.615
 20
-15.3556
 30
0.0
 10
32.4863
 20
-15.3556
 30
0.0
 10
32.364
 20
-15.3685
 30
0.0
 10
32.2476
 20
-15.3951
 30
0.0
 10
32.2476
 20
-15.3951
 30
0.0
 10
32.1306
 20
-15.4209
 30
0.0
 10
32.0219
 20
-15.4591
 30
0.0
 10
31.9217
 20
-15.5089
 30
0.0
 10
31.9217
 20
-15.5089
 30
0.0
 10
31.8214
 20
-15.5593
 30
0.0
 10
31.7322
 20
-15.6208
 30
0.0
 10
31.6526
 20
-15.6932
 30
0.0
 10
31.6526
 20
-15.6932
 30
0.0
 10
31.6526
 20
-15.6932
 30
0.0
 10
31.3189
 20
-15.4526
 30
0.0
 10
31.3189
 20
-15.4526
 30
0.0
 10
31.3189
 20
-15.4526
 30
0.0
 10
31.3189
 20
-15.4526
 30
0.0
 10
31.1792
 20
-15.6583
 30
0.0
 10
31.1792
 20
-15.6583
 30
0.0
 10
31.1792
 20
-15.6583
 30
0.0
 10
31.1792
 20
-15.6583
 30
0.0
 10
31.4935
 20
-15.8872
 30
0.0
 10
31.4935
 20
-15.8872
 30
0.0
 10
31.4935
 20
-15.8872
 30
0.0
 10
31.4237
 20
-15.981
 30
0.0
 10
31.3713
 20
-16.0826
 30
0.0
 10
31.3364
 20
-16.1925
 30
0.0
 10
31.3364
 20
-16.1925
 30
0.0
 10
31.3014
 20
-16.3031
 30
0.0
 10
31.284
 20
-16.4182
 30
0.0
 10
31.284
 20
-16.5392
 30
0.0
 10
31.284
 20
-16.5392
 30
0.0
 10
31.2846
 20
-16.7118
 30
0.0
 10
31.317
 20
-16.8709
 30
0.0
 10
31.381
 20
-17.0178
 30
0.0
 10
31.381
 20
-17.0178
 30
0.0
 10
31.445
 20
-17.1639
 30
0.0
 10
31.5375
 20
-17.2913
 30
0.0
 10
31.6572
 20
-17.4
 30
0.0
 10
31.6572
 20
-17.4
 30
0.0
 10
31.7768
 20
-17.5093
 30
0.0
 10
31.9204
 20
-17.5934
 30
0.0
 10
32.0879
 20
-17.6542
 30
0.0
 10
32.0879
 20
-17.6542
 30
0.0
 10
32.2554
 20
-17.7143
 30
0.0
 10
32.4423
 20
-17.7454
 30
0.0
 10
32.6499
 20
-17.746
 30
0.0
 10
32.6499
 20
-17.746
 30
0.0
 10
32.7806
 20
-17.746
 30
0.0
 10
32.9054
 20
-17.7318
 30
0.0
 10
33.0231
 20
-17.7046
 30
0.0
 10
33.0231
 20
-17.7046
 30
0.0
 10
33.1408
 20
-17.6774
 30
0.0
 10
33.2501
 20
-17.638
 30
0.0
 10
33.3503
 20
-17.5869
 30
0.0
 10
33.3503
 20
-17.5869
 30
0.0
 10
33.4506
 20
-17.5352
 30
0.0
 10
33.5405
 20
-17.4731
 30
0.0
 10
33.62
 20
-17.4006
 30
0.0
 10
33.62
 20
-17.4006
 30
0.0
 10
33.62
 20
-17.4006
 30
0.0
 10
33.9576
 20
-17.6412
 30
0.0
 10
33.9576
 20
-17.6412
 30
0.0
 10
33.9576
 20
-17.6412
 30
0.0
 10
33.9576
 20
-17.6412
 30
0.0
 10
34.1129
 20
-17.4511
 30
0.0
 10
34.1129
 20
-17.4511
 30
0.0
  0
SPLINE
  5
87
330
1F
100
AcDbEntity
  8
Vrstva 1
 62
   250
100
AcDbSpline
210
0.0
220
0.0
230
1.0
 70
    11
 71
     3
 72
    52
 73
    48
 74
     0
 42
0.0000000001
 43
0.0000000001
 40
0.0
 40
0.0
 40
0.0
 40
0.0
 40
0.0769230769230769
 40
0.0769230769230769
 40
0.0769230769230769
 40
0.0769230769230769
 40
0.1538461538461539
 40
0.1538461538461539
 40
0.1538461538461539
 40
0.1538461538461539
 40
0.2307692307692308
 40
0.2307692307692308
 40
0.2307692307692308
 40
0.2307692307692308
 40
0.3076923076923077
 40
0.3076923076923077
 40
0.3076923076923077
 40
0.3076923076923077
 40
0.3846153846153846
 40
0.3846153846153846
 40
0.3846153846153846
 40
0.3846153846153846
 40
0.4615384615384616
 40
0.4615384615384616
 40
0.4615384615384616
 40
0.4615384615384616
 40
0.5384615384615384
 40
0.5384615384615384
 40
0.5384615384615384
 40
0.5384615384615384
 40
0.6153846153846154
 40
0.6153846153846154
 40
0.6153846153846154
 40
0.6153846153846154
 40
0.6923076923076923
 40
0.6923076923076923
 40
0.6923076923076923
 40
0.6923076923076923
 40
0.7692307692307693
 40
0.7692307692307693
 40
0.7692307692307693
 40
0.7692307692307693
 40
0.8461538461538461
 40
0.8461538461538461
 40
0.8461538461538461
 40
0.8461538461538461
 40
1.0
 40
1.0
 40
1.0
 40
1.0
 10
33.3329
 20
-17.2027
 30
0.0
 10
33.3329
 20
-17.2027
 30
0.0
 10
33.3368
 20
-17.2105
 30
0.0
 10
33.3368
 20
-17.2105
 30
0.0
 10
33.3368
 20
-17.2105
 30
0.0
 10
33.2701
 20
-17.2493
 30
0.0
 10
33.2009
 20
-17.2829
 30
0.0
 10
33.1298
 20
-17.3114
 30
0.0
 10
33.1298
 20
-17.3114
 30
0.0
 10
33.058
 20
-17.3398
 30
0.0
 10
32.9823
 20
-17.3618
 30
0.0
 10
32.9009
 20
-17.3774
 30
0.0
 10
32.9009
 20
-17.3774
 30
0.0
 10
32.82
 20
-17.3929
 30
0.0
 10
32.7308
 20
-17.4006
 30
0.0
 10
32.6344
 20
-17.4006
 30
0.0
 10
32.6344
 20
-17.4006
 30
0.0
 10
32.5231
 20
-17.4006
 30
0.0
 10
32.4158
 20
-17.389
 30
0.0
 10
32.3104
 20
-17.3664
 30
0.0
 10
32.3104
 20
-17.3664
 30
0.0
 10
32.2056
 20
-17.3431
 30
0.0
 10
32.1073
 20
-17.3088
 30
0.0
 10
32.0167
 20
-17.2635
 30
0.0
 10
32.0167
 20
-17.2635
 30
0.0
 10
31.9256
 20
-17.2176
 30
0.0
 10
31.8454
 20
-17.1607
 30
0.0
 10
31.7768
 20
-17.0921
 30
0.0
 10
31.7768
 20
-17.0921
 30
0.0
 10
31.7076
 20
-17.0236
 30
0.0
 10
31.6539
 20
-16.944
 30
0.0
 10
31.6151
 20
-16.8535
 30
0.0
 10
31.6151
 20
-16.8535
 30
0.0
 10
31.5757
 20
-16.7623
 30
0.0
 10
31.5563
 20
-16.6601
 30
0.0
 10
31.5556
 20
-16.5469
 30
0.0
 10
31.5556
 20
-16.5469
 30
0.0
 10
31.5563
 20
-16.448
 30
0.0
 10
31.5724
 20
-16.3574
 30
0.0
 10
31.6048
 20
-16.2759
 30
0.0
 10
31.6048
 20
-16.2759
 30
0.0
 10
31.6365
 20
-16.1938
 30
0.0
 10
31.6811
 20
-16.1201
 30
0.0
 10
31.738
 20
-16.0541
 30
0.0
 10
31.738
 20
-16.0541
 30
0.0
 10
31.738
 20
-16.0541
 30
0.0
 10
33.3329
 20
-17.2027
 30
0.0
 10
33.3329
 20
-17.2027
 30
0.0
  0
SPLINE
  5
88
330
1F
100
AcDbEntity
  8
Vrstva 1
 62
   250
100
AcDbSpline
210
0.0
220
0.0
230
1.0
 70
    11
 71
     3
 72
    48
 73
    44
 74
     0
 42
0.0000000001
 43
0.0000000001
 40
0.0
 40
0.0
 40
0.0
 40
0.0
 40
0.0833333333333333
 40
0.0833333333333333
 40
0.0833333333333333
 40
0.0833333333333333
 40
0.1666666666666667
 40
0.1666666666666667
 40
0.1666666666666667
 40
0.1666666666666667
 40
0.25
 40
0.25
 40
0.25
 40
0.25
 40
0.3333333333333333
 40
0.3333333333333333
 40
0.3333333333333333
 40
0.3333333333333333
 40
0.4166666666666667
 40
0.4166666666666667
 40
0.4166666666666667
 40
0.4166666666666667
 40
0.5
 40
0.5
 40
0.5
 40
0.5
 40
0.5833333333333334
 40
0.5833333333333334
 40
0.5833333333333334
 40
0.5833333333333334
 40
0.6666666666666666
 40
0.6666666666666666
 40
0.6666666666666666
 40
0.6666666666666666
 40
0.75
 40
0.75
 40
0.75
 40
0.75
 40
0.8333333333333334
 40
0.8333333333333334
 40
0.8333333333333334
 40
0.8333333333333334
 40
1.0
 40
1.0
 40
1.0
 40
1.0
 10
31.9437
 20
-15.895
 30
0.0
 10
31.9437
 20
-15.895
 30
0.0
 10
31.9437
 20
-15.8834
 30
0.0
 10
31.9437
 20
-15.8834
 30
0.0
 10
31.9437
 20
-15.8834
 30
0.0
 10
32.0562
 20
-15.8161
 30
0.0
 10
32.17
 20
-15.7689
 30
0.0
 10
32.2851
 20
-15.7411
 30
0.0
 10
32.2851
 20
-15.7411
 30
0.0
 10
32.3996
 20
-15.7133
 30
0.0
 10
32.5134
 20
-15.6997
 30
0.0
 10
32.6266
 20
-15.701
 30
0.0
 10
32.6266
 20
-15.701
 30
0.0
 10
32.7443
 20
-15.701
 30
0.0
 10
32.8569
 20
-15.7133
 30
0.0
 10
32.9649
 20
-15.7372
 30
0.0
 10
32.9649
 20
-15.7372
 30
0.0
 10
33.0729
 20
-15.7611
 30
0.0
 10
33.1725
 20
-15.7967
 30
0.0
 10
33.2637
 20
-15.8433
 30
0.0
 10
33.2637
 20
-15.8433
 30
0.0
 10
33.3549
 20
-15.8905
 30
0.0
 10
33.4344
 20
-15.948
 30
0.0
 10
33.5017
 20
-16.0166
 30
0.0
 10
33.5017
 20
-16.0166
 30
0.0
 10
33.5696
 20
-16.0858
 30
0.0
 10
33.6226
 20
-16.1647
 30
0.0
 10
33.6601
 20
-16.2539
 30
0.0
 10
33.6601
 20
-16.2539
 30
0.0
 10
33.6976
 20
-16.3432
 30
0.0
 10
33.7164
 20
-16.4422
 30
0.0
 10
33.7171
 20
-16.5508
 30
0.0
 10
33.7171
 20
-16.5508
 30
0.0
 10
33.7171
 20
-16.6562
 30
0.0
 10
33.7009
 20
-16.7487
 30
0.0
 10
33.6692
 20
-16.827
 30
0.0
 10
33.6692
 20
-16.827
 30
0.0
 10
33.6375
 20
-16.9059
 30
0.0
 10
33.5909
 20
-16.9764
 30
0.0
 10
33.5308
 20
-17.0398
 30
0.0
 10
33.5308
 20
-17.0398
 30
0.0
 10
33.5308
 20
-17.0398
 30
0.0
 10
31.9437
 20
-15.895
 30
0.0
 10
31.9437
 20
-15.895
 30
0.0
  0
SPLINE
  5
89
330
1F
100
AcDbEntity
  8
Vrstva 1
 62
   250
100
AcDbSpline
210
0.0
220
0.0
230
1.0
 70
    11
 71
     3
 72
    48
 73
    44
 74
     0
 42
0.0000000001
 43
0.0000000001
 40
0.0
 40
0.0
 40
0.0
 40
0.0
 40
0.0833333333333333
 40
0.0833333333333333
 40
0.0833333333333333
 40
0.0833333333333333
 40
0.1666666666666667
 40
0.1666666666666667
 40
0.1666666666666667
 40
0.1666666666666667
 40
0.25
 40
0.25
 40
0.25
 40
0.25
 40
0.3333333333333333
 40
0.3333333333333333
 40
0.3333333333333333
 40
0.3333333333333333
 40
0.4166666666666667
 40
0.4166666666666667
 40
0.4166666666666667
 40
0.4166666666666667
 40
0.5
 40
0.5
 40
0.5
 40
0.5
 40
0.5833333333333334
 40
0.5833333333333334
 40
0.5833333333333334
 40
0.5833333333333334
 40
0.6666666666666666
 40
0.6666666666666666
 40
0.6666666666666666
 40
0.6666666666666666
 40
0.75
 40
0.75
 40
0.75
 40
0.75
 40
0.8333333333333334
 40
0.8333333333333334
 40
0.8333333333333334
 40
0.8333333333333334
 40
1.0
 40
1.0
 40
1.0
 40
1.0
 10
33.946
 20
-13.6598
 30
0.0
 10
33.946
 20
-13.6598
 30
0.0
 10
33.2553
 20
-13.6598
 30
0.0
 10
33.2553
 20
-13.6598
 30
0.0
 10
33.2553
 20
-13.6598
 30
0.0
 10
33.2553
 20
-13.6598
 30
0.0
 10
33.2553
 20
-13.3067
 30
0.0
 10
33.2553
 20
-13.3067
 30
0.0
 10
33.2553
 20
-13.3067
 30
0.0
 10
33.2553
 20
-13.3067
 30
0.0
 10
32.9914
 20
-13.3067
 30
0.0
 10
32.9914
 20
-13.3067
 30
0.0
 10
32.9914
 20
-13.3067
 30
0.0
 10
32.9914
 20
-13.3067
 30
0.0
 10
32.9914
 20
-13.6598
 30
0.0
 10
32.9914
 20
-13.6598
 30
0.0
 10
32.9914
 20
-13.6598
 30
0.0
 10
32.9914
 20
-13.6598
 30
0.0
 10
31.4237
 20
-13.6598
 30
0.0
 10
31.4237
 20
-13.6598
 30
0.0
 10
31.4237
 20
-13.6598
 30
0.0
 10
31.4237
 20
-13.6598
 30
0.0
 10
31.4237
 20
-14.0284
 30
0.0
 10
31.4237
 20
-14.0284
 30
0.0
 10
31.4237
 20
-14.0284
 30
0.0
 10
31.4237
 20
-14.0284
 30
0.0
 10
33.0341
 20
-15.1538
 30
0.0
 10
33.0341
 20
-15.1538
 30
0.0
 10
33.0341
 20
-15.1538
 30
0.0
 10
33.0341
 20
-15.1538
 30
0.0
 10
33.2553
 20
-15.1538
 30
0.0
 10
33.2553
 20
-15.1538
 30
0.0
 10
33.2553
 20
-15.1538
 30
0.0
 10
33.2553
 20
-15.1538
 30
0.0
 10
33.2553
 20
-13.9819
 30
0.0
 10
33.2553
 20
-13.9819
 30
0.0
 10
33.2553
 20
-13.9819
 30
0.0
 10
33.2553
 20
-13.9819
 30
0.0
 10
33.946
 20
-13.9819
 30
0.0
 10
33.946
 20
-13.9819
 30
0.0
 10
33.946
 20
-13.9819
 30
0.0
 10
33.946
 20
-13.9819
 30
0.0
 10
33.946
 20
-13.6598
 30
0.0
 10
33.946
 20
-13.6598
 30
0.0
  0
SPLINE
  5
8A
330
1F
100
AcDbEntity
  8
Vrstva 1
 62
   250
100
AcDbSpline
210
0.0
220
0.0
230
1.0
 70
    11
 71
     3
 72
    36
 73
    32
 74
     0
 42
0.0000000001
 43
0.0000000001
 40
0.0
 40
0.0
 40
0.0
 40
0.0
 40
0.1111111111111111
 40
0.1111111111111111
 40
0.1111111111111111
 40
0.1111111111111111
 40
0.2222222222222222
 40
0.2222222222222222
 40
0.2222222222222222
 40
0.2222222222222222
 40
0.3333333333333333
 40
0.3333333333333333
 40
0.3333333333333333
 40
0.3333333333333333
 40
0.4444444444444444
 40
0.4444444444444444
 40
0.4444444444444444
 40
0.4444444444444444
 40
0.5555555555555556
 40
0.5555555555555556
 40
0.5555555555555556
 40
0.5555555555555556
 40
0.6666666666666666
 40
0.6666666666666666
 40
0.6666666666666666
 40
0.6666666666666666
 40
0.7777777777777778
 40
0.7777777777777778
 40
0.7777777777777778
 40
0.7777777777777778
 40
1.0
 40
1.0
 40
1.0
 40
1.0
 10
32.9914
 20
-14.8084
 30
0.0
 10
32.9914
 20
-14.8084
 30
0.0
 10
32.9836
 20
-14.8084
 30
0.0
 10
32.9836
 20
-14.8084
 30
0.0
 10
32.9836
 20
-14.8084
 30
0.0
 10
32.9836
 20
-14.8084
 30
0.0
 10
32.126
 20
-14.1914
 30
0.0
 10
32.126
 20
-14.1914
 30
0.0
 10
32.126
 20
-14.1914
 30
0.0
 10
32.0685
 20
-14.1572
 30
0.0
 10
32.0103
 20
-14.1229
 30
0.0
 10
31.9514
 20
-14.0892
 30
0.0
 10
31.9514
 20
-14.0892
 30
0.0
 10
31.8919
 20
-14.0563
 30
0.0
 10
31.826
 20
-14.02
 30
0.0
 10
31.7535
 20
-13.9819
 30
0.0
 10
31.7535
 20
-13.9819
 30
0.0
 10
31.7535
 20
-13.9819
 30
0.0
 10
31.7535
 20
-13.9702
 30
0.0
 10
31.7535
 20
-13.9702
 30
0.0
 10
31.7535
 20
-13.9702
 30
0.0
 10
31.8855
 20
-13.978
 30
0.0
 10
32.0174
 20
-13.9819
 30
0.0
 10
32.1493
 20
-13.9819
 30
0.0
 10
32.1493
 20
-13.9819
 30
0.0
 10
32.1493
 20
-13.9819
 30
0.0
 10
32.9914
 20
-13.9819
 30
0.0
 10
32.9914
 20
-13.9819
 30
0.0
 10
32.9914
 20
-13.9819
 30
0.0
 10
32.9914
 20
-13.9819
 30
0.0
 10
32.9914
 20
-14.8084
 30
0.0
 10
32.9914
 20
-14.8084
 30
0.0
  0
SPLINE
  5
8B
330
1F
100
AcDbEntity
  8
Vrstva 1
 62
   250
100
AcDbSpline
210
0.0
220
0.0
230
1.0
 70
    11
 71
     3
 72
    56
 73
    52
 74
     0
 42
0.0000000001
 43
0.0000000001
 40
0.0
 40
0.0
 40
0.0
 40
0.0
 40
0.0714285714285714
 40
0.0714285714285714
 40
0.0714285714285714
 40
0.0714285714285714
 40
0.1428571428571428
 40
0.1428571428571428
 40
0.1428571428571428
 40
0.1428571428571428
 40
0.2142857142857143
 40
0.2142857142857143
 40
0.2142857142857143
 40
0.2142857142857143
 40
0.2857142857142857
 40
0.2857142857142857
 40
0.2857142857142857
 40
0.2857142857142857
 40
0.3571428571428572
 40
0.3571428571428572
 40
0.3571428571428572
 40
0.3571428571428572
 40
0.4285714285714285
 40
0.4285714285714285
 40
0.4285714285714285
 40
0.4285714285714285
 40
0.5
 40
0.5
 40
0.5
 40
0.5
 40
0.5714285714285714
 40
0.5714285714285714
 40
0.5714285714285714
 40
0.5714285714285714
 40
0.6428571428571429
 40
0.6428571428571429
 40
0.6428571428571429
 40
0.6428571428571429
 40
0.7142857142857143
 40
0.7142857142857143
 40
0.7142857142857143
 40
0.7142857142857143
 40
0.7857142857142857
 40
0.7857142857142857
 40
0.7857142857142857
 40
0.7857142857142857
 40
0.8571428571428571
 40
0.8571428571428571
 40
0.8571428571428571
 40
0.8571428571428571
 40
1.0
 40
1.0
 40
1.0
 40
1.0
 10
31.381
 20
-12.2007
 30
0.0
 10
31.381
 20
-12.3294
 30
0.0
 10
31.4094
 20
-12.4471
 30
0.0
 10
31.4664
 20
-12.5545
 30
0.0
 10
31.4664
 20
-12.5545
 30
0.0
 10
31.5233
 20
-12.6619
 30
0.0
 10
31.6067
 20
-12.7543
 30
0.0
 10
31.7179
 20
-12.8332
 30
0.0
 10
31.7179
 20
-12.8332
 30
0.0
 10
31.8292
 20
-12.9122
 30
0.0
 10
31.9663
 20
-12.9729
 30
0.0
 10
32.1293
 20
-13.0163
 30
0.0
 10
32.1293
 20
-13.0163
 30
0.0
 10
32.2923
 20
-13.059
 30
0.0
 10
32.4798
 20
-13.081
 30
0.0
 10
32.6926
 20
-13.0816
 30
0.0
 10
32.6926
 20
-13.0816
 30
0.0
 10
32.9713
 20
-13.0777
 30
0.0
 10
33.2068
 20
-13.0409
 30
0.0
 10
33.3995
 20
-12.9704
 30
0.0
 10
33.3995
 20
-12.9704
 30
0.0
 10
33.5922
 20
-12.8999
 30
0.0
 10
33.7384
 20
-12.8022
 30
0.0
 10
33.838
 20
-12.678
 30
0.0
 10
33.838
 20
-12.678
 30
0.0
 10
33.9376
 20
-12.5539
 30
0.0
 10
33.988
 20
-12.409
 30
0.0
 10
33.9887
 20
-12.2434
 30
0.0
 10
33.9887
 20
-12.2434
 30
0.0
 10
33.988
 20
-12.0578
 30
0.0
 10
33.9363
 20
-11.9
 30
0.0
 10
33.8341
 20
-11.7693
 30
0.0
 10
33.8341
 20
-11.7693
 30
0.0
 10
33.7319
 20
-11.6387
 30
0.0
 10
33.5819
 20
-11.5391
 30
0.0
 10
33.384
 20
-11.4705
 30
0.0
 10
33.384
 20
-11.4705
 30
0.0
 10
33.1861
 20
-11.4013
 30
0.0
 10
32.9442
 20
-11.3671
 30
0.0
 10
32.6577
 20
-11.3664
 30
0.0
 10
32.6577
 20
-11.3664
 30
0.0
 10
32.3893
 20
-11.3671
 30
0.0
 10
32.1597
 20
-11.4001
 30
0.0
 10
31.9695
 20
-11.4654
 30
0.0
 10
31.9695
 20
-11.4654
 30
0.0
 10
31.7794
 20
-11.5307
 30
0.0
 10
31.6339
 20
-11.6258
 30
0.0
 10
31.5336
 20
-11.7499
 30
0.0
 10
31.5336
 20
-11.7499
 30
0.0
 10
31.4327
 20
-11.8741
 30
0.0
 10
31.3816
 20
-12.0242
 30
0.0
 10
31.381
 20
-12.2007
 30
0.0
  0
SPLINE
  5
8C
330
1F
100
AcDbEntity
  8
Vrstva 1
 62
   250
100
AcDbSpline
210
0.0
220
0.0
230
1.0
 70
    11
 71
     3
 72
    56
 73
    52
 74
     0
 42
0.0000000001
 43
0.0000000001
 40
0.0
 40
0.0
 40
0.0
 40
0.0
 40
0.0714285714285714
 40
0.0714285714285714
 40
0.0714285714285714
 40
0.0714285714285714
 40
0.1428571428571428
 40
0.1428571428571428
 40
0.1428571428571428
 40
0.1428571428571428
 40
0.2142857142857143
 40
0.2142857142857143
 40
0.2142857142857143
 40
0.2142857142857143
 40
0.2857142857142857
 40
0.2857142857142857
 40
0.2857142857142857
 40
0.2857142857142857
 40
0.3571428571428572
 40
0.3571428571428572
 40
0.3571428571428572
 40
0.3571428571428572
 40
0.4285714285714285
 40
0.4285714285714285
 40
0.4285714285714285
 40
0.4285714285714285
 40
0.5
 40
0.5
 40
0.5
 40
0.5
 40
0.5714285714285714
 40
0.5714285714285714
 40
0.5714285714285714
 40
0.5714285714285714
 40
0.6428571428571429
 40
0.6428571428571429
 40
0.6428571428571429
 40
0.6428571428571429
 40
0.7142857142857143
 40
0.7142857142857143
 40
0.7142857142857143
 40
0.7142857142857143
 40
0.7857142857142857
 40
0.7857142857142857
 40
0.7857142857142857
 40
0.7857142857142857
 40
0.8571428571428571
 40
0.8571428571428571
 40
0.8571428571428571
 40
0.8571428571428571
 40
1.0
 40
1.0
 40
1.0
 40
1.0
 10
31.6449
 20
-12.224
 30
0.0
 10
31.6455
 20
-12.1348
 30
0.0
 10
31.6694
 20
-12.0578
 30
0.0
 10
31.7179
 20
-11.9931
 30
0.0
 10
31.7179
 20
-11.9931
 30
0.0
 10
31.7665
 20
-11.9284
 30
0.0
 10
31.8357
 20
-11.8754
 30
0.0
 10
31.9262
 20
-11.834
 30
0.0
 10
31.9262
 20
-11.834
 30
0.0
 10
32.0161
 20
-11.7926
 30
0.0
 10
32.1248
 20
-11.7616
 30
0.0
 10
32.2502
 20
-11.7415
 30
0.0
 10
32.2502
 20
-11.7415
 30
0.0
 10
32.3763
 20
-11.7215
 30
0.0
 10
32.5173
 20
-11.7118
 30
0.0
 10
32.6732
 20
-11.7118
 30
0.0
 10
32.6732
 20
-11.7118
 30
0.0
 10
32.8892
 20
-11.7118
 30
0.0
 10
33.0755
 20
-11.7305
 30
0.0
 10
33.232
 20
-11.7681
 30
0.0
 10
33.232
 20
-11.7681
 30
0.0
 10
33.3891
 20
-11.8049
 30
0.0
 10
33.5101
 20
-11.8618
 30
0.0
 10
33.5955
 20
-11.9375
 30
0.0
 10
33.5955
 20
-11.9375
 30
0.0
 10
33.6808
 20
-12.0132
 30
0.0
 10
33.7235
 20
-12.1089
 30
0.0
 10
33.7248
 20
-12.224
 30
0.0
 10
33.7248
 20
-12.224
 30
0.0
 10
33.7242
 20
-12.3281
 30
0.0
 10
33.6841
 20
-12.418
 30
0.0
 10
33.6039
 20
-12.495
 30
0.0
 10
33.6039
 20
-12.495
 30
0.0
 10
33.5237
 20
-12.5713
 30
0.0
 10
33.4073
 20
-12.6302
 30
0.0
 10
33.2546
 20
-12.6722
 30
0.0
 10
33.2546
 20
-12.6722
 30
0.0
 10
33.1013
 20
-12.7142
 30
0.0
 10
32.9157
 20
-12.7356
 30
0.0
 10
32.6965
 20
-12.7362
 30
0.0
 10
32.6965
 20
-12.7362
 30
0.0
 10
32.4669
 20
-12.7356
 30
0.0
 10
32.2748
 20
-12.713
 30
0.0
 10
32.1183
 20
-12.669
 30
0.0
 10
32.1183
 20
-12.669
 30
0.0
 10
31.9624
 20
-12.625
 30
0.0
 10
31.8447
 20
-12.5648
 30
0.0
 10
31.7645
 20
-12.4879
 30
0.0
 10
31.7645
 20
-12.4879
 30
0.0
 10
31.685
 20
-12.4109
 30
0.0
 10
31.6449
 20
-12.323
 30
0.0
 10
31.6449
 20
-12.224
 30
0.0
  0
SPLINE
  5
8D
330
1F
100
AcDbEntity
  8
Vrstva 1
 62
   250
370
    30
100
AcDbSpline
210
0.0
220
0.0
230
1.0
 70
    24
 71
     3
 72
     8
 73
     4
 74
     0
 42
0.0000000001
 43
0.0000000001
 40
0.0
 40
0.0
 40
0.0
 40
0.0
 40
1.0
 40
1.0
 40
1.0
 40
1.0
 10
-21.9856
 20
7.1743
 30
0.0
 10
-21.9856
 20
7.1743
 30
0.0
 10
-21.9856
 20
4.0442
 30
0.0
 10
-21.9856
 20
4.0442
 30
0.0
  0
SPLINE
  5
8E
330
1F
100
AcDbEntity
  8
Vrstva 1
 62
   250
370
    30
100
AcDbSpline
210
0.0
220
0.0
230
1.0
 70
    24
 71
     3
 72
     8
 73
     4
 74
     0
 42
0.0000000001
 43
0.0000000001
 40
0.0
 40
0.0
 40
0.0
 40
0.0
 40
1.0
 40
1.0
 40
1.0
 40
1.0
 10
-21.9856
 20
7.1742
 30
0.0
 10
-21.9856
 20
7.1742
 30
0.0
 10
14.5775
 20
7.1742
 30
0.0
 10
14.5775
 20
7.1742
 30
0.0
  0
SPLINE
  5
8F
330
1F
100
AcDbEntity
  8
Vrstva 1
 62
   250
370
    30
100
AcDbSpline
210
0.0
220
0.0
230
1.0
 70
    24
 71
     3
 72
     8
 73
     4
 74
     0
 42
0.0000000001
 43
0.0000000001
 40
0.0
 40
0.0
 40
0.0
 40
0.0
 40
1.0
 40
1.0
 40
1.0
 40
1.0
 10
14.5776
 20
7.1743
 30
0.0
 10
14.5776
 20
7.1743
 30
0.0
 10
14.5776
 20
3.8237
 30
0.0
 10
14.5776
 20
3.8237
 30
0.0
  0
SPLINE
  5
90
330
1F
100
AcDbEntity
  8
Vrstva 1
 62
   250
370
    30
100
AcDbSpline
210
0.0
220
0.0
230
1.0
 70
     8
 71
     3
 72
    16
 73
    12
 74
     0
 42
0.0000000001
 43
0.0000000001
 40
0.0
 40
0.0
 40
0.0
 40
0.0
 40
0.25
 40
0.25
 40
0.25
 40
0.25
 40
0.5
 40
0.5
 40
0.5
 40
0.5
 40
1.0
 40
1.0
 40
1.0
 40
1.0
 10
26.9578
 20
-2.9999
 30
0.0
 10
26.9578
 20
-2.9999
 30
0.0
 10
20.9801
 20
-2.9999
 30
0.0
 10
20.9801
 20
-2.9999
 30
0.0
 10
20.9801
 20
-2.9999
 30
0.0
 10
20.9801
 20
-2.9999
 30
0.0
 10
20.9626
 20
-26.5719
 30
0.0
 10
20.9626
 20
-26.5719
 30
0.0
 10
20.9626
 20
-26.5719
 30
0.0
 10
20.9626
 20
-26.5719
 30
0.0
 10
27.0192
 20
-26.5719
 30
0.0
 10
27.0192
 20
-26.5719
 30
0.0
  0
SPLINE
  5
91
330
1F
100
AcDbEntity
  8
Vrstva 1
 62
   250
370
    30
100
AcDbSpline
210
0.0
220
0.0
230
1.0
 70
     8
 71
     3
 72
   124
 73
   120
 74
     0
 42
0.0000000001
 43
0.0000000001
 40
0.0
 40
0.0
 40
0.0
 40
0.0
 40
0.032258064516129
 40
0.032258064516129
 40
0.032258064516129
 40
0.032258064516129
 40
0.0645161290322581
 40
0.0645161290322581
 40
0.0645161290322581
 40
0.0645161290322581
 40
0.0967741935483871
 40
0.0967741935483871
 40
0.0967741935483871
 40
0.0967741935483871
 40
0.1290322580645161
 40
0.1290322580645161
 40
0.1290322580645161
 40
0.1290322580645161
 40
0.1612903225806452
 40
0.1612903225806452
 40
0.1612903225806452
 40
0.1612903225806452
 40
0.1935483870967742
 40
0.1935483870967742
 40
0.1935483870967742
 40
0.1935483870967742
 40
0.2258064516129032
 40
0.2258064516129032
 40
0.2258064516129032
 40
0.2258064516129032
 40
0.2580645161290323
 40
0.2580645161290323
 40
0.2580645161290323
 40
0.2580645161290323
 40
0.2903225806451613
 40
0.2903225806451613
 40
0.2903225806451613
 40
0.2903225806451613
 40
0.3225806451612903
 40
0.3225806451612903
 40
0.3225806451612903
 40
0.3225806451612903
 40
0.3548387096774194
 40
0.3548387096774194
 40
0.3548387096774194
 40
0.3548387096774194
 40
0.3870967741935484
 40
0.3870967741935484
 40
0.3870967741935484
 40
0.3870967741935484
 40
0.4193548387096774
 40
0.4193548387096774
 40
0.4193548387096774
 40
0.4193548387096774
 40
0.4516129032258064
 40
0.4516129032258064
 40
0.4516129032258064
 40
0.4516129032258064
 40
0.4838709677419355
 40
0.4838709677419355
 40
0.4838709677419355
 40
0.4838709677419355
 40
0.5161290322580645
 40
0.5161290322580645
 40
0.5161290322580645
 40
0.5161290322580645
 40
0.5483870967741935
 40
0.5483870967741935
 40
0.5483870967741935
 40
0.5483870967741935
 40
0.5806451612903226
 40
0.5806451612903226
 40
0.5806451612903226
 40
0.5806451612903226
 40
0.6129032258064516
 40
0.6129032258064516
 40
0.6129032258064516
 40
0.6129032258064516
 40
0.6451612903225806
 40
0.6451612903225806
 40
0.6451612903225806
 40
0.6451612903225806
 40
0.6774193548387096
 40
0.6774193548387096
 40
0.6774193548387096
 40
0.6774193548387096
 40
0.7096774193548387
 40
0.7096774193548387
 40
0.7096774193548387
 40
0.7096774193548387
 40
0.7419354838709677
 40
0.7419354838709677
 40
0.7419354838709677
 40
0.7419354838709677
 40
0.7741935483870968
 40
0.7741935483870968
 40
0.7741935483870968
 40
0.7741935483870968
 40
0.8064516129032258
 40
0.8064516129032258
 40
0.8064516129032258
 40
0.8064516129032258
 40
0.8387096774193549
 40
0.8387096774193549
 40
0.8387096774193549
 40
0.8387096774193549
 40
0.8709677419354839
 40
0.8709677419354839
 40
0.8709677419354839
 40
0.8709677419354839
 40
0.9032258064516129
 40
0.9032258064516129
 40
0.9032258064516129
 40
0.9032258064516129
 40
0.9354838709677419
 40
0.9354838709677419
 40
0.9354838709677419
 40
0.9354838709677419
 40
1.0
 40
1.0
 40
1.0
 40
1.0
 10
26.1038
 20
-26.4521
 30
0.0
 10
26.1038
 20
-26.4521
 30
0.0
 10
22.261
 20
-26.4521
 30
0.0
 10
22.261
 20
-26.4521
 30
0.0
 10
22.261
 20
-26.4521
 30
0.0
 10
22.261
 20
-26.4521
 30
0.0
 10
22.2674
 20
-23.7084
 30
0.0
 10
22.2674
 20
-23.7084
 30
0.0
 10
22.2674
 20
-23.7084
 30
0.0
 10
22.2674
 20
-23.7084
 30
0.0
 10
26.3656
 20
-23.6754
 30
0.0
 10
26.3656
 20
-23.6754
 30
0.0
 10
26.3656
 20
-23.6754
 30
0.0
 10
26.3656
 20
-23.6754
 30
0.0
 10
26.6631
 20
-23.5101
 30
0.0
 10
26.6631
 20
-23.5101
 30
0.0
 10
26.6631
 20
-23.5101
 30
0.0
 10
26.6631
 20
-23.5101
 30
0.0
 10
26.9605
 20
-23.1796
 30
0.0
 10
26.9605
 20
-23.1796
 30
0.0
 10
26.9605
 20
-23.1796
 30
0.0
 10
26.9605
 20
-23.1796
 30
0.0
 10
26.9605
 20
-22.8822
 30
0.0
 10
26.9605
 20
-22.8822
 30
0.0
 10
26.9605
 20
-22.8822
 30
0.0
 10
26.9605
 20
-22.8822
 30
0.0
 10
26.7953
 20
-22.6839
 30
0.0
 10
26.7953
 20
-22.6839
 30
0.0
 10
26.7953
 20
-22.6839
 30
0.0
 10
26.7953
 20
-22.6839
 30
0.0
 10
26.597
 20
-22.4856
 30
0.0
 10
26.597
 20
-22.4856
 30
0.0
 10
26.597
 20
-22.4856
 30
0.0
 10
26.597
 20
-22.4856
 30
0.0
 10
26.1343
 20
-22.4525
 30
0.0
 10
26.1343
 20
-22.4525
 30
0.0
 10
26.1343
 20
-22.4525
 30
0.0
 10
26.1343
 20
-22.4525
 30
0.0
 10
22.3335
 20
-22.4195
 30
0.0
 10
22.3335
 20
-22.4195
 30
0.0
 10
22.3335
 20
-22.4195
 30
0.0
 10
22.3335
 20
-22.4195
 30
0.0
 10
22.2674
 20
-15.545
 30
0.0
 10
22.2674
 20
-15.545
 30
0.0
 10
22.2674
 20
-15.545
 30
0.0
 10
22.2674
 20
-15.545
 30
0.0
 10
26.1012
 20
-15.578
 30
0.0
 10
26.1012
 20
-15.578
 30
0.0
 10
26.1012
 20
-15.578
 30
0.0
 10
26.1012
 20
-15.578
 30
0.0
 10
26.4648
 20
-15.4789
 30
0.0
 10
26.4648
 20
-15.4789
 30
0.0
 10
26.4648
 20
-15.4789
 30
0.0
 10
26.4648
 20
-15.4789
 30
0.0
 10
26.7622
 20
-15.2806
 30
0.0
 10
26.7622
 20
-15.2806
 30
0.0
 10
26.7622
 20
-15.2806
 30
0.0
 10
26.7622
 20
-15.2806
 30
0.0
 10
26.9275
 20
-14.9501
 30
0.0
 10
26.9275
 20
-14.9501
 30
0.0
 10
26.9275
 20
-14.9501
 30
0.0
 10
26.9275
 20
-14.9501
 30
0.0
 10
26.9275
 20
-14.5535
 30
0.0
 10
26.9275
 20
-14.5535
 30
0.0
 10
26.9275
 20
-14.5535
 30
0.0
 10
26.9275
 20
-14.5535
 30
0.0
 10
26.7953
 20
-14.256
 30
0.0
 10
26.7953
 20
-14.256
 30
0.0
 10
26.7953
 20
-14.256
 30
0.0
 10
26.7953
 20
-14.256
 30
0.0
 10
26.5309
 20
-14.0247
 30
0.0
 10
26.5309
 20
-14.0247
 30
0.0
 10
26.5309
 20
-14.0247
 30
0.0
 10
26.5309
 20
-14.0247
 30
0.0
 10
26.2004
 20
-13.9255
 30
0.0
 10
26.2004
 20
-13.9255
 30
0.0
 10
26.2004
 20
-13.9255
 30
0.0
 10
26.2004
 20
-13.9255
 30
0.0
 10
22.3004
 20
-13.9586
 30
0.0
 10
22.3004
 20
-13.9586
 30
0.0
 10
22.3004
 20
-13.9586
 30
0.0
 10
22.3004
 20
-13.9586
 30
0.0
 10
22.2674
 20
-7.0511
 30
0.0
 10
22.2674
 20
-7.0511
 30
0.0
 10
22.2674
 20
-7.0511
 30
0.0
 10
22.2674
 20
-7.0511
 30
0.0
 10
26.2633
 20
-7.0425
 30
0.0
 10
26.2633
 20
-7.0425
 30
0.0
 10
26.2633
 20
-7.0425
 30
0.0
 10
26.2633
 20
-7.0425
 30
0.0
 10
26.6858
 20
-6.918
 30
0.0
 10
26.6858
 20
-6.918
 30
0.0
 10
26.6858
 20
-6.918
 30
0.0
 10
26.6858
 20
-6.918
 30
0.0
 10
26.9591
 20
-6.5694
 30
0.0
 10
26.9591
 20
-6.5694
 30
0.0
 10
26.9591
 20
-6.5694
 30
0.0
 10
26.9591
 20
-6.5694
 30
0.0
 10
26.9591
 20
-6.2956
 30
0.0
 10
26.9591
 20
-6.2956
 30
0.0
 10
26.9591
 20
-6.2956
 30
0.0
 10
26.9591
 20
-6.2956
 30
0.0
 10
26.8348
 20
-6.0466
 30
0.0
 10
26.8348
 20
-6.0466
 30
0.0
 10
26.8348
 20
-6.0466
 30
0.0
 10
26.8348
 20
-6.0466
 30
0.0
 10
26.4373
 20
-5.8973
 30
0.0
 10
26.4373
 20
-5.8973
 30
0.0
 10
26.4373
 20
-5.8973
 30
0.0
 10
26.4373
 20
-5.8973
 30
0.0
 10
26.1639
 20
-5.8474
 30
0.0
 10
26.1639
 20
-5.8474
 30
0.0
 10
26.1639
 20
-5.8474
 30
0.0
 10
26.1639
 20
-5.8474
 30
0.0
 10
22.2632
 20
-5.8474
 30
0.0
 10
22.2632
 20
-5.8474
 30
0.0
 10
22.2632
 20
-5.8474
 30
0.0
 10
22.2632
 20
-5.8474
 30
0.0
 10
22.2632
 20
-2.9595
 30
0.0
 10
22.2632
 20
-2.9595
 30
0.0
  0
SPLINE
  5
92
330
1F
100
AcDbEntity
  8
Vrstva 1
 62
   250
370
    30
100
AcDbSpline
210
0.0
220
0.0
230
1.0
 70
     8
 71
     3
 72
    36
 73
    32
 74
     0
 42
0.0000000001
 43
0.0000000001
 40
0.0
 40
0.0
 40
0.0
 40
0.0
 40
0.1111111111111111
 40
0.1111111111111111
 40
0.1111111111111111
 40
0.1111111111111111
 40
0.2222222222222222
 40
0.2222222222222222
 40
0.2222222222222222
 40
0.2222222222222222
 40
0.3333333333333333
 40
0.3333333333333333
 40
0.3333333333333333
 40
0.3333333333333333
 40
0.4444444444444444
 40
0.4444444444444444
 40
0.4444444444444444
 40
0.4444444444444444
 40
0.5555555555555556
 40
0.5555555555555556
 40
0.5555555555555556
 40
0.5555555555555556
 40
0.6666666666666666
 40
0.6666666666666666
 40
0.6666666666666666
 40
0.6666666666666666
 40
0.7777777777777778
 40
0.7777777777777778
 40
0.7777777777777778
 40
0.7777777777777778
 40
1.0
 40
1.0
 40
1.0
 40
1.0
 10
22.2497
 20
-3.2085
 30
0.0
 10
22.2497
 20
-3.2085
 30
0.0
 10
27.5533
 20
-3.2131
 30
0.0
 10
28.0249
 20
-3.2131
 30
0.0
 10
28.0249
 20
-3.2131
 30
0.0
 10
28.4965
 20
-3.2131
 30
0.0
 10
28.879
 20
-3.5962
 30
0.0
 10
28.879
 20
-4.0677
 30
0.0
 10
28.879
 20
-4.0677
 30
0.0
 10
28.879
 20
-4.5391
 30
0.0
 10
28.8952
 20
-25.4115
 30
0.0
 10
28.8952
 20
-25.4115
 30
0.0
 10
28.8952
 20
-25.4115
 30
0.0
 10
28.8952
 20
-25.4115
 30
0.0
 10
28.7727
 20
-25.749
 30
0.0
 10
28.7727
 20
-25.749
 30
0.0
 10
28.7727
 20
-25.749
 30
0.0
 10
28.7727
 20
-25.749
 30
0.0
 10
28.6181
 20
-26.0462
 30
0.0
 10
28.6181
 20
-26.0462
 30
0.0
 10
28.6181
 20
-26.0462
 30
0.0
 10
28.6181
 20
-26.0462
 30
0.0
 10
28.3685
 20
-26.2245
 30
0.0
 10
28.3685
 20
-26.2245
 30
0.0
 10
28.3685
 20
-26.2245
 30
0.0
 10
28.3685
 20
-26.2245
 30
0.0
 10
28.0951
 20
-26.2721
 30
0.0
 10
28.0951
 20
-26.2721
 30
0.0
 10
28.0951
 20
-26.2721
 30
0.0
 10
28.0951
 20
-26.2721
 30
0.0
 10
22.2344
 20
-26.2602
 30
0.0
 10
22.2344
 20
-26.2602
 30
0.0
  0
SPLINE
  5
93
330
1F
100
AcDbEntity
  8
Vrstva 1
 62
   250
370
    30
100
AcDbSpline
210
0.0
220
0.0
230
1.0
 70
    24
 71
     3
 72
     8
 73
     4
 74
     0
 42
0.0000000001
 43
0.0000000001
 40
0.0
 40
0.0
 40
0.0
 40
0.0
 40
1.0
 40
1.0
 40
1.0
 40
1.0
 10
19.7227
 20
-4.3494
 30
0.0
 10
19.7227
 20
-4.3494
 30
0.0
 10
19.1275
 20
-24.7927
 30
0.0
 10
19.1275
 20
-24.7927
 30
0.0
  0
SPLINE
  5
94
330
1F
100
AcDbEntity
  8
Vrstva 1
 62
   250
370
    30
100
AcDbSpline
210
0.0
220
0.0
230
1.0
 70
    24
 71
     3
 72
     8
 73
     4
 74
     0
 42
0.0000000001
 43
0.0000000001
 40
0.0
 40
0.0
 40
0.0
 40
0.0
 40
1.0
 40
1.0
 40
1.0
 40
1.0
 10
20.7208
 20
-4.3931
 30
0.0
 10
20.7208
 20
-4.3931
 30
0.0
 10
20.2248
 20
-24.8529
 30
0.0
 10
20.2248
 20
-24.8529
 30
0.0
  0
SPLINE
  5
95
330
1F
100
AcDbEntity
  8
Vrstva 1
 62
   250
370
    30
100
AcDbSpline
210
0.0
220
0.0
230
1.0
 70
    24
 71
     3
 72
     8
 73
     4
 74
     0
 42
0.0000000001
 43
0.0000000001
 40
0.0
 40
0.0
 40
0.0
 40
0.0
 40
1.0
 40
1.0
 40
1.0
 40
1.0
 10
18.2317
 20
3.1059
 30
0.0
 10
18.2317
 20
3.1059
 30
0.0
 10
-25.3865
 20
3.1059
 30
0.0
 10
-25.3865
 20
3.1059
 30
0.0
  0
SPLINE
  5
96
330
1F
100
AcDbEntity
  8
Vrstva 1
 62
   250
370
    30
100
AcDbSpline
210
0.0
220
0.0
230
1.0
 70
     8
 71
     3
 72
     8
 73
     4
 74
     0
 42
0.0000000001
 43
0.0000000001
 40
0.0
 40
0.0
 40
0.0
 40
0.0
 40
1.0
 40
1.0
 40
1.0
 40
1.0
 10
-25.3865
 20
3.1059
 30
0.0
 10
-25.3842
 20
3.1799
 30
0.0
 10
-25.5168
 20
3.9683
 30
0.0
 10
-25.1481
 20
3.9696
 30
0.0
  0
SPLINE
  5
97
330
1F
100
AcDbEntity
  8
Vrstva 1
 62
   250
370
    30
100
AcDbSpline
210
0.0
220
0.0
230
1.0
 70
    24
 71
     3
 72
    16
 73
    12
 74
     0
 42
0.0000000001
 43
0.0000000001
 40
0.0
 40
0.0
 40
0.0
 40
0.0
 40
0.25
 40
0.25
 40
0.25
 40
0.25
 40
0.5
 40
0.5
 40
0.5
 40
0.5
 40
1.0
 40
1.0
 40
1.0
 40
1.0
 10
-25.1481
 20
3.9696
 30
0.0
 10
-25.1481
 20
3.9696
 30
0.0
 10
-24.2841
 20
3.9696
 30
0.0
 10
-24.2841
 20
3.9696
 30
0.0
 10
-24.2841
 20
3.9696
 30
0.0
 10
-24.2841
 20
3.9696
 30
0.0
 10
17.1294
 20
3.9696
 30
0.0
 10
17.1294
 20
3.9696
 30
0.0
 10
17.1294
 20
3.9696
 30
0.0
 10
17.1294
 20
3.9696
 30
0.0
 10
17.9929
 20
3.9696
 30
0.0
 10
17.9929
 20
3.9696
 30
0.0
  0
SPLINE
  5
98
330
1F
100
AcDbEntity
  8
Vrstva 1
 62
   250
370
    30
100
AcDbSpline
210
0.0
220
0.0
230
1.0
 70
     8
 71
     3
 72
     8
 73
     4
 74
     0
 42
0.0000000001
 43
0.0000000001
 40
0.0
 40
0.0
 40
0.0
 40
0.0
 40
1.0
 40
1.0
 40
1.0
 40
1.0
 10
17.9929
 20
3.9696
 30
0.0
 10
18.3624
 20
3.938
 30
0.0
 10
18.2262
 20
3.2605
 30
0.0
 10
18.2317
 20
3.1059
 30
0.0
  0
SPLINE
  5
99
330
1F
100
AcDbEntity
  8
Vrstva 1
 62
   250
370
    30
100
AcDbSpline
210
0.0
220
0.0
230
1.0
 70
    24
 71
     3
 72
     8
 73
     4
 74
     0
 42
0.0000000001
 43
0.0000000001
 40
0.0
 40
0.0
 40
0.0
 40
0.0
 40
1.0
 40
1.0
 40
1.0
 40
1.0
 10
18.2317
 20
3.1059
 30
0.0
 10
18.2317
 20
3.1059
 30
0.0
 10
-25.3868
 20
3.1059
 30
0.0
 10
-25.3868
 20
3.1059
 30
0.0
  0
SPLINE
  5
9A
330
1F
100
AcDbEntity
  8
Vrstva 1
 62
   250
370
    30
100
AcDbSpline
210
0.0
220
0.0
230
1.0
 70
    24
 71
     3
 72
     8
 73
     4
 74
     0
 42
0.0000000001
 43
0.0000000001
 40
0.0
 40
0.0
 40
0.0
 40
0.0
 40
1.0
 40
1.0
 40
1.0
 40
1.0
 10
19.3487
 20
-24.7832
 30
0.0
 10
19.3487
 20
-24.7832
 30
0.0
 10
19.6026
 20
-24.2926
 30
0.0
 10
19.6026
 20
-24.2926
 30
0.0
  0
SPLINE
  5
9B
330
1F
100
AcDbEntity
  8
Vrstva 1
 62
   250
370
    30
100
AcDbSpline
210
0.0
220
0.0
230
1.0
 70
    24
 71
     3
 72
     8
 73
     4
 74
     0
 42
0.0000000001
 43
0.0000000001
 40
0.0
 40
0.0
 40
0.0
 40
0.0
 40
1.0
 40
1.0
 40
1.0
 40
1.0
 10
20.0838
 20
-24.7244
 30
0.0
 10
20.0838
 20
-24.7244
 30
0.0
 10
20.1032
 20
-24.776
 30
0.0
 10
20.1032
 20
-24.776
 30
0.0
  0
SPLINE
  5
9C
330
1F
100
AcDbEntity
  8
Vrstva 1
 62
   250
370
    30
100
AcDbSpline
210
0.0
220
0.0
230
1.0
 70
    24
 71
     3
 72
     8
 73
     4
 74
     0
 42
0.0000000001
 43
0.0000000001
 40
0.0
 40
0.0
 40
0.0
 40
0.0
 40
1.0
 40
1.0
 40
1.0
 40
1.0
 10
15.5802
 20
-24.2836
 30
0.0
 10
15.5802
 20
-24.2836
 30
0.0
 10
15.4156
 20
-24.2655
 30
0.0
 10
15.4156
 20
-24.2655
 30
0.0
  0
SPLINE
  5
9D
330
1F
100
AcDbEntity
  8
Vrstva 1
 62
   250
370
    30
100
AcDbSpline
210
0.0
220
0.0
230
1.0
 70
     8
 71
     3
 72
    12
 73
     8
 74
     0
 42
0.0000000001
 43
0.0000000001
 40
0.0
 40
0.0
 40
0.0
 40
0.0
 40
0.3333333333333333
 40
0.3333333333333333
 40
0.3333333333333333
 40
0.3333333333333333
 40
1.0
 40
1.0
 40
1.0
 40
1.0
 10
20.222
 20
-24.8577
 30
0.0
 10
20.5185
 20
-24.7974
 30
0.0
 10
20.4227
 20
-24.2519
 30
0.0
 10
20.7208
 20
-24.2189
 30
0.0
 10
20.7208
 20
-24.2189
 30
0.0
 10
20.8231
 20
-24.23
 30
0.0
 10
20.8791
 20
-24.2998
 30
0.0
 10
20.9203
 20
-24.3898
 30
0.0
  0
SPLINE
  5
9E
330
1F
100
AcDbEntity
  8
Vrstva 1
 62
   250
370
    30
100
AcDbSpline
210
0.0
220
0.0
230
1.0
 70
     8
 71
     3
 72
     8
 73
     4
 74
     0
 42
0.0000000001
 43
0.0000000001
 40
0.0
 40
0.0
 40
0.0
 40
0.0
 40
1.0
 40
1.0
 40
1.0
 40
1.0
 10
19.2672
 20
-24.8228
 30
0.0
 10
19.2215
 20
-24.8449
 30
0.0
 10
19.0981
 20
-24.8664
 30
0.0
 10
19.0955
 20
-24.7701
 30
0.0
  0
SPLINE
  5
9F
330
1F
100
AcDbEntity
  8
Vrstva 1
 62
   250
370
    30
100
AcDbSpline
210
0.0
220
0.0
230
1.0
 70
    24
 71
     3
 72
    16
 73
    12
 74
     0
 42
0.0000000001
 43
0.0000000001
 40
0.0
 40
0.0
 40
0.0
 40
0.0
 40
0.25
 40
0.25
 40
0.25
 40
0.25
 40
0.5
 40
0.5
 40
0.5
 40
0.5
 40
1.0
 40
1.0
 40
1.0
 40
1.0
 10
19.0955
 20
-24.7701
 30
0.0
 10
19.0955
 20
-24.7701
 30
0.0
 10
19.0955
 20
-23.9064
 30
0.0
 10
19.0955
 20
-23.9064
 30
0.0
 10
19.0955
 20
-23.9064
 30
0.0
 10
19.0955
 20
-23.9064
 30
0.0
 10
19.0955
 20
-5.752
 30
0.0
 10
19.0955
 20
-5.752
 30
0.0
 10
19.0955
 20
-5.752
 30
0.0
 10
19.0955
 20
-5.752
 30
0.0
 10
19.0955
 20
-4.8884
 30
0.0
 10
19.0955
 20
-4.8884
 30
0.0
  0
SPLINE
  5
A0
330
1F
100
AcDbEntity
  8
Vrstva 1
 62
   250
370
    30
100
AcDbSpline
210
0.0
220
0.0
230
1.0
 70
     8
 71
     3
 72
    16
 73
    12
 74
     0
 42
0.0000000001
 43
0.0000000001
 40
0.0
 40
0.0
 40
0.0
 40
0.0
 40
0.25
 40
0.25
 40
0.25
 40
0.25
 40
0.5
 40
0.5
 40
0.5
 40
0.5
 40
1.0
 40
1.0
 40
1.0
 40
1.0
 10
20.8387
 20
-4.4273
 30
0.0
 10
20.5913
 20
-4.1557
 30
0.0
 10
20.3581
 20
-4.8811
 30
0.0
 10
20.3436
 20
-4.9085
 30
0.0
 10
20.3436
 20
-4.9085
 30
0.0
 10
20.3248
 20
-4.9443
 30
0.0
 10
20.2912
 20
-4.9702
 30
0.0
 10
20.252
 20
-4.979
 30
0.0
 10
20.252
 20
-4.979
 30
0.0
 10
20.2024
 20
-4.99
 30
0.0
 10
20.1501
 20
-4.9719
 30
0.0
 10
20.1176
 20
-4.933
 30
0.0
  0
SPLINE
  5
A1
330
1F
100
AcDbEntity
  8
Vrstva 1
 62
   250
370
    30
100
AcDbSpline
210
0.0
220
0.0
230
1.0
 70
     8
 71
     3
 72
    12
 73
     8
 74
     0
 42
0.0000000001
 43
0.0000000001
 40
0.0
 40
0.0
 40
0.0
 40
0.0
 40
0.3333333333333333
 40
0.3333333333333333
 40
0.3333333333333333
 40
0.3333333333333333
 40
1.0
 40
1.0
 40
1.0
 40
1.0
 10
20.1176
 20
-4.933
 30
0.0
 10
20.1176
 20
-4.933
 30
0.0
 10
20.1012
 20
-4.9085
 30
0.0
 10
20.1012
 20
-4.9085
 30
0.0
 10
20.1012
 20
-4.9085
 30
0.0
 10
20.1012
 20
-4.9085
 30
0.0
 10
19.8555
 20
-4.4377
 30
0.0
 10
19.8555
 20
-4.4377
 30
0.0
  0
SPLINE
  5
A2
330
1F
100
AcDbEntity
  8
Vrstva 1
 62
   250
370
    30
100
AcDbSpline
210
0.0
220
0.0
230
1.0
 70
     8
 71
     3
 72
    16
 73
    12
 74
     0
 42
0.0000000001
 43
0.0000000001
 40
0.0
 40
0.0
 40
0.0
 40
0.0
 40
0.25
 40
0.25
 40
0.25
 40
0.25
 40
0.5
 40
0.5
 40
0.5
 40
0.5
 40
1.0
 40
1.0
 40
1.0
 40
1.0
 10
19.8555
 20
-4.4377
 30
0.0
 10
19.8359
 20
-4.401
 30
0.0
 10
19.8073
 20
-4.3516
 30
0.0
 10
19.7579
 20
-4.3513
 30
0.0
 10
19.7579
 20
-4.3513
 30
0.0
 10
19.4936
 20
-4.349
 30
0.0
 10
19.4375
 20
-4.7322
 30
0.0
 10
19.3413
 20
-4.914
 30
0.0
 10
19.3413
 20
-4.914
 30
0.0
 10
19.2793
 20
-5.0308
 30
0.0
 10
19.1453
 20
-4.9818
 30
0.0
 10
19.0955
 20
-4.8884
 30
0.0
  0
SPLINE
  5
A3
330
1F
100
AcDbEntity
  8
Vrstva 1
 62
   250
370
    30
100
AcDbSpline
210
0.0
220
0.0
230
1.0
 70
    24
 71
     3
 72
     8
 73
     4
 74
     0
 42
0.0000000001
 43
0.0000000001
 40
0.0
 40
0.0
 40
0.0
 40
0.0
 40
1.0
 40
1.0
 40
1.0
 40
1.0
 10
19.0955
 20
-5.0997
 30
0.0
 10
19.0955
 20
-5.0997
 30
0.0
 10
18.2317
 20
-5.0997
 30
0.0
 10
18.2317
 20
-5.0997
 30
0.0
  0
SPLINE
  5
A4
330
1F
100
AcDbEntity
  8
Vrstva 1
 62
   250
370
    30
100
AcDbSpline
210
0.0
220
0.0
230
1.0
 70
     8
 71
     3
 72
     8
 73
     4
 74
     0
 42
0.0000000001
 43
0.0000000001
 40
0.0
 40
0.0
 40
0.0
 40
0.0
 40
1.0
 40
1.0
 40
1.0
 40
1.0
 10
18.2317
 20
-5.0997
 30
0.0
 10
17.9268
 20
-5.0997
 30
0.0
 10
16.9407
 20
-5.2961
 30
0.0
 10
16.9362
 20
-4.6678
 30
0.0
  0
SPLINE
  5
A5
330
1F
100
AcDbEntity
  8
Vrstva 1
 62
   250
370
    30
100
AcDbSpline
210
0.0
220
0.0
230
1.0
 70
    24
 71
     3
 72
    12
 73
     8
 74
     0
 42
0.0000000001
 43
0.0000000001
 40
0.0
 40
0.0
 40
0.0
 40
0.0
 40
0.3333333333333333
 40
0.3333333333333333
 40
0.3333333333333333
 40
0.3333333333333333
 40
1.0
 40
1.0
 40
1.0
 40
1.0
 10
16.9362
 20
-4.6678
 30
0.0
 10
16.9362
 20
-4.6678
 30
0.0
 10
16.9362
 20
-3.8039
 30
0.0
 10
16.9362
 20
-3.8039
 30
0.0
 10
16.9362
 20
-3.8039
 30
0.0
 10
16.9362
 20
-3.8039
 30
0.0
 10
16.9362
 20
0.5148
 30
0.0
 10
16.9362
 20
0.5148
 30
0.0
  0
SPLINE
  5
A6
330
1F
100
AcDbEntity
  8
Vrstva 1
 62
   250
370
    30
100
AcDbSpline
210
0.0
220
0.0
230
1.0
 70
     8
 71
     3
 72
     8
 73
     4
 74
     0
 42
0.0000000001
 43
0.0000000001
 40
0.0
 40
0.0
 40
0.0
 40
0.0
 40
1.0
 40
1.0
 40
1.0
 40
1.0
 10
16.9362
 20
0.5148
 30
0.0
 10
16.9362
 20
0.9129
 30
0.0
 10
16.7406
 20
1.7555
 30
0.0
 10
17.368
 20
1.8103
 30
0.0
  0
SPLINE
  5
A7
330
1F
100
AcDbEntity
  8
Vrstva 1
 62
   250
370
    30
100
AcDbSpline
210
0.0
220
0.0
230
1.0
 70
    24
 71
     3
 72
     8
 73
     4
 74
     0
 42
0.0000000001
 43
0.0000000001
 40
0.0
 40
0.0
 40
0.0
 40
0.0
 40
1.0
 40
1.0
 40
1.0
 40
1.0
 10
18.2317
 20
3.1059
 30
0.0
 10
18.2317
 20
3.1059
 30
0.0
 10
18.2317
 20
2.242
 30
0.0
 10
18.2317
 20
2.242
 30
0.0
  0
SPLINE
  5
A8
330
1F
100
AcDbEntity
  8
Vrstva 1
 62
   250
370
    30
100
AcDbSpline
210
0.0
220
0.0
230
1.0
 70
     8
 71
     3
 72
     8
 73
     4
 74
     0
 42
0.0000000001
 43
0.0000000001
 40
0.0
 40
0.0
 40
0.0
 40
0.0
 40
1.0
 40
1.0
 40
1.0
 40
1.0
 10
18.2317
 20
2.242
 30
0.0
 10
18.2273
 20
1.6139
 30
0.0
 10
17.2412
 20
1.8103
 30
0.0
 10
16.9362
 20
1.8103
 30
0.0
  0
SPLINE
  5
A9
330
1F
100
AcDbEntity
  8
Vrstva 1
 62
   250
370
    30
100
AcDbSpline
210
0.0
220
0.0
230
1.0
 70
    24
 71
     3
 72
     8
 73
     4
 74
     0
 42
0.0000000001
 43
0.0000000001
 40
0.0
 40
0.0
 40
0.0
 40
0.0
 40
1.0
 40
1.0
 40
1.0
 40
1.0
 10
16.9362
 20
1.8103
 30
0.0
 10
16.9362
 20
1.8103
 30
0.0
 10
-24.0911
 20
1.8103
 30
0.0
 10
-24.0911
 20
1.8103
 30
0.0
  0
SPLINE
  5
AA
330
1F
100
AcDbEntity
  8
Vrstva 1
 62
   250
370
    30
100
AcDbSpline
210
0.0
220
0.0
230
1.0
 70
     8
 71
     3
 72
     8
 73
     4
 74
     0
 42
0.0000000001
 43
0.0000000001
 40
0.0
 40
0.0
 40
0.0
 40
0.0
 40
1.0
 40
1.0
 40
1.0
 40
1.0
 10
-24.0911
 20
1.8103
 30
0.0
 10
-24.3959
 20
1.8103
 30
0.0
 10
-25.3824
 20
1.6139
 30
0.0
 10
-25.3865
 20
2.242
 30
0.0
  0
SPLINE
  5
AB
330
1F
100
AcDbEntity
  8
Vrstva 1
 62
   250
370
    30
100
AcDbSpline
210
0.0
220
0.0
230
1.0
 70
    24
 71
     3
 72
     8
 73
     4
 74
     0
 42
0.0000000001
 43
0.0000000001
 40
0.0
 40
0.0
 40
0.0
 40
0.0
 40
1.0
 40
1.0
 40
1.0
 40
1.0
 10
-25.3865
 20
2.242
 30
0.0
 10
-25.3865
 20
2.242
 30
0.0
 10
-25.3865
 20
3.1059
 30
0.0
 10
-25.3865
 20
3.1059
 30
0.0
  0
SPLINE
  5
AC
330
1F
100
AcDbEntity
  8
Vrstva 1
 62
   250
370
    30
100
AcDbSpline
210
0.0
220
0.0
230
1.0
 70
     8
 71
     3
 72
     8
 73
     4
 74
     0
 42
0.0000000001
 43
0.0000000001
 40
0.0
 40
0.0
 40
0.0
 40
0.0
 40
1.0
 40
1.0
 40
1.0
 40
1.0
 10
-24.523
 20
1.8103
 30
0.0
 10
-23.8956
 20
1.7555
 30
0.0
 10
-24.0911
 20
0.9129
 30
0.0
 10
-24.0911
 20
0.5148
 30
0.0
  0
SPLINE
  5
AD
330
1F
100
AcDbEntity
  8
Vrstva 1
 62
   250
370
    30
100
AcDbSpline
210
0.0
220
0.0
230
1.0
 70
    24
 71
     3
 72
     8
 73
     4
 74
     0
 42
0.0000000001
 43
0.0000000001
 40
0.0
 40
0.0
 40
0.0
 40
0.0
 40
1.0
 40
1.0
 40
1.0
 40
1.0
 10
-24.0911
 20
0.5148
 30
0.0
 10
-24.0911
 20
0.5148
 30
0.0
 10
-24.0911
 20
-15.3483
 30
0.0
 10
-24.0911
 20
-15.3483
 30
0.0
  0
SPLINE
  5
AE
330
1F
100
AcDbEntity
  8
Vrstva 1
 62
   250
370
    30
100
AcDbSpline
210
0.0
220
0.0
230
1.0
 70
     8
 71
     3
 72
    16
 73
    12
 74
     0
 42
0.0000000001
 43
0.0000000001
 40
0.0
 40
0.0
 40
0.0
 40
0.0
 40
0.25
 40
0.25
 40
0.25
 40
0.25
 40
0.5
 40
0.5
 40
0.5
 40
0.5
 40
1.0
 40
1.0
 40
1.0
 40
1.0
 10
-24.0911
 20
-15.3483
 30
0.0
 10
-24.0911
 20
-15.9671
 30
0.0
 10
-24.1951
 20
-16.6217
 30
0.0
 10
-23.733
 20
-17.1063
 30
0.0
 10
-23.733
 20
-17.1063
 30
0.0
 10
-23.6575
 20
-17.1857
 30
0.0
 10
-23.5718
 20
-17.2551
 30
0.0
 10
-23.4785
 20
-17.3132
 30
0.0
 10
-23.4785
 20
-17.3132
 30
0.0
 10
-23.1055
 20
-17.5444
 30
0.0
 10
-22.5636
 20
-17.5687
 30
0.0
 10
-22.1699
 20
-17.638
 30
0.0
  0
SPLINE
  5
AF
330
1F
100
AcDbEntity
  8
Vrstva 1
 62
   250
370
    30
100
AcDbSpline
210
0.0
220
0.0
230
1.0
 70
     8
 71
     3
 72
    16
 73
    12
 74
     0
 42
0.0000000001
 43
0.0000000001
 40
0.0
 40
0.0
 40
0.0
 40
0.0
 40
0.25
 40
0.25
 40
0.25
 40
0.25
 40
0.5
 40
0.5
 40
0.5
 40
0.5
 40
1.0
 40
1.0
 40
1.0
 40
1.0
 10
-22.1699
 20
-17.638
 30
0.0
 10
-22.1699
 20
-17.638
 30
0.0
 10
14.565
 20
-24.1154
 30
0.0
 10
14.565
 20
-24.1154
 30
0.0
 10
14.565
 20
-24.1154
 30
0.0
 10
14.565
 20
-24.1154
 30
0.0
 10
15.4156
 20
-24.2655
 30
0.0
 10
15.4156
 20
-24.2655
 30
0.0
 10
15.4156
 20
-24.2655
 30
0.0
 10
15.4156
 20
-24.2655
 30
0.0
 10
15.5802
 20
-24.2836
 30
0.0
 10
15.5802
 20
-24.2836
 30
0.0
  0
SPLINE
  5
B0
330
1F
100
AcDbEntity
  8
Vrstva 1
 62
   250
370
    30
100
AcDbSpline
210
0.0
220
0.0
230
1.0
 70
     8
 71
     3
 72
     8
 73
     4
 74
     0
 42
0.0000000001
 43
0.0000000001
 40
0.0
 40
0.0
 40
0.0
 40
0.0
 40
1.0
 40
1.0
 40
1.0
 40
1.0
 10
15.5802
 20
-24.2836
 30
0.0
 10
15.8398
 20
-24.279
 30
0.0
 10
16.0415
 20
-24.221
 30
0.0
 10
16.2799
 20
-24.1236
 30
0.0
  0
SPLINE
  5
B1
330
1F
100
AcDbEntity
  8
Vrstva 1
 62
   250
370
    30
100
AcDbSpline
210
0.0
220
0.0
230
1.0
 70
     8
 71
     3
 72
     8
 73
     4
 74
     0
 42
0.0000000001
 43
0.0000000001
 40
0.0
 40
0.0
 40
0.0
 40
0.0
 40
1.0
 40
1.0
 40
1.0
 40
1.0
 10
16.2334
 20
-24.1367
 30
0.0
 10
16.5707
 20
-24.0416
 30
0.0
 10
16.9347
 20
-24.1017
 30
0.0
 10
17.279
 20
-24.1017
 30
0.0
  0
SPLINE
  5
B2
330
1F
100
AcDbEntity
  8
Vrstva 1
 62
   250
370
    30
100
AcDbSpline
210
0.0
220
0.0
230
1.0
 70
    24
 71
     3
 72
    12
 73
     8
 74
     0
 42
0.0000000001
 43
0.0000000001
 40
0.0
 40
0.0
 40
0.0
 40
0.0
 40
0.3333333333333333
 40
0.3333333333333333
 40
0.3333333333333333
 40
0.3333333333333333
 40
1.0
 40
1.0
 40
1.0
 40
1.0
 10
17.279
 20
-24.1017
 30
0.0
 10
17.279
 20
-24.1017
 30
0.0
 10
18.2317
 20
-24.1017
 30
0.0
 10
18.2317
 20
-24.1017
 30
0.0
 10
18.2317
 20
-24.1017
 30
0.0
 10
18.2317
 20
-24.1017
 30
0.0
 10
19.0955
 20
-24.1017
 30
0.0
 10
19.0955
 20
-24.1017
 30
0.0
  0
SPLINE
  5
B3
330
1F
100
AcDbEntity
  8
Vrstva 1
 62
   250
370
    30
100
AcDbSpline
210
0.0
220
0.0
230
1.0
 70
     8
 71
     3
 72
    16
 73
    12
 74
     0
 42
0.0000000001
 43
0.0000000001
 40
0.0
 40
0.0
 40
0.0
 40
0.0
 40
0.25
 40
0.25
 40
0.25
 40
0.25
 40
0.5
 40
0.5
 40
0.5
 40
0.5
 40
1.0
 40
1.0
 40
1.0
 40
1.0
 10
19.619
 20
-24.2681
 30
0.0
 10
19.6514
 20
-24.2368
 30
0.0
 10
19.6789
 20
-24.2239
 30
0.0
 10
19.7238
 20
-24.2189
 30
0.0
 10
19.7238
 20
-24.2189
 30
0.0
 10
19.9412
 20
-24.2428
 30
0.0
 10
20.0716
 20
-24.7331
 30
0.0
 10
20.0959
 20
-24.7787
 30
0.0
 10
20.0959
 20
-24.7787
 30
0.0
 10
20.1196
 20
-24.8236
 30
0.0
 10
20.1842
 20
-24.8309
 30
0.0
 10
20.222
 20
-24.8577
 30
0.0
  0
SPLINE
  5
B4
330
1F
100
AcDbEntity
  8
Vrstva 1
 62
   250
370
    30
100
AcDbSpline
210
0.0
220
0.0
230
1.0
 70
     8
 71
     3
 72
     8
 73
     4
 74
     0
 42
0.0000000001
 43
0.0000000001
 40
0.0
 40
0.0
 40
0.0
 40
0.0
 40
1.0
 40
1.0
 40
1.0
 40
1.0
 10
19.3411
 20
-24.7838
 30
0.0
 10
19.3132
 20
-24.819
 30
0.0
 10
19.3061
 20
-24.8281
 30
0.0
 10
19.2616
 20
-24.8254
 30
0.0
  0
SPLINE
  5
B5
330
1F
100
AcDbEntity
  8
Vrstva 1
 62
   250
370
    30
100
AcDbSpline
210
0.0
220
0.0
230
1.0
 70
     8
 71
     3
 72
     8
 73
     4
 74
     0
 42
0.0000000001
 43
0.0000000001
 40
0.0
 40
0.0
 40
0.0
 40
0.0
 40
1.0
 40
1.0
 40
1.0
 40
1.0
 10
-20.0566
 20
-18.0175
 30
0.0
 10
-19.593
 20
-18.2336
 30
0.0
 10
-19.7725
 20
-18.9005
 30
0.0
 10
-19.7725
 20
-19.2869
 30
0.0
  0
SPLINE
  5
B6
330
1F
100
AcDbEntity
  8
Vrstva 1
 62
   250
370
    30
100
AcDbSpline
210
0.0
220
0.0
230
1.0
 70
     8
 71
     3
 72
    16
 73
    12
 74
     0
 42
0.0000000001
 43
0.0000000001
 40
0.0
 40
0.0
 40
0.0
 40
0.0
 40
0.25
 40
0.25
 40
0.25
 40
0.25
 40
0.5
 40
0.5
 40
0.5
 40
0.5
 40
1.0
 40
1.0
 40
1.0
 40
1.0
 10
-19.7725
 20
-19.2869
 30
0.0
 10
-19.7725
 20
-19.2869
 30
0.0
 10
-19.7725
 20
-24.9652
 30
0.0
 10
-19.7725
 20
-24.9652
 30
0.0
 10
-19.7725
 20
-24.9652
 30
0.0
 10
-19.7725
 20
-24.9652
 30
0.0
 10
-19.7725
 20
-25.8292
 30
0.0
 10
-19.7725
 20
-25.8292
 30
0.0
 10
-19.7725
 20
-25.8292
 30
0.0
 10
-19.7725
 20
-25.8292
 30
0.0
 10
-19.7612
 20
-25.9983
 30
0.0
 10
-19.7612
 20
-25.9983
 30
0.0
  0
SPLINE
  5
B7
330
1F
100
AcDbEntity
  8
Vrstva 1
 62
   250
370
    30
100
AcDbSpline
210
0.0
220
0.0
230
1.0
 70
     8
 71
     3
 72
     8
 73
     4
 74
     0
 42
0.0000000001
 43
0.0000000001
 40
0.0
 40
0.0
 40
0.0
 40
0.0
 40
1.0
 40
1.0
 40
1.0
 40
1.0
 10
-19.7612
 20
-25.9983
 30
0.0
 10
-19.6733
 20
-26.6658
 30
0.0
 10
-19.1202
 20
-27.0826
 30
0.0
 10
-18.4767
 20
-27.1249
 30
0.0
  0
SPLINE
  5
B8
330
1F
100
AcDbEntity
  8
Vrstva 1
 62
   250
370
    30
100
AcDbSpline
210
0.0
220
0.0
230
1.0
 70
    24
 71
     3
 72
    12
 73
     8
 74
     0
 42
0.0000000001
 43
0.0000000001
 40
0.0
 40
0.0
 40
0.0
 40
0.0
 40
0.3333333333333333
 40
0.3333333333333333
 40
0.3333333333333333
 40
0.3333333333333333
 40
1.0
 40
1.0
 40
1.0
 40
1.0
 10
-18.4767
 20
-27.1249
 30
0.0
 10
-18.4767
 20
-27.1249
 30
0.0
 10
-17.6132
 20
-27.1249
 30
0.0
 10
-17.6132
 20
-27.1249
 30
0.0
 10
-17.6132
 20
-27.1249
 30
0.0
 10
-17.6132
 20
-27.1249
 30
0.0
 10
10.4581
 20
-27.1249
 30
0.0
 10
10.4581
 20
-27.1249
 30
0.0
  0
SPLINE
  5
B9
330
1F
100
AcDbEntity
  8
Vrstva 1
 62
   250
370
    30
100
AcDbSpline
210
0.0
220
0.0
230
1.0
 70
     8
 71
     3
 72
    20
 73
    16
 74
     0
 42
0.0000000001
 43
0.0000000001
 40
0.0
 40
0.0
 40
0.0
 40
0.0
 40
0.2
 40
0.2
 40
0.2
 40
0.2
 40
0.4
 40
0.4
 40
0.4
 40
0.4
 40
0.6
 40
0.6
 40
0.6
 40
0.6
 40
1.0
 40
1.0
 40
1.0
 40
1.0
 10
10.4581
 20
-27.1249
 30
0.0
 10
10.865
 20
-27.1249
 30
0.0
 10
11.4052
 20
-27.1965
 30
0.0
 10
11.8164
 20
-27.0264
 30
0.0
 10
11.8164
 20
-27.0264
 30
0.0
 10
11.9212
 20
-26.9833
 30
0.0
 10
12.0196
 20
-26.9263
 30
0.0
 10
12.1099
 20
-26.8576
 30
0.0
 10
12.1099
 20
-26.8576
 30
0.0
 10
12.6985
 20
-26.4065
 30
0.0
 10
12.6173
 20
-25.7273
 30
0.0
 10
12.6173
 20
-25.058
 30
0.0
 10
12.6173
 20
-25.058
 30
0.0
 10
12.6173
 20
-24.6615
 30
0.0
 10
12.4514
 20
-24.0016
 30
0.0
 10
12.9732
 20
-23.8616
 30
0.0
  0
SPLINE
  5
BA
330
1F
100
AcDbEntity
  8
Vrstva 1
 62
   250
370
    30
100
AcDbSpline
210
0.0
220
0.0
230
1.0
 70
    24
 71
     3
 72
     8
 73
     4
 74
     0
 42
0.0000000001
 43
0.0000000001
 40
0.0
 40
0.0
 40
0.0
 40
0.0
 40
1.0
 40
1.0
 40
1.0
 40
1.0
 10
12.8948
 20
-23.8697
 30
0.0
 10
12.8948
 20
-23.8697
 30
0.0
 10
13.0494
 20
-23.8547
 30
0.0
 10
13.0494
 20
-23.8547
 30
0.0
  0
SPLINE
  5
BB
330
1F
100
AcDbEntity
  8
Vrstva 1
 62
   250
370
    30
100
AcDbSpline
210
0.0
220
0.0
230
1.0
 70
     8
 71
     3
 72
     8
 73
     4
 74
     0
 42
0.0000000001
 43
0.0000000001
 40
0.0
 40
0.0
 40
0.0
 40
0.0
 40
1.0
 40
1.0
 40
1.0
 40
1.0
 10
16.2215
 20
-24.1476
 30
0.0
 10
16.5982
 20
-23.8025
 30
0.0
 10
16.3773
 20
-23.2598
 30
0.0
 10
16.2156
 20
-22.8704
 30
0.0
  0
SPLINE
  5
BC
330
1F
100
AcDbEntity
  8
Vrstva 1
 62
   250
370
    30
100
AcDbSpline
210
0.0
220
0.0
230
1.0
 70
    24
 71
     3
 72
     8
 73
     4
 74
     0
 42
0.0000000001
 43
0.0000000001
 40
0.0
 40
0.0
 40
0.0
 40
0.0
 40
1.0
 40
1.0
 40
1.0
 40
1.0
 10
16.2156
 20
-22.8704
 30
0.0
 10
16.2156
 20
-22.8704
 30
0.0
 10
16.0425
 20
-22.429
 30
0.0
 10
16.0425
 20
-22.429
 30
0.0
  0
SPLINE
  5
BD
330
1F
100
AcDbEntity
  8
Vrstva 1
 62
   250
370
    30
100
AcDbSpline
210
0.0
220
0.0
230
1.0
 70
     8
 71
     3
 72
    16
 73
    12
 74
     0
 42
0.0000000001
 43
0.0000000001
 40
0.0
 40
0.0
 40
0.0
 40
0.0
 40
0.25
 40
0.25
 40
0.25
 40
0.25
 40
0.5
 40
0.5
 40
0.5
 40
0.5
 40
1.0
 40
1.0
 40
1.0
 40
1.0
 10
16.0425
 20
-22.429
 30
0.0
 10
15.4487
 20
-20.8735
 30
0.0
 10
14.9831
 20
-19.2657
 30
0.0
 10
14.723
 20
-17.6196
 30
0.0
 10
14.723
 20
-17.6196
 30
0.0
 10
14.4716
 20
-16.0275
 30
0.0
 10
14.4161
 20
-14.4086
 30
0.0
 10
14.5684
 20
-12.8042
 30
0.0
 10
14.5684
 20
-12.8042
 30
0.0
 10
14.8361
 20
-9.9827
 30
0.0
 10
15.7231
 20
-7.2213
 30
0.0
 10
16.9362
 20
-4.6678
 30
0.0
  0
SPLINE
  5
BE
330
1F
100
AcDbEntity
  8
Vrstva 1
 62
   250
370
    13
100
AcDbSpline
210
0.0
220
0.0
230
1.0
 70
    24
 71
     3
 72
     8
 73
     4
 74
     0
 42
0.0000000001
 43
0.0000000001
 40
0.0
 40
0.0
 40
0.0
 40
0.0
 40
1.0
 40
1.0
 40
1.0
 40
1.0
 10
-32.5833
 20
6.9465
 30
0.0
 10
-32.5833
 20
6.9465
 30
0.0
 10
-32.5833
 20
-25.5569
 30
0.0
 10
-32.5833
 20
-25.5569
 30
0.0
  0
SPLINE
  5
BF
330
1F
100
AcDbEntity
  8
Vrstva 1
 62
   250
100
AcDbSpline
210
0.0
220
0.0
230
1.0
 70
    11
 71
     3
 72
    36
 73
    32
 74
     0
 42
0.0000000001
 43
0.0000000001
 40
0.0
 40
0.0
 40
0.0
 40
0.0
 40
0.1111111111111111
 40
0.1111111111111111
 40
0.1111111111111111
 40
0.1111111111111111
 40
0.2222222222222222
 40
0.2222222222222222
 40
0.2222222222222222
 40
0.2222222222222222
 40
0.3333333333333333
 40
0.3333333333333333
 40
0.3333333333333333
 40
0.3333333333333333
 40
0.4444444444444444
 40
0.4444444444444444
 40
0.4444444444444444
 40
0.4444444444444444
 40
0.5555555555555556
 40
0.5555555555555556
 40
0.5555555555555556
 40
0.5555555555555556
 40
0.6666666666666666
 40
0.6666666666666666
 40
0.6666666666666666
 40
0.6666666666666666
 40
0.7777777777777778
 40
0.7777777777777778
 40
0.7777777777777778
 40
0.7777777777777778
 40
1.0
 40
1.0
 40
1.0
 40
1.0
 10
-35.4817
 20
-11.1961
 30
0.0
 10
-35.4817
 20
-11.1961
 30
0.0
 10
-35.1984
 20
-11.1961
 30
0.0
 10
-35.1984
 20
-11.1961
 30
0.0
 10
-35.1984
 20
-11.1961
 30
0.0
 10
-35.1984
 20
-11.1961
 30
0.0
 10
-35.1984
 20
-9.9621
 30
0.0
 10
-35.1984
 20
-9.9621
 30
0.0
 10
-35.1984
 20
-9.9621
 30
0.0
 10
-35.1984
 20
-9.9621
 30
0.0
 10
-35.1906
 20
-9.9621
 30
0.0
 10
-35.1906
 20
-9.9621
 30
0.0
 10
-35.1906
 20
-9.9621
 30
0.0
 10
-35.1906
 20
-9.9621
 30
0.0
 10
-32.9593
 20
-11.0564
 30
0.0
 10
-32.9593
 20
-11.0564
 30
0.0
 10
-32.9593
 20
-11.0564
 30
0.0
 10
-32.9593
 20
-11.0564
 30
0.0
 10
-32.9593
 20
-10.7033
 30
0.0
 10
-32.9593
 20
-10.7033
 30
0.0
 10
-32.9593
 20
-10.7033
 30
0.0
 10
-32.9593
 20
-10.7033
 30
0.0
 10
-35.2566
 20
-9.6051
 30
0.0
 10
-35.2566
 20
-9.6051
 30
0.0
 10
-35.2566
 20
-9.6051
 30
0.0
 10
-35.2566
 20
-9.6051
 30
0.0
 10
-35.4817
 20
-9.6051
 30
0.0
 10
-35.4817
 20
-9.6051
 30
0.0
 10
-35.4817
 20
-9.6051
 30
0.0
 10
-35.4817
 20
-9.6051
 30
0.0
 10
-35.4817
 20
-11.1961
 30
0.0
 10
-35.4817
 20
-11.1961
 30
0.0
  0
SPLINE
  5
C0
330
1F
100
AcDbEntity
  8
Vrstva 1
 62
   250
100
AcDbSpline
210
0.0
220
0.0
230
1.0
 70
    11
 71
     3
 72
   124
 73
   120
 74
     0
 42
0.0000000001
 43
0.0000000001
 40
0.0
 40
0.0
 40
0.0
 40
0.0
 40
0.032258064516129
 40
0.032258064516129
 40
0.032258064516129
 40
0.032258064516129
 40
0.0645161290322581
 40
0.0645161290322581
 40
0.0645161290322581
 40
0.0645161290322581
 40
0.0967741935483871
 40
0.0967741935483871
 40
0.0967741935483871
 40
0.0967741935483871
 40
0.1290322580645161
 40
0.1290322580645161
 40
0.1290322580645161
 40
0.1290322580645161
 40
0.1612903225806452
 40
0.1612903225806452
 40
0.1612903225806452
 40
0.1612903225806452
 40
0.1935483870967742
 40
0.1935483870967742
 40
0.1935483870967742
 40
0.1935483870967742
 40
0.2258064516129032
 40
0.2258064516129032
 40
0.2258064516129032
 40
0.2258064516129032
 40
0.2580645161290323
 40
0.2580645161290323
 40
0.2580645161290323
 40
0.2580645161290323
 40
0.2903225806451613
 40
0.2903225806451613
 40
0.2903225806451613
 40
0.2903225806451613
 40
0.3225806451612903
 40
0.3225806451612903
 40
0.3225806451612903
 40
0.3225806451612903
 40
0.3548387096774194
 40
0.3548387096774194
 40
0.3548387096774194
 40
0.3548387096774194
 40
0.3870967741935484
 40
0.3870967741935484
 40
0.3870967741935484
 40
0.3870967741935484
 40
0.4193548387096774
 40
0.4193548387096774
 40
0.4193548387096774
 40
0.4193548387096774
 40
0.4516129032258064
 40
0.4516129032258064
 40
0.4516129032258064
 40
0.4516129032258064
 40
0.4838709677419355
 40
0.4838709677419355
 40
0.4838709677419355
 40
0.4838709677419355
 40
0.5161290322580645
 40
0.5161290322580645
 40
0.5161290322580645
 40
0.5161290322580645
 40
0.5483870967741935
 40
0.5483870967741935
 40
0.5483870967741935
 40
0.5483870967741935
 40
0.5806451612903226
 40
0.5806451612903226
 40
0.5806451612903226
 40
0.5806451612903226
 40
0.6129032258064516
 40
0.6129032258064516
 40
0.6129032258064516
 40
0.6129032258064516
 40
0.6451612903225806
 40
0.6451612903225806
 40
0.6451612903225806
 40
0.6451612903225806
 40
0.6774193548387096
 40
0.6774193548387096
 40
0.6774193548387096
 40
0.6774193548387096
 40
0.7096774193548387
 40
0.7096774193548387
 40
0.7096774193548387
 40
0.7096774193548387
 40
0.7419354838709677
 40
0.7419354838709677
 40
0.7419354838709677
 40
0.7419354838709677
 40
0.7741935483870968
 40
0.7741935483870968
 40
0.7741935483870968
 40
0.7741935483870968
 40
0.8064516129032258
 40
0.8064516129032258
 40
0.8064516129032258
 40
0.8064516129032258
 40
0.8387096774193549
 40
0.8387096774193549
 40
0.8387096774193549
 40
0.8387096774193549
 40
0.8709677419354839
 40
0.8709677419354839
 40
0.8709677419354839
 40
0.8709677419354839
 40
0.9032258064516129
 40
0.9032258064516129
 40
0.9032258064516129
 40
0.9032258064516129
 40
0.9354838709677419
 40
0.9354838709677419
 40
0.9354838709677419
 40
0.9354838709677419
 40
1.0
 40
1.0
 40
1.0
 40
1.0
 10
-32.9205
 20
-9.0541
 30
0.0
 10
-32.9186
 20
-9.0133
 30
0.0
 10
-32.9186
 20
-8.9661
 30
0.0
 10
-32.9218
 20
-8.9131
 30
0.0
 10
-32.9218
 20
-8.9131
 30
0.0
 10
-32.9244
 20
-8.86
 30
0.0
 10
-32.9302
 20
-8.8018
 30
0.0
 10
-32.9399
 20
-8.7397
 30
0.0
 10
-32.9399
 20
-8.7397
 30
0.0
 10
-32.9502
 20
-8.6485
 30
0.0
 10
-32.9703
 20
-8.5593
 30
0.0
 10
-32.9988
 20
-8.472
 30
0.0
 10
-32.9988
 20
-8.472
 30
0.0
 10
-33.0279
 20
-8.3847
 30
0.0
 10
-33.066
 20
-8.3012
 30
0.0
 10
-33.1126
 20
-8.2223
 30
0.0
 10
-33.1126
 20
-8.2223
 30
0.0
 10
-33.1592
 20
-8.1434
 30
0.0
 10
-33.2141
 20
-8.0716
 30
0.0
 10
-33.2775
 20
-8.0063
 30
0.0
 10
-33.2775
 20
-8.0063
 30
0.0
 10
-33.3577
 20
-7.9229
 30
0.0
 10
-33.4541
 20
-7.8485
 30
0.0
 10
-33.5679
 20
-7.7832
 30
0.0
 10
-33.5679
 20
-7.7832
 30
0.0
 10
-33.6811
 20
-7.7178
 30
0.0
 10
-33.8117
 20
-7.6667
 30
0.0
 10
-33.9598
 20
-7.6292
 30
0.0
 10
-33.9598
 20
-7.6292
 30
0.0
 10
-34.108
 20
-7.5917
 30
0.0
 10
-34.2735
 20
-7.5723
 30
0.0
 10
-34.4572
 20
-7.5717
 30
0.0
 10
-34.4572
 20
-7.5717
 30
0.0
 10
-34.6208
 20
-7.5717
 30
0.0
 10
-34.7677
 20
-7.5911
 30
0.0
 10
-34.899
 20
-7.6292
 30
0.0
 10
-34.899
 20
-7.6292
 30
0.0
 10
-35.0302
 20
-7.6674
 30
0.0
 10
-35.1421
 20
-7.723
 30
0.0
 10
-35.2353
 20
-7.7955
 30
0.0
 10
-35.2353
 20
-7.7955
 30
0.0
 10
-35.3284
 20
-7.8679
 30
0.0
 10
-35.3996
 20
-7.9552
 30
0.0
 10
-35.4494
 20
-8.058
 30
0.0
 10
-35.4494
 20
-8.058
 30
0.0
 10
-35.4992
 20
-8.1609
 30
0.0
 10
-35.5237
 20
-8.2766
 30
0.0
 10
-35.5244
 20
-8.406
 30
0.0
 10
-35.5244
 20
-8.406
 30
0.0
 10
-35.5237
 20
-8.5354
 30
0.0
 10
-35.4992
 20
-8.6531
 30
0.0
 10
-35.4513
 20
-8.7585
 30
0.0
 10
-35.4513
 20
-8.7585
 30
0.0
 10
-35.4041
 20
-8.8639
 30
0.0
 10
-35.3381
 20
-8.9545
 30
0.0
 10
-35.2553
 20
-9.0301
 30
0.0
 10
-35.2553
 20
-9.0301
 30
0.0
 10
-35.1719
 20
-9.1065
 30
0.0
 10
-35.0768
 20
-9.1647
 30
0.0
 10
-34.9695
 20
-9.2054
 30
0.0
 10
-34.9695
 20
-9.2054
 30
0.0
 10
-34.8621
 20
-9.2462
 30
0.0
 10
-34.7483
 20
-9.2668
 30
0.0
 10
-34.628
 20
-9.2675
 30
0.0
 10
-34.628
 20
-9.2675
 30
0.0
 10
-34.5199
 20
-9.2668
 30
0.0
 10
-34.4191
 20
-9.2494
 30
0.0
 10
-34.3259
 20
-9.2151
 30
0.0
 10
-34.3259
 20
-9.2151
 30
0.0
 10
-34.2321
 20
-9.1802
 30
0.0
 10
-34.1506
 20
-9.1304
 30
0.0
 10
-34.0801
 20
-9.0657
 30
0.0
 10
-34.0801
 20
-9.0657
 30
0.0
 10
-34.0103
 20
-9.001
 30
0.0
 10
-33.9553
 20
-8.9228
 30
0.0
 10
-33.9159
 20
-8.8322
 30
0.0
 10
-33.9159
 20
-8.8322
 30
0.0
 10
-33.8764
 20
-8.741
 30
0.0
 10
-33.8564
 20
-8.6395
 30
0.0
 10
-33.8557
 20
-8.5263
 30
0.0
 10
-33.8557
 20
-8.5263
 30
0.0
 10
-33.8564
 20
-8.3982
 30
0.0
 10
-33.8796
 20
-8.2838
 30
0.0
 10
-33.9256
 20
-8.1835
 30
0.0
 10
-33.9256
 20
-8.1835
 30
0.0
 10
-33.9715
 20
-8.0839
 30
0.0
 10
-34.0375
 20
-7.9985
 30
0.0
 10
-34.1235
 20
-7.9287
 30
0.0
 10
-34.1235
 20
-7.9287
 30
0.0
 10
-34.1235
 20
-7.9287
 30
0.0
 10
-34.1235
 20
-7.917
 30
0.0
 10
-34.1235
 20
-7.917
 30
0.0
 10
-34.1235
 20
-7.917
 30
0.0
 10
-33.976
 20
-7.941
 30
0.0
 10
-33.8467
 20
-7.9817
 30
0.0
 10
-33.7361
 20
-8.0386
 30
0.0
 10
-33.7361
 20
-8.0386
 30
0.0
 10
-33.6248
 20
-8.0962
 30
0.0
 10
-33.5317
 20
-8.1667
 30
0.0
 10
-33.456
 20
-8.2508
 30
0.0
 10
-33.456
 20
-8.2508
 30
0.0
 10
-33.3862
 20
-8.3232
 30
0.0
 10
-33.3318
 20
-8.4041
 30
0.0
 10
-33.2917
 20
-8.494
 30
0.0
 10
-33.2917
 20
-8.494
 30
0.0
 10
-33.2516
 20
-8.5839
 30
0.0
 10
-33.2251
 20
-8.6789
 30
0.0
 10
-33.2115
 20
-8.7785
 30
0.0
 10
-33.2115
 20
-8.7785
 30
0.0
 10
-33.2057
 20
-8.8361
 30
0.0
 10
-33.2012
 20
-8.8878
 30
0.0
 10
-33.1986
 20
-8.9325
 30
0.0
 10
-33.1986
 20
-8.9325
 30
0.0
 10
-33.196
 20
-8.9771
 30
0.0
 10
-33.196
 20
-9.0178
 30
0.0
 10
-33.1999
 20
-9.0541
 30
0.0
 10
-33.1999
 20
-9.0541
 30
0.0
 10
-33.1999
 20
-9.0541
 30
0.0
 10
-32.9205
 20
-9.0541
 30
0.0
 10
-32.9205
 20
-9.0541
 30
0.0
  0
SPLINE
  5
C1
330
1F
100
AcDbEntity
  8
Vrstva 1
 62
   250
100
AcDbSpline
210
0.0
220
0.0
230
1.0
 70
    11
 71
     3
 72
    64
 73
    60
 74
     0
 42
0.0000000001
 43
0.0000000001
 40
0.0
 40
0.0
 40
0.0
 40
0.0
 40
0.0625
 40
0.0625
 40
0.0625
 40
0.0625
 40
0.125
 40
0.125
 40
0.125
 40
0.125
 40
0.1875
 40
0.1875
 40
0.1875
 40
0.1875
 40
0.25
 40
0.25
 40
0.25
 40
0.25
 40
0.3125
 40
0.3125
 40
0.3125
 40
0.3125
 40
0.375
 40
0.375
 40
0.375
 40
0.375
 40
0.4375
 40
0.4375
 40
0.4375
 40
0.4375
 40
0.5
 40
0.5
 40
0.5
 40
0.5
 40
0.5625
 40
0.5625
 40
0.5625
 40
0.5625
 40
0.625
 40
0.625
 40
0.625
 40
0.625
 40
0.6875
 40
0.6875
 40
0.6875
 40
0.6875
 40
0.75
 40
0.75
 40
0.75
 40
0.75
 40
0.8125
 40
0.8125
 40
0.8125
 40
0.8125
 40
0.875
 40
0.875
 40
0.875
 40
0.875
 40
1.0
 40
1.0
 40
1.0
 40
1.0
 10
-35.2644
 20
-8.437
 30
0.0
 10
-35.2637
 20
-8.3471
 30
0.0
 10
-35.2443
 20
-8.2689
 30
0.0
 10
-35.2062
 20
-8.2036
 30
0.0
 10
-35.2062
 20
-8.2036
 30
0.0
 10
-35.168
 20
-8.1382
 30
0.0
 10
-35.1143
 20
-8.0839
 30
0.0
 10
-35.0458
 20
-8.0419
 30
0.0
 10
-35.0458
 20
-8.0419
 30
0.0
 10
-34.9772
 20
-7.9992
 30
0.0
 10
-34.8964
 20
-7.9681
 30
0.0
 10
-34.8045
 20
-7.9474
 30
0.0
 10
-34.8045
 20
-7.9474
 30
0.0
 10
-34.712
 20
-7.9267
 30
0.0
 10
-34.6118
 20
-7.917
 30
0.0
 10
-34.5038
 20
-7.917
 30
0.0
 10
-34.5038
 20
-7.917
 30
0.0
 10
-34.4753
 20
-7.917
 30
0.0
 10
-34.4507
 20
-7.9196
 30
0.0
 10
-34.4313
 20
-7.9255
 30
0.0
 10
-34.4313
 20
-7.9255
 30
0.0
 10
-34.4113
 20
-7.9306
 30
0.0
 10
-34.3925
 20
-7.9384
 30
0.0
 10
-34.3757
 20
-7.9481
 30
0.0
 10
-34.3757
 20
-7.9481
 30
0.0
 10
-34.3246
 20
-7.9778
 30
0.0
 10
-34.2794
 20
-8.0173
 30
0.0
 10
-34.2399
 20
-8.0658
 30
0.0
 10
-34.2399
 20
-8.0658
 30
0.0
 10
-34.2004
 20
-8.1137
 30
0.0
 10
-34.1694
 20
-8.1699
 30
0.0
 10
-34.1468
 20
-8.234
 30
0.0
 10
-34.1468
 20
-8.234
 30
0.0
 10
-34.1241
 20
-8.298
 30
0.0
 10
-34.1125
 20
-8.3685
 30
0.0
 10
-34.1118
 20
-8.4448
 30
0.0
 10
-34.1118
 20
-8.4448
 30
0.0
 10
-34.1125
 20
-8.5438
 30
0.0
 10
-34.1358
 20
-8.6291
 30
0.0
 10
-34.181
 20
-8.7016
 30
0.0
 10
-34.181
 20
-8.7016
 30
0.0
 10
-34.2263
 20
-8.774
 30
0.0
 10
-34.2884
 20
-8.8303
 30
0.0
 10
-34.3686
 20
-8.8697
 30
0.0
 10
-34.3686
 20
-8.8697
 30
0.0
 10
-34.4488
 20
-8.9092
 30
0.0
 10
-34.5419
 20
-8.9292
 30
0.0
 10
-34.6474
 20
-8.9299
 30
0.0
 10
-34.6474
 20
-8.9299
 30
0.0
 10
-34.769
 20
-8.9292
 30
0.0
 10
-34.8757
 20
-8.9079
 30
0.0
 10
-34.9675
 20
-8.8659
 30
0.0
 10
-34.9675
 20
-8.8659
 30
0.0
 10
-35.06
 20
-8.8238
 30
0.0
 10
-35.1324
 20
-8.7663
 30
0.0
 10
-35.1848
 20
-8.6925
 30
0.0
 10
-35.1848
 20
-8.6925
 30
0.0
 10
-35.2372
 20
-8.6188
 30
0.0
 10
-35.2637
 20
-8.5334
 30
0.0
 10
-35.2644
 20
-8.437
 30
0.0
  0
SPLINE
  5
C2
330
1F
100
AcDbEntity
  8
Vrstva 1
 62
   250
370
     9
100
AcDbSpline
210
0.0
220
0.0
230
1.0
 70
    11
 71
     3
 72
    32
 73
    28
 74
     0
 42
0.0000000001
 43
0.0000000001
 40
0.0
 40
0.0
 40
0.0
 40
0.0
 40
0.125
 40
0.125
 40
0.125
 40
0.125
 40
0.25
 40
0.25
 40
0.25
 40
0.25
 40
0.375
 40
0.375
 40
0.375
 40
0.375
 40
0.5
 40
0.5
 40
0.5
 40
0.5
 40
0.625
 40
0.625
 40
0.625
 40
0.625
 40
0.75
 40
0.75
 40
0.75
 40
0.75
 40
1.0
 40
1.0
 40
1.0
 40
1.0
 10
-32.9938
 20
-25.7551
 30
0.0
 10
-32.9938
 20
-25.7551
 30
0.0
 10
-32.9938
 20
-25.7551
 30
0.0
 10
-32.9938
 20
-25.7551
 30
0.0
 10
-32.9938
 20
-25.7551
 30
0.0
 10
-32.9938
 20
-25.7551
 30
0.0
 10
-32.9938
 20
-25.7551
 30
0.0
 10
-32.9938
 20
-25.7551
 30
0.0
 10
-32.9938
 20
-25.7551
 30
0.0
 10
-32.9938
 20
-25.7551
 30
0.0
 10
-32.5504
 20
-27.0279
 30
0.0
 10
-32.5504
 20
-27.0279
 30
0.0
 10
-32.5504
 20
-27.0279
 30
0.0
 10
-32.5504
 20
-27.0279
 30
0.0
 10
-32.107
 20
-25.7551
 30
0.0
 10
-32.107
 20
-25.7551
 30
0.0
 10
-32.107
 20
-25.7551
 30
0.0
 10
-32.107
 20
-25.7551
 30
0.0
 10
-32.107
 20
-25.7551
 30
0.0
 10
-32.107
 20
-25.7551
 30
0.0
 10
-32.107
 20
-25.7551
 30
0.0
 10
-32.107
 20
-25.7551
 30
0.0
 10
-32.107
 20
-25.7551
 30
0.0
 10
-32.107
 20
-25.7551
 30
0.0
 10
-32.107
 20
-25.7551
 30
0.0
 10
-32.107
 20
-25.7551
 30
0.0
 10
-32.9938
 20
-25.7551
 30
0.0
 10
-32.9938
 20
-25.7551
 30
0.0
  0
SPLINE
  5
C3
330
1F
100
AcDbEntity
  8
Vrstva 1
 62
   250
370
     9
100
AcDbSpline
210
0.0
220
0.0
230
1.0
 70
    11
 71
     3
 72
    32
 73
    28
 74
     0
 42
0.0000000001
 43
0.0000000001
 40
0.0
 40
0.0
 40
0.0
 40
0.0
 40
0.125
 40
0.125
 40
0.125
 40
0.125
 40
0.25
 40
0.25
 40
0.25
 40
0.25
 40
0.375
 40
0.375
 40
0.375
 40
0.375
 40
0.5
 40
0.5
 40
0.5
 40
0.5
 40
0.625
 40
0.625
 40
0.625
 40
0.625
 40
0.75
 40
0.75
 40
0.75
 40
0.75
 40
1.0
 40
1.0
 40
1.0
 40
1.0
 10
-29.0081
 20
-25.7491
 30
0.0
 10
-29.0081
 20
-25.7491
 30
0.0
 10
-29.0081
 20
-25.7491
 30
0.0
 10
-29.0081
 20
-25.7491
 30
0.0
 10
-29.0081
 20
-25.7491
 30
0.0
 10
-29.0081
 20
-25.7491
 30
0.0
 10
-29.0081
 20
-25.7491
 30
0.0
 10
-29.0081
 20
-25.7491
 30
0.0
 10
-29.0081
 20
-25.7491
 30
0.0
 10
-29.0081
 20
-25.7491
 30
0.0
 10
-28.5647
 20
-27.0219
 30
0.0
 10
-28.5647
 20
-27.0219
 30
0.0
 10
-28.5647
 20
-27.0219
 30
0.0
 10
-28.5647
 20
-27.0219
 30
0.0
 10
-28.1213
 20
-25.7491
 30
0.0
 10
-28.1213
 20
-25.7491
 30
0.0
 10
-28.1213
 20
-25.7491
 30
0.0
 10
-28.1213
 20
-25.7491
 30
0.0
 10
-28.1213
 20
-25.7491
 30
0.0
 10
-28.1213
 20
-25.7491
 30
0.0
 10
-28.1213
 20
-25.7491
 30
0.0
 10
-28.1213
 20
-25.7491
 30
0.0
 10
-28.1213
 20
-25.7491
 30
0.0
 10
-28.1213
 20
-25.7491
 30
0.0
 10
-28.1213
 20
-25.7491
 30
0.0
 10
-28.1213
 20
-25.7491
 30
0.0
 10
-29.0081
 20
-25.7491
 30
0.0
 10
-29.0081
 20
-25.7491
 30
0.0
  0
SPLINE
  5
C4
330
1F
100
AcDbEntity
  8
Vrstva 1
 62
   250
370
     9
100
AcDbSpline
210
0.0
220
0.0
230
1.0
 70
    11
 71
     3
 72
    32
 73
    28
 74
     0
 42
0.0000000001
 43
0.0000000001
 40
0.0
 40
0.0
 40
0.0
 40
0.0
 40
0.125
 40
0.125
 40
0.125
 40
0.125
 40
0.25
 40
0.25
 40
0.25
 40
0.25
 40
0.375
 40
0.375
 40
0.375
 40
0.375
 40
0.5
 40
0.5
 40
0.5
 40
0.5
 40
0.625
 40
0.625
 40
0.625
 40
0.625
 40
0.75
 40
0.75
 40
0.75
 40
0.75
 40
1.0
 40
1.0
 40
1.0
 40
1.0
 10
-17.4252
 20
24.1686
 30
0.0
 10
-17.4252
 20
24.1686
 30
0.0
 10
-17.4252
 20
24.1686
 30
0.0
 10
-17.4252
 20
24.1686
 30
0.0
 10
-17.4252
 20
24.1686
 30
0.0
 10
-17.4252
 20
24.1686
 30
0.0
 10
-17.4252
 20
24.1686
 30
0.0
 10
-17.4252
 20
24.1686
 30
0.0
 10
-17.4252
 20
24.1686
 30
0.0
 10
-17.4252
 20
24.1686
 30
0.0
 10
-18.698
 20
23.7252
 30
0.0
 10
-18.698
 20
23.7252
 30
0.0
 10
-18.698
 20
23.7252
 30
0.0
 10
-18.698
 20
23.7252
 30
0.0
 10
-17.4252
 20
23.2818
 30
0.0
 10
-17.4252
 20
23.2818
 30
0.0
 10
-17.4252
 20
23.2818
 30
0.0
 10
-17.4252
 20
23.2818
 30
0.0
 10
-17.4252
 20
23.2818
 30
0.0
 10
-17.4252
 20
23.2818
 30
0.0
 10
-17.4252
 20
23.2818
 30
0.0
 10
-17.4252
 20
23.2818
 30
0.0
 10
-17.4252
 20
23.2818
 30
0.0
 10
-17.4252
 20
23.2818
 30
0.0
 10
-17.4252
 20
23.2818
 30
0.0
 10
-17.4252
 20
23.2818
 30
0.0
 10
-17.4252
 20
24.1686
 30
0.0
 10
-17.4252
 20
24.1686
 30
0.0
  0
SPLINE
  5
C5
330
1F
100
AcDbEntity
  8
Vrstva 1
 62
   250
370
     9
100
AcDbSpline
210
0.0
220
0.0
230
1.0
 70
    11
 71
     3
 72
    32
 73
    28
 74
     0
 42
0.0000000001
 43
0.0000000001
 40
0.0
 40
0.0
 40
0.0
 40
0.0
 40
0.125
 40
0.125
 40
0.125
 40
0.125
 40
0.25
 40
0.25
 40
0.25
 40
0.25
 40
0.375
 40
0.375
 40
0.375
 40
0.375
 40
0.5
 40
0.5
 40
0.5
 40
0.5
 40
0.625
 40
0.625
 40
0.625
 40
0.625
 40
0.75
 40
0.75
 40
0.75
 40
0.75
 40
1.0
 40
1.0
 40
1.0
 40
1.0
 10
7.7714
 20
9.5123
 30
0.0
 10
7.7714
 20
9.5123
 30
0.0
 10
7.7714
 20
9.5123
 30
0.0
 10
7.7714
 20
9.5123
 30
0.0
 10
7.7714
 20
9.5123
 30
0.0
 10
7.7714
 20
9.5123
 30
0.0
 10
7.7714
 20
9.5123
 30
0.0
 10
7.7714
 20
9.5123
 30
0.0
 10
7.7714
 20
9.5123
 30
0.0
 10
7.7714
 20
9.5123
 30
0.0
 10
6.4986
 20
9.0689
 30
0.0
 10
6.4986
 20
9.0689
 30
0.0
 10
6.4986
 20
9.0689
 30
0.0
 10
6.4986
 20
9.0689
 30
0.0
 10
7.7714
 20
8.6255
 30
0.0
 10
7.7714
 20
8.6255
 30
0.0
 10
7.7714
 20
8.6255
 30
0.0
 10
7.7714
 20
8.6255
 30
0.0
 10
7.7714
 20
8.6255
 30
0.0
 10
7.7714
 20
8.6255
 30
0.0
 10
7.7714
 20
8.6255
 30
0.0
 10
7.7714
 20
8.6255
 30
0.0
 10
7.7714
 20
8.6255
 30
0.0
 10
7.7714
 20
8.6255
 30
0.0
 10
7.7714
 20
8.6255
 30
0.0
 10
7.7714
 20
8.6255
 30
0.0
 10
7.7714
 20
9.5123
 30
0.0
 10
7.7714
 20
9.5123
 30
0.0
  0
SPLINE
  5
C6
330
1F
100
AcDbEntity
  8
Vrstva 1
 62
   250
370
     9
100
AcDbSpline
210
0.0
220
0.0
230
1.0
 70
    11
 71
     3
 72
    32
 73
    28
 74
     0
 42
0.0000000001
 43
0.0000000001
 40
0.0
 40
0.0
 40
0.0
 40
0.0
 40
0.125
 40
0.125
 40
0.125
 40
0.125
 40
0.25
 40
0.25
 40
0.25
 40
0.25
 40
0.375
 40
0.375
 40
0.375
 40
0.375
 40
0.5
 40
0.5
 40
0.5
 40
0.5
 40
0.625
 40
0.625
 40
0.625
 40
0.625
 40
0.75
 40
0.75
 40
0.75
 40
0.75
 40
1.0
 40
1.0
 40
1.0
 40
1.0
 10
-33.0106
 20
5.7444
 30
0.0
 10
-33.0106
 20
5.7444
 30
0.0
 10
-33.0106
 20
5.7444
 30
0.0
 10
-33.0106
 20
5.7444
 30
0.0
 10
-33.0106
 20
5.7444
 30
0.0
 10
-33.0106
 20
5.7444
 30
0.0
 10
-33.0106
 20
5.7444
 30
0.0
 10
-33.0106
 20
5.7444
 30
0.0
 10
-33.0106
 20
5.7444
 30
0.0
 10
-33.0106
 20
5.7444
 30
0.0
 10
-32.5672
 20
7.0172
 30
0.0
 10
-32.5672
 20
7.0172
 30
0.0
 10
-32.5672
 20
7.0172
 30
0.0
 10
-32.5672
 20
7.0172
 30
0.0
 10
-32.1238
 20
5.7444
 30
0.0
 10
-32.1238
 20
5.7444
 30
0.0
 10
-32.1238
 20
5.7444
 30
0.0
 10
-32.1238
 20
5.7444
 30
0.0
 10
-32.1238
 20
5.7444
 30
0.0
 10
-32.1238
 20
5.7444
 30
0.0
 10
-32.1238
 20
5.7444
 30
0.0
 10
-32.1238
 20
5.7444
 30
0.0
 10
-32.1238
 20
5.7444
 30
0.0
 10
-32.1238
 20
5.7444
 30
0.0
 10
-32.1238
 20
5.7444
 30
0.0
 10
-32.1238
 20
5.7444
 30
0.0
 10
-33.0106
 20
5.7444
 30
0.0
 10
-33.0106
 20
5.7444
 30
0.0
  0
SPLINE
  5
C7
330
1F
100
AcDbEntity
  8
Vrstva 1
 62
   250
370
     9
100
AcDbSpline
210
0.0
220
0.0
230
1.0
 70
    11
 71
     3
 72
    32
 73
    28
 74
     0
 42
0.0000000001
 43
0.0000000001
 40
0.0
 40
0.0
 40
0.0
 40
0.0
 40
0.125
 40
0.125
 40
0.125
 40
0.125
 40
0.25
 40
0.25
 40
0.25
 40
0.25
 40
0.375
 40
0.375
 40
0.375
 40
0.375
 40
0.5
 40
0.5
 40
0.5
 40
0.5
 40
0.625
 40
0.625
 40
0.625
 40
0.625
 40
0.75
 40
0.75
 40
0.75
 40
0.75
 40
1.0
 40
1.0
 40
1.0
 40
1.0
 10
-29.0249
 20
2.6007
 30
0.0
 10
-29.0249
 20
2.6007
 30
0.0
 10
-29.0249
 20
2.6007
 30
0.0
 10
-29.0249
 20
2.6007
 30
0.0
 10
-29.0249
 20
2.6007
 30
0.0
 10
-29.0249
 20
2.6007
 30
0.0
 10
-29.0249
 20
2.6007
 30
0.0
 10
-29.0249
 20
2.6007
 30
0.0
 10
-29.0249
 20
2.6007
 30
0.0
 10
-29.0249
 20
2.6007
 30
0.0
 10
-28.5815
 20
3.8735
 30
0.0
 10
-28.5815
 20
3.8735
 30
0.0
 10
-28.5815
 20
3.8735
 30
0.0
 10
-28.5815
 20
3.8735
 30
0.0
 10
-28.1381
 20
2.6007
 30
0.0
 10
-28.1381
 20
2.6007
 30
0.0
 10
-28.1381
 20
2.6007
 30
0.0
 10
-28.1381
 20
2.6007
 30
0.0
 10
-28.1381
 20
2.6007
 30
0.0
 10
-28.1381
 20
2.6007
 30
0.0
 10
-28.1381
 20
2.6007
 30
0.0
 10
-28.1381
 20
2.6007
 30
0.0
 10
-28.1381
 20
2.6007
 30
0.0
 10
-28.1381
 20
2.6007
 30
0.0
 10
-28.1381
 20
2.6007
 30
0.0
 10
-28.1381
 20
2.6007
 30
0.0
 10
-29.0249
 20
2.6007
 30
0.0
 10
-29.0249
 20
2.6007
 30
0.0
  0
SPLINE
  5
C8
330
1F
100
AcDbEntity
  8
Vrstva 1
 62
   250
370
     9
100
AcDbSpline
210
0.0
220
0.0
230
1.0
 70
    11
 71
     3
 72
    32
 73
    28
 74
     0
 42
0.0000000001
 43
0.0000000001
 40
0.0
 40
0.0
 40
0.0
 40
0.0
 40
0.125
 40
0.125
 40
0.125
 40
0.125
 40
0.25
 40
0.25
 40
0.25
 40
0.25
 40
0.375
 40
0.375
 40
0.375
 40
0.375
 40
0.5
 40
0.5
 40
0.5
 40
0.5
 40
0.625
 40
0.625
 40
0.625
 40
0.625
 40
0.75
 40
0.75
 40
0.75
 40
0.75
 40
1.0
 40
1.0
 40
1.0
 40
1.0
 10
10.1859
 20
24.2295
 30
0.0
 10
10.1859
 20
24.2295
 30
0.0
 10
10.1859
 20
24.2295
 30
0.0
 10
10.1859
 20
24.2295
 30
0.0
 10
10.1859
 20
24.2295
 30
0.0
 10
10.1859
 20
24.2295
 30
0.0
 10
10.1859
 20
24.2295
 30
0.0
 10
10.1859
 20
24.2295
 30
0.0
 10
10.1859
 20
24.2295
 30
0.0
 10
10.1859
 20
24.2295
 30
0.0
 10
11.4587
 20
23.7861
 30
0.0
 10
11.4587
 20
23.7861
 30
0.0
 10
11.4587
 20
23.7861
 30
0.0
 10
11.4587
 20
23.7861
 30
0.0
 10
10.1859
 20
23.3427
 30
0.0
 10
10.1859
 20
23.3427
 30
0.0
 10
10.1859
 20
23.3427
 30
0.0
 10
10.1859
 20
23.3427
 30
0.0
 10
10.1859
 20
23.3427
 30
0.0
 10
10.1859
 20
23.3427
 30
0.0
 10
10.1859
 20
23.3427
 30
0.0
 10
10.1859
 20
23.3427
 30
0.0
 10
10.1859
 20
23.3427
 30
0.0
 10
10.1859
 20
23.3427
 30
0.0
 10
10.1859
 20
23.3427
 30
0.0
 10
10.1859
 20
23.3427
 30
0.0
 10
10.1859
 20
24.2295
 30
0.0
 10
10.1859
 20
24.2295
 30
0.0
  0
SPLINE
  5
C9
330
1F
100
AcDbEntity
  8
Vrstva 1
 62
   250
370
     9
100
AcDbSpline
210
0.0
220
0.0
230
1.0
 70
    11
 71
     3
 72
    32
 73
    28
 74
     0
 42
0.0000000001
 43
0.0000000001
 40
0.0
 40
0.0
 40
0.0
 40
0.0
 40
0.125
 40
0.125
 40
0.125
 40
0.125
 40
0.25
 40
0.25
 40
0.25
 40
0.25
 40
0.375
 40
0.375
 40
0.375
 40
0.375
 40
0.5
 40
0.5
 40
0.5
 40
0.5
 40
0.625
 40
0.625
 40
0.625
 40
0.625
 40
0.75
 40
0.75
 40
0.75
 40
0.75
 40
1.0
 40
1.0
 40
1.0
 40
1.0
 10
-15.2191
 20
9.5511
 30
0.0
 10
-15.2191
 20
9.5511
 30
0.0
 10
-15.2191
 20
9.5511
 30
0.0
 10
-15.2191
 20
9.5511
 30
0.0
 10
-15.2191
 20
9.5511
 30
0.0
 10
-15.2191
 20
9.5511
 30
0.0
 10
-15.2191
 20
9.5511
 30
0.0
 10
-15.2191
 20
9.5511
 30
0.0
 10
-15.2191
 20
9.5511
 30
0.0
 10
-15.2191
 20
9.5511
 30
0.0
 10
-13.9463
 20
9.1077
 30
0.0
 10
-13.9463
 20
9.1077
 30
0.0
 10
-13.9463
 20
9.1077
 30
0.0
 10
-13.9463
 20
9.1077
 30
0.0
 10
-15.2191
 20
8.6643
 30
0.0
 10
-15.2191
 20
8.6643
 30
0.0
 10
-15.2191
 20
8.6643
 30
0.0
 10
-15.2191
 20
8.6643
 30
0.0
 10
-15.2191
 20
8.6643
 30
0.0
 10
-15.2191
 20
8.6643
 30
0.0
 10
-15.2191
 20
8.6643
 30
0.0
 10
-15.2191
 20
8.6643
 30
0.0
 10
-15.2191
 20
8.6643
 30
0.0
 10
-15.2191
 20
8.6643
 30
0.0
 10
-15.2191
 20
8.6643
 30
0.0
 10
-15.2191
 20
8.6643
 30
0.0
 10
-15.2191
 20
9.5511
 30
0.0
 10
-15.2191
 20
9.5511
 30
0.0
  0
SPLINE
  5
CA
330
1F
100
AcDbEntity
  8
Vrstva 1
 62
   250
370
    13
100
AcDbSpline
210
0.0
220
0.0
230
1.0
 70
    24
 71
     3
 72
     8
 73
     4
 74
     0
 42
0.0000000001
 43
0.0000000001
 40
0.0
 40
0.0
 40
0.0
 40
0.0
 40
1.0
 40
1.0
 40
1.0
 40
1.0
 10
4.6849
 20
4.1148
 30
0.0
 10
4.6849
 20
4.1148
 30
0.0
 10
4.6849
 20
-13.5994
 30
0.0
 10
4.6849
 20
-13.5994
 30
0.0
  0
SPLINE
  5
CB
330
1F
100
AcDbEntity
  8
Vrstva 1
 62
   250
370
     9
100
AcDbSpline
210
0.0
220
0.0
230
1.0
 70
    11
 71
     3
 72
    32
 73
    28
 74
     0
 42
0.0000000001
 43
0.0000000001
 40
0.0
 40
0.0
 40
0.0
 40
0.0
 40
0.125
 40
0.125
 40
0.125
 40
0.125
 40
0.25
 40
0.25
 40
0.25
 40
0.25
 40
0.375
 40
0.375
 40
0.375
 40
0.375
 40
0.5
 40
0.5
 40
0.5
 40
0.5
 40
0.625
 40
0.625
 40
0.625
 40
0.625
 40
0.75
 40
0.75
 40
0.75
 40
0.75
 40
1.0
 40
1.0
 40
1.0
 40
1.0
 10
4.2344
 20
-12.9829
 30
0.0
 10
4.2344
 20
-12.9829
 30
0.0
 10
4.2344
 20
-12.9829
 30
0.0
 10
4.2344
 20
-12.9829
 30
0.0
 10
4.2344
 20
-12.9829
 30
0.0
 10
4.2344
 20
-12.9829
 30
0.0
 10
4.2344
 20
-12.9829
 30
0.0
 10
4.2344
 20
-12.9829
 30
0.0
 10
4.2344
 20
-12.9829
 30
0.0
 10
4.2344
 20
-12.9829
 30
0.0
 10
4.6778
 20
-14.2557
 30
0.0
 10
4.6778
 20
-14.2557
 30
0.0
 10
4.6778
 20
-14.2557
 30
0.0
 10
4.6778
 20
-14.2557
 30
0.0
 10
5.1212
 20
-12.9829
 30
0.0
 10
5.1212
 20
-12.9829
 30
0.0
 10
5.1212
 20
-12.9829
 30
0.0
 10
5.1212
 20
-12.9829
 30
0.0
 10
5.1212
 20
-12.9829
 30
0.0
 10
5.1212
 20
-12.9829
 30
0.0
 10
5.1212
 20
-12.9829
 30
0.0
 10
5.1212
 20
-12.9829
 30
0.0
 10
5.1212
 20
-12.9829
 30
0.0
 10
5.1212
 20
-12.9829
 30
0.0
 10
5.1212
 20
-12.9829
 30
0.0
 10
5.1212
 20
-12.9829
 30
0.0
 10
4.2344
 20
-12.9829
 30
0.0
 10
4.2344
 20
-12.9829
 30
0.0
  0
SPLINE
  5
CC
330
1F
100
AcDbEntity
  8
Vrstva 1
 62
   250
370
     9
100
AcDbSpline
210
0.0
220
0.0
230
1.0
 70
    11
 71
     3
 72
    32
 73
    28
 74
     0
 42
0.0000000001
 43
0.0000000001
 40
0.0
 40
0.0
 40
0.0
 40
0.0
 40
0.125
 40
0.125
 40
0.125
 40
0.125
 40
0.25
 40
0.25
 40
0.25
 40
0.25
 40
0.375
 40
0.375
 40
0.375
 40
0.375
 40
0.5
 40
0.5
 40
0.5
 40
0.5
 40
0.625
 40
0.625
 40
0.625
 40
0.625
 40
0.75
 40
0.75
 40
0.75
 40
0.75
 40
1.0
 40
1.0
 40
1.0
 40
1.0
 10
34.1934
 20
-20.8814
 30
0.0
 10
34.1934
 20
-20.8814
 30
0.0
 10
34.1934
 20
-20.8814
 30
0.0
 10
34.1934
 20
-20.8814
 30
0.0
 10
34.1934
 20
-20.8814
 30
0.0
 10
34.1934
 20
-20.8814
 30
0.0
 10
34.1934
 20
-20.8814
 30
0.0
 10
34.1934
 20
-20.8814
 30
0.0
 10
34.1934
 20
-20.8814
 30
0.0
 10
34.1934
 20
-20.8814
 30
0.0
 10
34.6368
 20
-22.1542
 30
0.0
 10
34.6368
 20
-22.1542
 30
0.0
 10
34.6368
 20
-22.1542
 30
0.0
 10
34.6368
 20
-22.1542
 30
0.0
 10
35.0802
 20
-20.8814
 30
0.0
 10
35.0802
 20
-20.8814
 30
0.0
 10
35.0802
 20
-20.8814
 30
0.0
 10
35.0802
 20
-20.8814
 30
0.0
 10
35.0802
 20
-20.8814
 30
0.0
 10
35.0802
 20
-20.8814
 30
0.0
 10
35.0802
 20
-20.8814
 30
0.0
 10
35.0802
 20
-20.8814
 30
0.0
 10
35.0802
 20
-20.8814
 30
0.0
 10
35.0802
 20
-20.8814
 30
0.0
 10
35.0802
 20
-20.8814
 30
0.0
 10
35.0802
 20
-20.8814
 30
0.0
 10
34.1934
 20
-20.8814
 30
0.0
 10
34.1934
 20
-20.8814
 30
0.0
  0
SPLINE
  5
CD
330
1F
100
AcDbEntity
  8
Vrstva 1
 62
   250
370
     9
100
AcDbSpline
210
0.0
220
0.0
230
1.0
 70
    11
 71
     3
 72
    32
 73
    28
 74
     0
 42
0.0000000001
 43
0.0000000001
 40
0.0
 40
0.0
 40
0.0
 40
0.0
 40
0.125
 40
0.125
 40
0.125
 40
0.125
 40
0.25
 40
0.25
 40
0.25
 40
0.25
 40
0.375
 40
0.375
 40
0.375
 40
0.375
 40
0.5
 40
0.5
 40
0.5
 40
0.5
 40
0.625
 40
0.625
 40
0.625
 40
0.625
 40
0.75
 40
0.75
 40
0.75
 40
0.75
 40
1.0
 40
1.0
 40
1.0
 40
1.0
 10
4.2397
 20
2.8653
 30
0.0
 10
4.2397
 20
2.8653
 30
0.0
 10
4.2397
 20
2.8653
 30
0.0
 10
4.2397
 20
2.8653
 30
0.0
 10
4.2397
 20
2.8653
 30
0.0
 10
4.2397
 20
2.8653
 30
0.0
 10
4.2397
 20
2.8653
 30
0.0
 10
4.2397
 20
2.8653
 30
0.0
 10
4.2397
 20
2.8653
 30
0.0
 10
4.2397
 20
2.8653
 30
0.0
 10
4.6831
 20
4.1381
 30
0.0
 10
4.6831
 20
4.1381
 30
0.0
 10
4.6831
 20
4.1381
 30
0.0
 10
4.6831
 20
4.1381
 30
0.0
 10
5.1265
 20
2.8653
 30
0.0
 10
5.1265
 20
2.8653
 30
0.0
 10
5.1265
 20
2.8653
 30
0.0
 10
5.1265
 20
2.8653
 30
0.0
 10
5.1265
 20
2.8653
 30
0.0
 10
5.1265
 20
2.8653
 30
0.0
 10
5.1265
 20
2.8653
 30
0.0
 10
5.1265
 20
2.8653
 30
0.0
 10
5.1265
 20
2.8653
 30
0.0
 10
5.1265
 20
2.8653
 30
0.0
 10
5.1265
 20
2.8653
 30
0.0
 10
5.1265
 20
2.8653
 30
0.0
 10
4.2397
 20
2.8653
 30
0.0
 10
4.2397
 20
2.8653
 30
0.0
  0
SPLINE
  5
CE
330
1F
100
AcDbEntity
  8
Vrstva 1
 62
   250
370
     9
100
AcDbSpline
210
0.0
220
0.0
230
1.0
 70
    11
 71
     3
 72
    32
 73
    28
 74
     0
 42
0.0000000001
 43
0.0000000001
 40
0.0
 40
0.0
 40
0.0
 40
0.0
 40
0.125
 40
0.125
 40
0.125
 40
0.125
 40
0.25
 40
0.25
 40
0.25
 40
0.25
 40
0.375
 40
0.375
 40
0.375
 40
0.375
 40
0.5
 40
0.5
 40
0.5
 40
0.5
 40
0.625
 40
0.625
 40
0.625
 40
0.625
 40
0.75
 40
0.75
 40
0.75
 40
0.75
 40
1.0
 40
1.0
 40
1.0
 40
1.0
 10
34.1325
 20
-7.7672
 30
0.0
 10
34.1325
 20
-7.7672
 30
0.0
 10
34.1325
 20
-7.7672
 30
0.0
 10
34.1325
 20
-7.7672
 30
0.0
 10
34.1325
 20
-7.7672
 30
0.0
 10
34.1325
 20
-7.7672
 30
0.0
 10
34.1325
 20
-7.7672
 30
0.0
 10
34.1325
 20
-7.7672
 30
0.0
 10
34.1325
 20
-7.7672
 30
0.0
 10
34.1325
 20
-7.7672
 30
0.0
 10
34.5759
 20
-6.4944
 30
0.0
 10
34.5759
 20
-6.4944
 30
0.0
 10
34.5759
 20
-6.4944
 30
0.0
 10
34.5759
 20
-6.4944
 30
0.0
 10
35.0193
 20
-7.7672
 30
0.0
 10
35.0193
 20
-7.7672
 30
0.0
 10
35.0193
 20
-7.7672
 30
0.0
 10
35.0193
 20
-7.7672
 30
0.0
 10
35.0193
 20
-7.7672
 30
0.0
 10
35.0193
 20
-7.7672
 30
0.0
 10
35.0193
 20
-7.7672
 30
0.0
 10
35.0193
 20
-7.7672
 30
0.0
 10
35.0193
 20
-7.7672
 30
0.0
 10
35.0193
 20
-7.7672
 30
0.0
 10
35.0193
 20
-7.7672
 30
0.0
 10
35.0193
 20
-7.7672
 30
0.0
 10
34.1325
 20
-7.7672
 30
0.0
 10
34.1325
 20
-7.7672
 30
0.0
  0
ENDSEC
  0
SECTION
  2
OBJECTS
  0
DICTIONARY
  5
C
330
0
100
AcDbDictionary
281
     1
  3
ACAD_GROUP
350
D
  3
ACAD_LAYOUT
350
1A
  3
ACAD_MATERIAL
350
3B
  3
ACAD_MLEADERSTYLE
350
D1
  3
ACAD_MLINESTYLE
350
17
  3
ACAD_PLOTSETTINGS
350
19
  3
ACAD_PLOTSTYLENAME
350
E
  3
ACAD_VISUALSTYLE
350
2A
  3
AcDbVariableDictionary
350
CF
  0
DICTIONARY
  5
D
102
{ACAD_REACTORS
330
C
102
}
330
C
100
AcDbDictionary
281
     1
  0
DICTIONARY
  5
1A
102
{ACAD_REACTORS
330
C
102
}
330
C
100
AcDbDictionary
281
     1
  3
Layout1
350
1E
  3
Layout2
350
26
  3
Model
350
22
  0
DICTIONARY
  5
3B
102
{ACAD_REACTORS
330
C
102
}
330
C
100
AcDbDictionary
281
     1
  3
ByBlock
350
3D
  3
ByLayer
350
3C
  3
Global
350
3E
  0
DICTIONARY
  5
D1
102
{ACAD_REACTORS
330
C
102
}
330
C
100
AcDbDictionary
281
     1
  0
DICTIONARY
  5
17
102
{ACAD_REACTORS
330
C
102
}
330
C
100
AcDbDictionary
281
     1
  3
Standard
350
18
  0
DICTIONARY
  5
19
102
{ACAD_REACTORS
330
C
102
}
330
C
100
AcDbDictionary
281
     1
  0
ACDBDICTIONARYWDFLT
  5
E
102
{ACAD_REACTORS
330
C
102
}
330
C
100
AcDbDictionary
281
     1
  3
Normal
350
F
100
AcDbDictionaryWithDefault
340
F
  0
DICTIONARY
  5
2A
102
{ACAD_REACTORS
330
C
102
}
330
C
100
AcDbDictionary
281
     1
  3
2dWireframe
350
2F
  3
3D Hidden
350
31
  3
3dWireframe
350
30
  3
Basic
350
32
  3
Brighten
350
36
  3
ColorChange
350
3A
  3
Conceptual
350
34
  3
Dim
350
35
  3
Facepattern
350
39
  3
Flat
350
2B
  3
FlatWithEdges
350
2C
  3
Gouraud
350
2D
  3
GouraudWithEdges
350
2E
  3
Linepattern
350
38
  3
Realistic
350
33
  3
Thicken
350
37
  0
DICTIONARY
  5
CF
102
{ACAD_REACTORS
330
C
102
}
330
C
100
AcDbDictionary
281
     1
  3
DIMASSOC
350
D2
  3
HIDETEXT
350
D3
  0
LAYOUT
  5
1E
102
{ACAD_REACTORS
330
1A
102
}
330
1A
100
AcDbPlotSettings
  1

  2
none_device
  4

  6

 40
0.0
 41
0.0
 42
0.0
 43
0.0
 44
0.0
 45
0.0
 46
0.0
 47
0.0
 48
0.0
 49
0.0
140
0.0
141
0.0
142
1.0
143
1.0
 70
   688
 72
     0
 73
     0
 74
     5
  7

 75
    16
147
1.0
148
0.0
149
0.0
100
AcDbLayout
  1
Layout1
 70
     1
 71
     1
 10
0.0
 20
0.0
 11
12.0
 21
9.0
 12
0.0
 22
0.0
 32
0.0
 14
1.000000000000000E+20
 24
1.000000000000000E+20
 34
1.000000000000000E+20
 15
-1.000000000000000E+20
 25
-1.000000000000000E+20
 35
-1.000000000000000E+20
146
0.0
 13
0.0
 23
0.0
 33
0.0
 16
1.0
 26
0.0
 36
0.0
 17
0.0
 27
1.0
 37
0.0
 76
     0
330
1B
  0
LAYOUT
  5
26
102
{ACAD_REACTORS
330
1A
102
}
330
1A
100
AcDbPlotSettings
  1

  2
none_device
  4

  6

 40
0.0
 41
0.0
 42
0.0
 43
0.0
 44
0.0
 45
0.0
 46
0.0
 47
0.0
 48
0.0
 49
0.0
140
0.0
141
0.0
142
1.0
143
1.0
 70
   688
 72
     0
 73
     0
 74
     5
  7

 75
    16
147
1.0
148
0.0
149
0.0
100
AcDbLayout
  1
Layout2
 70
     1
 71
     2
 10
0.0
 20
0.0
 11
0.0
 21
0.0
 12
0.0
 22
0.0
 32
0.0
 14
0.0
 24
0.0
 34
0.0
 15
0.0
 25
0.0
 35
0.0
146
0.0
 13
0.0
 23
0.0
 33
0.0
 16
1.0
 26
0.0
 36
0.0
 17
0.0
 27
1.0
 37
0.0
 76
     0
330
23
  0
LAYOUT
  5
22
102
{ACAD_REACTORS
330
1A
102
}
330
1A
100
AcDbPlotSettings
  1

  2
none_device
  4

  6

 40
0.0
 41
0.0
 42
0.0
 43
0.0
 44
0.0
 45
0.0
 46
0.0
 47
0.0
 48
0.0
 49
0.0
140
0.0
141
0.0
142
1.0
143
1.0
 70
  1712
 72
     0
 73
     0
 74
     0
  7

 75
     0
147
1.0
148
0.0
149
0.0
100
AcDbLayout
  1
Model
 70
     1
 71
     0
 10
0.0
 20
0.0
 11
12.0
 21
9.0
 12
0.0
 22
0.0
 32
0.0
 14
-35.5244
 24
-27.2809
 34
0.0
 15
35.5243
 25
27.1717
 35
0.0
146
0.0
 13
0.0
 23
0.0
 33
0.0
 16
1.0
 26
0.0
 36
0.0
 17
0.0
 27
1.0
 37
0.0
 76
     0
330
1F
331
29
  0
MATERIAL
  5
3D
102
{ACAD_REACTORS
330
3B
102
}
102
{ACAD_XDICTIONARY
360
F6
102
}
330
3B
100
AcDbMaterial
  1
ByBlock
  0
MATERIAL
  5
3C
102
{ACAD_REACTORS
330
3B
102
}
102
{ACAD_XDICTIONARY
360
F4
102
}
330
3B
100
AcDbMaterial
  1
ByLayer
  0
MATERIAL
  5
3E
102
{ACAD_REACTORS
330
3B
102
}
102
{ACAD_XDICTIONARY
360
F8
102
}
330
3B
100
AcDbMaterial
  1
Global
  0
MLINESTYLE
  5
18
102
{ACAD_REACTORS
330
17
102
}
330
17
100
AcDbMlineStyle
  2
Standard
 70
     0
  3

 62
   256
 51
90.0
 52
90.0
 71
     2
 49
0.5
 62
   256
  6
BYLAYER
 49
-0.5
 62
   256
  6
BYLAYER
  0
ACDBPLACEHOLDER
  5
F
102
{ACAD_REACTORS
330
E
102
}
330
E
  0
VISUALSTYLE
  5
2F
102
{ACAD_REACTORS
330
2A
102
}
102
{ACAD_XDICTIONARY
360
DC
102
}
330
2A
100
AcDbVisualStyle
  2
2dWireframe
 70
     4
 71
     0
 72
     2
 73
     0
 90
        0
 40
-0.6
 41
-30.0
 62
     5
 63
     7
 74
     1
 91
        4
 64
     7
 65
   257
 75
     1
175
     1
 42
1.0
 92
        0
 66
   257
 43
1.0
 76
     1
 77
     6
 78
     2
 67
     7
 79
     5
170
     0
171
     0
290
     0
174
     0
 93
        1
 44
0.0
173
     0
291
     0
 45
0.0
1001
ACAD
1000
AcDbSavedByObjectVersion
1070
     0
  0
VISUALSTYLE
  5
31
102
{ACAD_REACTORS
330
2A
102
}
102
{ACAD_XDICTIONARY
360
E0
102
}
330
2A
100
AcDbVisualStyle
  2
3D Hidden
 70
     6
 71
     1
 72
     2
 73
     2
 90
        0
 40
-0.6
 41
-30.0
 62
     5
 63
     7
 74
     2
 91
        2
 64
     7
 65
   257
 75
     2
175
     1
 42
40.0
 92
        0
 66
   257
 43
1.0
 76
     1
 77
     6
 78
     2
 67
     7
 79
     3
170
     0
171
     0
290
     0
174
     0
 93
        1
 44
0.0
173
     0
291
     0
 45
0.0
1001
ACAD
1000
AcDbSavedByObjectVersion
1070
     0
  0
VISUALSTYLE
  5
30
102
{ACAD_REACTORS
330
2A
102
}
102
{ACAD_XDICTIONARY
360
DE
102
}
330
2A
100
AcDbVisualStyle
  2
3dWireframe
 70
     5
 71
     0
 72
     2
 73
     0
 90
        0
 40
-0.6
 41
-30.0
 62
     5
 63
     7
 74
     1
 91
        4
 64
     7
 65
   257
 75
     1
175
     1
 42
1.0
 92
        0
 66
   257
 43
1.0
 76
     1
 77
     6
 78
     2
 67
     7
 79
     5
170
     0
171
     0
290
     0
174
     0
 93
        1
 44
0.0
173
     0
291
     0
 45
0.0
1001
ACAD
1000
AcDbSavedByObjectVersion
1070
     0
  0
VISUALSTYLE
  5
32
102
{ACAD_REACTORS
330
2A
102
}
102
{ACAD_XDICTIONARY
360
E2
102
}
330
2A
100
AcDbVisualStyle
  2
Basic
 70
     7
 71
     1
 72
     0
 73
     1
 90
        0
 40
-0.6
 41
-30.0
 62
     5
 63
     7
 74
     0
 91
        4
 64
     7
 65
   257
 75
     1
175
     1
 42
1.0
 92
        8
 66
     7
 43
1.0
 76
     1
 77
     6
 78
     2
 67
     7
 79
     5
170
     0
171
     0
290
     0
174
     0
 93
        1
 44
0.0
173
     0
291
     1
 45
0.0
1001
ACAD
1000
AcDbSavedByObjectVersion
1070
     0
  0
VISUALSTYLE
  5
36
102
{ACAD_REACTORS
330
2A
102
}
102
{ACAD_XDICTIONARY
360
EA
102
}
330
2A
100
AcDbVisualStyle
  2
Brighten
 70
    12
 71
     2
 72
     2
 73
     0
 90
        0
 40
-0.6
 41
-30.0
 62
     5
 63
     7
 74
     1
 91
        4
 64
     7
 65
   257
 75
     1
175
     1
 42
1.0
 92
        8
 66
     7
 43
1.0
 76
     1
 77
     6
 78
     2
 67
     7
 79
     5
170
     0
171
     0
290
     0
174
     0
 93
        1
 44
50.0
173
     0
291
     1
 45
0.0
1001
ACAD
1000
AcDbSavedByObjectVersion
1070
     0
  0
VISUALSTYLE
  5
3A
102
{ACAD_REACTORS
330
2A
102
}
102
{ACAD_XDICTIONARY
360
F2
102
}
330
2A
100
AcDbVisualStyle
  2
ColorChange
 70
    16
 71
     2
 72
     2
 73
     3
 90
        0
 40
-0.6
 41
-30.0
 62
     5
 63
     8
 74
     1
 91
        4
 64
     7
 65
   257
 75
     1
175
     1
 42
1.0
 92
        8
 66
     8
 43
1.0
 76
     1
 77
     6
 78
     2
 67
     7
 79
     5
170
     0
171
     0
290
     0
174
     0
 93
        1
 44
0.0
173
     0
291
     1
 45
0.0
1001
ACAD
1000
AcDbSavedByObjectVersion
1070
     0
  0
VISUALSTYLE
  5
34
102
{ACAD_REACTORS
330
2A
102
}
102
{ACAD_XDICTIONARY
360
E6
102
}
330
2A
100
AcDbVisualStyle
  2
Conceptual
 70
     9
 71
     3
 72
     2
 73
     0
 90
        0
 40
-0.6
 41
-30.0
 62
     5
 63
     7
 74
     2
 91
        2
 64
     7
 65
   257
 75
     1
175
     1
 42
40.0
 92
        8
 66
     7
 43
1.0
 76
     1
 77
     6
 78
     2
 67
     7
 79
     3
170
     0
171
     0
290
     0
174
     0
 93
        1
 44
0.0
173
     0
291
     0
 45
0.0
1001
ACAD
1000
AcDbSavedByObjectVersion
1070
     0
  0
VISUALSTYLE
  5
35
102
{ACAD_REACTORS
330
2A
102
}
102
{ACAD_XDICTIONARY
360
E8
102
}
330
2A
100
AcDbVisualStyle
  2
Dim
 70
    11
 71
     2
 72
     2
 73
     0
 90
        0
 40
-0.6
 41
-30.0
 62
     5
 63
     7
 74
     1
 91
        4
 64
     7
 65
   257
 75
     1
175
     1
 42
1.0
 92
        8
 66
     7
 43
1.0
 76
     1
 77
     6
 78
     2
 67
     7
 79
     5
170
     0
171
     0
290
     0
174
     0
 93
        1
 44
-50.0
173
     0
291
     1
 45
0.0
1001
ACAD
1000
AcDbSavedByObjectVersion
1070
     0
  0
VISUALSTYLE
  5
39
102
{ACAD_REACTORS
330
2A
102
}
102
{ACAD_XDICTIONARY
360
F0
102
}
330
2A
100
AcDbVisualStyle
  2
Facepattern
 70
    15
 71
     2
 72
     2
 73
     0
 90
        0
 40
-0.6
 41
-30.0
 62
     5
 63
     7
 74
     1
 91
        4
 64
     7
 65
   257
 75
     1
175
     1
 42
1.0
 92
        8
 66
     7
 43
1.0
 76
     1
 77
     6
 78
     2
 67
     7
 79
     5
170
     0
171
     0
290
     0
174
     0
 93
        1
 44
0.0
173
     0
291
     1
 45
0.0
1001
ACAD
1000
AcDbSavedByObjectVersion
1070
     0
  0
VISUALSTYLE
  5
2B
102
{ACAD_REACTORS
330
2A
102
}
102
{ACAD_XDICTIONARY
360
D4
102
}
330
2A
100
AcDbVisualStyle
  2
Flat
 70
     0
 71
     2
 72
     1
 73
     1
 90
        2
 40
-0.6
 41
30.0
 62
     5
 63
     7
 74
     0
 91
        4
 64
     7
 65
   257
 75
     1
175
     1
 42
1.0
 92
        8
 66
     7
 43
1.0
 76
     1
 77
     6
 78
     2
 67
     7
 79
     5
170
     0
171
     0
290
     0
174
     0
 93
       13
 44
0.0
173
     0
291
     1
 45
0.0
1001
ACAD
1000
AcDbSavedByObjectVersion
1070
     0
  0
VISUALSTYLE
  5
2C
102
{ACAD_REACTORS
330
2A
102
}
102
{ACAD_XDICTIONARY
360
D6
102
}
330
2A
100
AcDbVisualStyle
  2
FlatWithEdges
 70
     1
 71
     2
 72
     1
 73
     1
 90
        2
 40
-0.6
 41
30.0
 62
     5
 63
     7
 74
     1
 91
        4
 64
     7
 65
   257
 75
     1
175
     1
 42
1.0
 92
        0
 66
   257
 43
1.0
 76
     1
 77
     6
 78
     2
 67
     7
 79
     5
170
     0
171
     0
290
     0
174
     0
 93
       13
 44
0.0
173
     0
291
     1
 45
0.0
1001
ACAD
1000
AcDbSavedByObjectVersion
1070
     0
  0
VISUALSTYLE
  5
2D
102
{ACAD_REACTORS
330
2A
102
}
102
{ACAD_XDICTIONARY
360
D8
102
}
330
2A
100
AcDbVisualStyle
  2
Gouraud
 70
     2
 71
     2
 72
     2
 73
     1
 90
        2
 40
-0.6
 41
30.0
 62
     5
 63
     7
 74
     0
 91
        4
 64
     7
 65
   257
 75
     1
175
     1
 42
1.0
 92
        0
 66
     7
 43
1.0
 76
     1
 77
     6
 78
     2
 67
     7
 79
     5
170
     0
171
     0
290
     0
174
     0
 93
       13
 44
0.0
173
     0
291
     1
 45
0.0
1001
ACAD
1000
AcDbSavedByObjectVersion
1070
     0
  0
VISUALSTYLE
  5
2E
102
{ACAD_REACTORS
330
2A
102
}
102
{ACAD_XDICTIONARY
360
DA
102
}
330
2A
100
AcDbVisualStyle
  2
GouraudWithEdges
 70
     3
 71
     2
 72
     2
 73
     1
 90
        2
 40
-0.6
 41
30.0
 62
     5
 63
     7
 74
     1
 91
        4
 64
     7
 65
   257
 75
     1
175
     1
 42
1.0
 92
        0
 66
   257
 43
1.0
 76
     1
 77
     6
 78
     2
 67
     7
 79
     5
170
     0
171
     0
290
     0
174
     0
 93
       13
 44
0.0
173
     0
291
     1
 45
0.0
1001
ACAD
1000
AcDbSavedByObjectVersion
1070
     0
  0
VISUALSTYLE
  5
38
102
{ACAD_REACTORS
330
2A
102
}
102
{ACAD_XDICTIONARY
360
EE
102
}
330
2A
100
AcDbVisualStyle
  2
Linepattern
 70
    14
 71
     2
 72
     2
 73
     0
 90
        0
 40
-0.6
 41
-30.0
 62
     5
 63
     7
 74
     1
 91
        4
 64
     7
 65
   257
 75
     7
175
     7
 42
1.0
 92
        8
 66
     7
 43
1.0
 76
     1
 77
     6
 78
     2
 67
     7
 79
     5
170
     0
171
     0
290
     0
174
     0
 93
        1
 44
0.0
173
     0
291
     1
 45
0.0
1001
ACAD
1000
AcDbSavedByObjectVersion
1070
     0
  0
VISUALSTYLE
  5
33
102
{ACAD_REACTORS
330
2A
102
}
102
{ACAD_XDICTIONARY
360
E4
102
}
330
2A
100
AcDbVisualStyle
  2
Realistic
 70
     8
 71
     2
 72
     2
 73
     0
 90
        0
 40
-0.6
 41
-30.0
 62
     5
 63
     7
 74
     1
 91
        0
 64
     7
 65
   257
 75
     1
175
     1
 42
1.0
 92
        8
 66
     8
 43
1.0
 76
     1
 77
     6
 78
     2
 67
     7
 79
     5
170
     0
171
     0
290
     0
174
     0
 93
       13
 44
0.0
173
     0
291
     0
 45
0.0
1001
ACAD
1000
AcDbSavedByObjectVersion
1070
     0
  0
VISUALSTYLE
  5
37
102
{ACAD_REACTORS
330
2A
102
}
102
{ACAD_XDICTIONARY
360
EC
102
}
330
2A
100
AcDbVisualStyle
  2
Thicken
 70
    13
 71
     2
 72
     2
 73
     0
 90
        0
 40
-0.6
 41
-30.0
 62
     5
 63
     7
 74
     1
 91
        4
 64
     7
 65
   257
 75
     1
175
     1
 42
1.0
 92
       12
 66
     7
 43
1.0
 76
     1
 77
     6
 78
     2
 67
     7
 79
     5
170
     0
171
     0
290
     0
174
     0
 93
        1
 44
0.0
173
     0
291
     1
 45
0.0
1001
ACAD
1000
AcDbSavedByObjectVersion
1070
     0
  0
DICTIONARYVAR
  5
D2
102
{ACAD_REACTORS
330
CF
102
}
330
CF
100
DictionaryVariables
280
     0
  1
2
  0
DICTIONARYVAR
  5
D3
102
{ACAD_REACTORS
330
CF
102
}
330
CF
100
DictionaryVariables
280
     0
  1
1
  0
DICTIONARY
  5
F6
330
3D
100
AcDbDictionary
280
     1
281
     1
  3
ACAD_XREC_ROUNDTRIP
360
F7
  0
DICTIONARY
  5
F4
330
3C
100
AcDbDictionary
280
     1
281
     1
  3
ACAD_XREC_ROUNDTRIP
360
F5
  0
DICTIONARY
  5
F8
330
3E
100
AcDbDictionary
280
     1
281
     1
  3
ACAD_XREC_ROUNDTRIP
360
F9
  0
DICTIONARY
  5
DC
330
2F
100
AcDbDictionary
280
     1
281
     1
  3
ACAD_XREC_ROUNDTRIP
360
DD
  0
DICTIONARY
  5
E0
330
31
100
AcDbDictionary
280
     1
281
     1
  3
ACAD_XREC_ROUNDTRIP
360
E1
  0
DICTIONARY
  5
DE
330
30
100
AcDbDictionary
280
     1
281
     1
  3
ACAD_XREC_ROUNDTRIP
360
DF
  0
DICTIONARY
  5
E2
330
32
100
AcDbDictionary
280
     1
281
     1
  3
ACAD_XREC_ROUNDTRIP
360
E3
  0
DICTIONARY
  5
EA
330
36
100
AcDbDictionary
280
     1
281
     1
  3
ACAD_XREC_ROUNDTRIP
360
EB
  0
DICTIONARY
  5
F2
330
3A
100
AcDbDictionary
280
     1
281
     1
  3
ACAD_XREC_ROUNDTRIP
360
F3
  0
DICTIONARY
  5
E6
330
34
100
AcDbDictionary
280
     1
281
     1
  3
ACAD_XREC_ROUNDTRIP
360
E7
  0
DICTIONARY
  5
E8
330
35
100
AcDbDictionary
280
     1
281
     1
  3
ACAD_XREC_ROUNDTRIP
360
E9
  0
DICTIONARY
  5
F0
330
39
100
AcDbDictionary
280
     1
281
     1
  3
ACAD_XREC_ROUNDTRIP
360
F1
  0
DICTIONARY
  5
D4
330
2B
100
AcDbDictionary
280
     1
281
     1
  3
ACAD_XREC_ROUNDTRIP
360
D5
  0
DICTIONARY
  5
D6
330
2C
100
AcDbDictionary
280
     1
281
     1
  3
ACAD_XREC_ROUNDTRIP
360
D7
  0
DICTIONARY
  5
D8
330
2D
100
AcDbDictionary
280
     1
281
     1
  3
ACAD_XREC_ROUNDTRIP
360
D9
  0
DICTIONARY
  5
DA
330
2E
100
AcDbDictionary
280
     1
281
     1
  3
ACAD_XREC_ROUNDTRIP
360
DB
  0
DICTIONARY
  5
EE
330
38
100
AcDbDictionary
280
     1
281
     1
  3
ACAD_XREC_ROUNDTRIP
360
EF
  0
DICTIONARY
  5
E4
330
33
100
AcDbDictionary
280
     1
281
     1
  3
ACAD_XREC_ROUNDTRIP
360
E5
  0
DICTIONARY
  5
EC
330
37
100
AcDbDictionary
280
     1
281
     1
  3
ACAD_XREC_ROUNDTRIP
360
ED
  0
XRECORD
  5
F7
102
{ACAD_REACTORS
330
F6
102
}
330
F6
100
AcDbXrecord
280
     1
102
MATERIAL
148
0.0
149
0.0
149
0.0
 93
        0
 94
      127
282
     0
 72
     1
 77
     1
171
     1
175
     1
179
     1
273
     0
  0
XRECORD
  5
F5
102
{ACAD_REACTORS
330
F4
102
}
330
F4
100
AcDbXrecord
280
     1
102
MATERIAL
148
0.0
149
0.0
149
0.0
 93
        0
 94
      127
282
     0
 72
     1
 77
     1
171
     1
175
     1
179
     1
273
     0
  0
XRECORD
  5
F9
102
{ACAD_REACTORS
330
F8
102
}
330
F8
100
AcDbXrecord
280
     1
102
MATERIAL
148
0.0
149
0.0
149
0.0
 93
        0
 94
      127
282
     0
 72
     1
 77
     1
171
     1
175
     1
179
     1
273
     0
  0
XRECORD
  5
DD
102
{ACAD_REACTORS
330
DC
102
}
330
DC
100
AcDbXrecord
280
     1
102
RTVSPropertyOp0
 70
     1
102
RTVSPropertyOp1
 70
     1
102
RTVSPropertyOp2
 70
     1
102
RTVSPropertyOp3
 70
     1
102
RTVSPropertyOp4
 70
     1
102
RTVSPropertyOp5
 70
     1
102
RTVSPropertyOp6
 70
     1
102
RTVSPropertyOp7
 70
     1
102
RTVSPropertyOp8
 70
     1
102
RTVSPropertyOp9
 70
     1
102
RTVSPropertyOp10
 70
     1
102
RTVSPropertyOp11
 70
     1
102
RTVSPropertyOp12
 70
     1
102
RTVSPropertyOp13
 70
     1
102
RTVSPropertyOp14
 70
     1
102
RTVSPropertyOp15
 70
     1
102
RTVSPropertyOp16
 70
     1
102
RTVSPropertyOp17
 70
     1
102
RTVSPropertyOp18
 70
     1
102
RTVSPropertyOp19
 70
     1
102
RTVSPropertyOp20
 70
     1
102
RTVSPropertyOp21
 70
     1
102
RTVSPropertyOp22
 70
     1
102
RTVSPropertyOp23
 70
     1
102
RTVSPropertyOp24
 70
     1
102
RTVSPropertyOp25
 70
     1
102
RTVSPropertyOp26
 70
     1
102
RTVSPropertyOp27
 70
     1
  0
XRECORD
  5
E1
102
{ACAD_REACTORS
330
E0
102
}
330
E0
100
AcDbXrecord
280
     1
102
RTVSPropertyOp0
 70
     1
102
RTVSPropertyOp1
 70
     1
102
RTVSPropertyOp2
 70
     1
102
RTVSPropertyOp3
 70
     1
102
RTVSPropertyOp4
 70
     1
102
RTVSPropertyOp5
 70
     1
102
RTVSPropertyOp6
 70
     1
102
RTVSPropertyOp7
 70
     1
102
RTVSPropertyOp8
 70
     1
102
RTVSPropertyOp9
 70
     1
102
RTVSPropertyOp10
 70
     1
102
RTVSPropertyOp11
 70
     1
102
RTVSPropertyOp12
 70
     1
102
RTVSPropertyOp13
 70
     1
102
RTVSPropertyOp14
 70
     1
102
RTVSPropertyOp15
 70
     1
102
RTVSPropertyOp16
 70
     1
102
RTVSPropertyOp17
 70
     1
102
RTVSPropertyOp18
 70
     1
102
RTVSPropertyOp19
 70
     1
102
RTVSPropertyOp20
 70
     1
102
RTVSPropertyOp21
 70
     1
102
RTVSPropertyOp22
 70
     1
102
RTVSPropertyOp23
 70
     1
102
RTVSPropertyOp24
 70
     1
102
RTVSPropertyOp25
 70
     1
102
RTVSPropertyOp26
 70
     1
102
RTVSPropertyOp27
 70
     1
  0
XRECORD
  5
DF
102
{ACAD_REACTORS
330
DE
102
}
330
DE
100
AcDbXrecord
280
     1
102
RTVSPropertyOp0
 70
     1
102
RTVSPropertyOp1
 70
     1
102
RTVSPropertyOp2
 70
     1
102
RTVSPropertyOp3
 70
     1
102
RTVSPropertyOp4
 70
     1
102
RTVSPropertyOp5
 70
     1
102
RTVSPropertyOp6
 70
     1
102
RTVSPropertyOp7
 70
     1
102
RTVSPropertyOp8
 70
     1
102
RTVSPropertyOp9
 70
     1
102
RTVSPropertyOp10
 70
     1
102
RTVSPropertyOp11
 70
     1
102
RTVSPropertyOp12
 70
     1
102
RTVSPropertyOp13
 70
     1
102
RTVSPropertyOp14
 70
     1
102
RTVSPropertyOp15
 70
     1
102
RTVSPropertyOp16
 70
     1
102
RTVSPropertyOp17
 70
     1
102
RTVSPropertyOp18
 70
     1
102
RTVSPropertyOp19
 70
     1
102
RTVSPropertyOp20
 70
     1
102
RTVSPropertyOp21
 70
     1
102
RTVSPropertyOp22
 70
     1
102
RTVSPropertyOp23
 70
     1
102
RTVSPropertyOp24
 70
     1
102
RTVSPropertyOp25
 70
     1
102
RTVSPropertyOp26
 70
     1
102
RTVSPropertyOp27
 70
     1
  0
XRECORD
  5
E3
102
{ACAD_REACTORS
330
E2
102
}
330
E2
100
AcDbXrecord
280
     1
102
RTVSPropertyOp0
 70
     1
102
RTVSPropertyOp1
 70
     1
102
RTVSPropertyOp2
 70
     1
102
RTVSPropertyOp3
 70
     1
102
RTVSPropertyOp4
 70
     1
102
RTVSPropertyOp5
 70
     1
102
RTVSPropertyOp6
 70
     1
102
RTVSPropertyOp7
 70
     1
102
RTVSPropertyOp8
 70
     1
102
RTVSPropertyOp9
 70
     1
102
RTVSPropertyOp10
 70
     1
102
RTVSPropertyOp11
 70
     1
102
RTVSPropertyOp12
 70
     1
102
RTVSPropertyOp13
 70
     1
102
RTVSPropertyOp14
 70
     1
102
RTVSPropertyOp15
 70
     1
102
RTVSPropertyOp16
 70
     1
102
RTVSPropertyOp17
 70
     1
102
RTVSPropertyOp18
 70
     1
102
RTVSPropertyOp19
 70
     1
102
RTVSPropertyOp20
 70
     1
102
RTVSPropertyOp21
 70
     1
102
RTVSPropertyOp22
 70
     1
102
RTVSPropertyOp23
 70
     1
102
RTVSPropertyOp24
 70
     1
102
RTVSPropertyOp25
 70
     1
102
RTVSPropertyOp26
 70
     1
102
RTVSPropertyOp27
 70
     1
  0
XRECORD
  5
EB
102
{ACAD_REACTORS
330
EA
102
}
330
EA
100
AcDbXrecord
280
     1
102
RTVSPropertyOp0
 70
     1
102
RTVSPropertyOp1
 70
     1
102
RTVSPropertyOp2
 70
     1
102
RTVSPropertyOp3
 70
     1
102
RTVSPropertyOp4
 70
     1
102
RTVSPropertyOp5
 70
     1
102
RTVSPropertyOp6
 70
     1
102
RTVSPropertyOp7
 70
     1
102
RTVSPropertyOp8
 70
     1
102
RTVSPropertyOp9
 70
     1
102
RTVSPropertyOp10
 70
     1
102
RTVSPropertyOp11
 70
     1
102
RTVSPropertyOp12
 70
     1
102
RTVSPropertyOp13
 70
     1
102
RTVSPropertyOp14
 70
     1
102
RTVSPropertyOp15
 70
     1
102
RTVSPropertyOp16
 70
     1
102
RTVSPropertyOp17
 70
     1
102
RTVSPropertyOp18
 70
     1
102
RTVSPropertyOp19
 70
     1
102
RTVSPropertyOp20
 70
     1
102
RTVSPropertyOp21
 70
     1
102
RTVSPropertyOp22
 70
     1
102
RTVSPropertyOp23
 70
     1
102
RTVSPropertyOp24
 70
     1
102
RTVSPropertyOp25
 70
     1
102
RTVSPropertyOp26
 70
     1
102
RTVSPropertyOp27
 70
     1
  0
XRECORD
  5
F3
102
{ACAD_REACTORS
330
F2
102
}
330
F2
100
AcDbXrecord
280
     1
102
RTVSPropertyOp0
 70
     1
102
RTVSPropertyOp1
 70
     1
102
RTVSPropertyOp2
 70
     1
102
RTVSPropertyOp3
 70
     1
102
RTVSPropertyOp4
 70
     1
102
RTVSPropertyOp5
 70
     1
102
RTVSPropertyOp6
 70
     1
102
RTVSPropertyOp7
 70
     1
102
RTVSPropertyOp8
 70
     1
102
RTVSPropertyOp9
 70
     1
102
RTVSPropertyOp10
 70
     1
102
RTVSPropertyOp11
 70
     1
102
RTVSPropertyOp12
 70
     1
102
RTVSPropertyOp13
 70
     1
102
RTVSPropertyOp14
 70
     1
102
RTVSPropertyOp15
 70
     1
102
RTVSPropertyOp16
 70
     1
102
RTVSPropertyOp17
 70
     1
102
RTVSPropertyOp18
 70
     1
102
RTVSPropertyOp19
 70
     1
102
RTVSPropertyOp20
 70
     1
102
RTVSPropertyOp21
 70
     1
102
RTVSPropertyOp22
 70
     1
102
RTVSPropertyOp23
 70
     1
102
RTVSPropertyOp24
 70
     1
102
RTVSPropertyOp25
 70
     1
102
RTVSPropertyOp26
 70
     1
102
RTVSPropertyOp27
 70
     1
  0
XRECORD
  5
E7
102
{ACAD_REACTORS
330
E6
102
}
330
E6
100
AcDbXrecord
280
     1
102
RTVSPropertyOp0
 70
     1
102
RTVSPropertyOp1
 70
     1
102
RTVSPropertyOp2
 70
     1
102
RTVSPropertyOp3
 70
     1
102
RTVSPropertyOp4
 70
     1
102
RTVSPropertyOp5
 70
     1
102
RTVSPropertyOp6
 70
     1
102
RTVSPropertyOp7
 70
     1
102
RTVSPropertyOp8
 70
     1
102
RTVSPropertyOp9
 70
     1
102
RTVSPropertyOp10
 70
     1
102
RTVSPropertyOp11
 70
     1
102
RTVSPropertyOp12
 70
     1
102
RTVSPropertyOp13
 70
     1
102
RTVSPropertyOp14
 70
     1
102
RTVSPropertyOp15
 70
     1
102
RTVSPropertyOp16
 70
     1
102
RTVSPropertyOp17
 70
     1
102
RTVSPropertyOp18
 70
     1
102
RTVSPropertyOp19
 70
     1
102
RTVSPropertyOp20
 70
     1
102
RTVSPropertyOp21
 70
     1
102
RTVSPropertyOp22
 70
     1
102
RTVSPropertyOp23
 70
     1
102
RTVSPropertyOp24
 70
     1
102
RTVSPropertyOp25
 70
     1
102
RTVSPropertyOp26
 70
     1
102
RTVSPropertyOp27
 70
     1
  0
XRECORD
  5
E9
102
{ACAD_REACTORS
330
E8
102
}
330
E8
100
AcDbXrecord
280
     1
102
RTVSPropertyOp0
 70
     1
102
RTVSPropertyOp1
 70
     1
102
RTVSPropertyOp2
 70
     1
102
RTVSPropertyOp3
 70
     1
102
RTVSPropertyOp4
 70
     1
102
RTVSPropertyOp5
 70
     1
102
RTVSPropertyOp6
 70
     1
102
RTVSPropertyOp7
 70
     1
102
RTVSPropertyOp8
 70
     1
102
RTVSPropertyOp9
 70
     1
102
RTVSPropertyOp10
 70
     1
102
RTVSPropertyOp11
 70
     1
102
RTVSPropertyOp12
 70
     1
102
RTVSPropertyOp13
 70
     1
102
RTVSPropertyOp14
 70
     1
102
RTVSPropertyOp15
 70
     1
102
RTVSPropertyOp16
 70
     1
102
RTVSPropertyOp17
 70
     1
102
RTVSPropertyOp18
 70
     1
102
RTVSPropertyOp19
 70
     1
102
RTVSPropertyOp20
 70
     1
102
RTVSPropertyOp21
 70
     1
102
RTVSPropertyOp22
 70
     1
102
RTVSPropertyOp23
 70
     1
102
RTVSPropertyOp24
 70
     1
102
RTVSPropertyOp25
 70
     1
102
RTVSPropertyOp26
 70
     1
102
RTVSPropertyOp27
 70
     1
  0
XRECORD
  5
F1
102
{ACAD_REACTORS
330
F0
102
}
330
F0
100
AcDbXrecord
280
     1
102
RTVSPropertyOp0
 70
     1
102
RTVSPropertyOp1
 70
     1
102
RTVSPropertyOp2
 70
     1
102
RTVSPropertyOp3
 70
     1
102
RTVSPropertyOp4
 70
     1
102
RTVSPropertyOp5
 70
     1
102
RTVSPropertyOp6
 70
     1
102
RTVSPropertyOp7
 70
     1
102
RTVSPropertyOp8
 70
     1
102
RTVSPropertyOp9
 70
     1
102
RTVSPropertyOp10
 70
     1
102
RTVSPropertyOp11
 70
     1
102
RTVSPropertyOp12
 70
     1
102
RTVSPropertyOp13
 70
     1
102
RTVSPropertyOp14
 70
     1
102
RTVSPropertyOp15
 70
     1
102
RTVSPropertyOp16
 70
     1
102
RTVSPropertyOp17
 70
     1
102
RTVSPropertyOp18
 70
     1
102
RTVSPropertyOp19
 70
     1
102
RTVSPropertyOp20
 70
     1
102
RTVSPropertyOp21
 70
     1
102
RTVSPropertyOp22
 70
     1
102
RTVSPropertyOp23
 70
     1
102
RTVSPropertyOp24
 70
     1
102
RTVSPropertyOp25
 70
     1
102
RTVSPropertyOp26
 70
     1
102
RTVSPropertyOp27
 70
     1
  0
XRECORD
  5
D5
102
{ACAD_REACTORS
330
D4
102
}
330
D4
100
AcDbXrecord
280
     1
102
RTVSPropertyOp0
 70
     1
102
RTVSPropertyOp1
 70
     1
102
RTVSPropertyOp2
 70
     1
102
RTVSPropertyOp3
 70
     1
102
RTVSPropertyOp4
 70
     1
102
RTVSPropertyOp5
 70
     1
102
RTVSPropertyOp6
 70
     1
102
RTVSPropertyOp7
 70
     1
102
RTVSPropertyOp8
 70
     1
102
RTVSPropertyOp9
 70
     1
102
RTVSPropertyOp10
 70
     1
102
RTVSPropertyOp11
 70
     1
102
RTVSPropertyOp12
 70
     1
102
RTVSPropertyOp13
 70
     1
102
RTVSPropertyOp14
 70
     1
102
RTVSPropertyOp15
 70
     1
102
RTVSPropertyOp16
 70
     1
102
RTVSPropertyOp17
 70
     1
102
RTVSPropertyOp18
 70
     1
102
RTVSPropertyOp19
 70
     1
102
RTVSPropertyOp20
 70
     1
102
RTVSPropertyOp21
 70
     1
102
RTVSPropertyOp22
 70
     1
102
RTVSPropertyOp23
 70
     1
102
RTVSPropertyOp24
 70
     1
102
RTVSPropertyOp25
 70
     1
102
RTVSPropertyOp26
 70
     1
102
RTVSPropertyOp27
 70
     1
  0
XRECORD
  5
D7
102
{ACAD_REACTORS
330
D6
102
}
330
D6
100
AcDbXrecord
280
     1
102
RTVSPropertyOp0
 70
     1
102
RTVSPropertyOp1
 70
     1
102
RTVSPropertyOp2
 70
     1
102
RTVSPropertyOp3
 70
     1
102
RTVSPropertyOp4
 70
     1
102
RTVSPropertyOp5
 70
     1
102
RTVSPropertyOp6
 70
     1
102
RTVSPropertyOp7
 70
     1
102
RTVSPropertyOp8
 70
     1
102
RTVSPropertyOp9
 70
     1
102
RTVSPropertyOp10
 70
     1
102
RTVSPropertyOp11
 70
     1
102
RTVSPropertyOp12
 70
     1
102
RTVSPropertyOp13
 70
     1
102
RTVSPropertyOp14
 70
     1
102
RTVSPropertyOp15
 70
     1
102
RTVSPropertyOp16
 70
     1
102
RTVSPropertyOp17
 70
     1
102
RTVSPropertyOp18
 70
     1
102
RTVSPropertyOp19
 70
     1
102
RTVSPropertyOp20
 70
     1
102
RTVSPropertyOp21
 70
     1
102
RTVSPropertyOp22
 70
     1
102
RTVSPropertyOp23
 70
     1
102
RTVSPropertyOp24
 70
     1
102
RTVSPropertyOp25
 70
     1
102
RTVSPropertyOp26
 70
     1
102
RTVSPropertyOp27
 70
     1
  0
XRECORD
  5
D9
102
{ACAD_REACTORS
330
D8
102
}
330
D8
100
AcDbXrecord
280
     1
102
RTVSPropertyOp0
 70
     1
102
RTVSPropertyOp1
 70
     1
102
RTVSPropertyOp2
 70
     1
102
RTVSPropertyOp3
 70
     1
102
RTVSPropertyOp4
 70
     1
102
RTVSPropertyOp5
 70
     1
102
RTVSPropertyOp6
 70
     1
102
RTVSPropertyOp7
 70
     1
102
RTVSPropertyOp8
 70
     1
102
RTVSPropertyOp9
 70
     1
102
RTVSPropertyOp10
 70
     1
102
RTVSPropertyOp11
 70
     1
102
RTVSPropertyOp12
 70
     1
102
RTVSPropertyOp13
 70
     1
102
RTVSPropertyOp14
 70
     1
102
RTVSPropertyOp15
 70
     1
102
RTVSPropertyOp16
 70
     1
102
RTVSPropertyOp17
 70
     1
102
RTVSPropertyOp18
 70
     1
102
RTVSPropertyOp19
 70
     1
102
RTVSPropertyOp20
 70
     1
102
RTVSPropertyOp21
 70
     1
102
RTVSPropertyOp22
 70
     1
102
RTVSPropertyOp23
 70
     1
102
RTVSPropertyOp24
 70
     1
102
RTVSPropertyOp25
 70
     1
102
RTVSPropertyOp26
 70
     1
102
RTVSPropertyOp27
 70
     1
  0
XRECORD
  5
DB
102
{ACAD_REACTORS
330
DA
102
}
330
DA
100
AcDbXrecord
280
     1
102
RTVSPropertyOp0
 70
     1
102
RTVSPropertyOp1
 70
     1
102
RTVSPropertyOp2
 70
     1
102
RTVSPropertyOp3
 70
     1
102
RTVSPropertyOp4
 70
     1
102
RTVSPropertyOp5
 70
     1
102
RTVSPropertyOp6
 70
     1
102
RTVSPropertyOp7
 70
     1
102
RTVSPropertyOp8
 70
     1
102
RTVSPropertyOp9
 70
     1
102
RTVSPropertyOp10
 70
     1
102
RTVSPropertyOp11
 70
     1
102
RTVSPropertyOp12
 70
     1
102
RTVSPropertyOp13
 70
     1
102
RTVSPropertyOp14
 70
     1
102
RTVSPropertyOp15
 70
     1
102
RTVSPropertyOp16
 70
     1
102
RTVSPropertyOp17
 70
     1
102
RTVSPropertyOp18
 70
     1
102
RTVSPropertyOp19
 70
     1
102
RTVSPropertyOp20
 70
     1
102
RTVSPropertyOp21
 70
     1
102
RTVSPropertyOp22
 70
     1
102
RTVSPropertyOp23
 70
     1
102
RTVSPropertyOp24
 70
     1
102
RTVSPropertyOp25
 70
     1
102
RTVSPropertyOp26
 70
     1
102
RTVSPropertyOp27
 70
     1
  0
XRECORD
  5
EF
102
{ACAD_REACTORS
330
EE
102
}
330
EE
100
AcDbXrecord
280
     1
102
RTVSPropertyOp0
 70
     1
102
RTVSPropertyOp1
 70
     1
102
RTVSPropertyOp2
 70
     1
102
RTVSPropertyOp3
 70
     1
102
RTVSPropertyOp4
 70
     1
102
RTVSPropertyOp5
 70
     1
102
RTVSPropertyOp6
 70
     1
102
RTVSPropertyOp7
 70
     1
102
RTVSPropertyOp8
 70
     1
102
RTVSPropertyOp9
 70
     1
102
RTVSPropertyOp10
 70
     1
102
RTVSPropertyOp11
 70
     1
102
RTVSPropertyOp12
 70
     1
102
RTVSPropertyOp13
 70
     1
102
RTVSPropertyOp14
 70
     1
102
RTVSPropertyOp15
 70
     1
102
RTVSPropertyOp16
 70
     1
102
RTVSPropertyOp17
 70
     1
102
RTVSPropertyOp18
 70
     1
102
RTVSPropertyOp19
 70
     1
102
RTVSPropertyOp20
 70
     1
102
RTVSPropertyOp21
 70
     1
102
RTVSPropertyOp22
 70
     1
102
RTVSPropertyOp23
 70
     1
102
RTVSPropertyOp24
 70
     1
102
RTVSPropertyOp25
 70
     1
102
RTVSPropertyOp26
 70
     1
102
RTVSPropertyOp27
 70
     1
  0
XRECORD
  5
E5
102
{ACAD_REACTORS
330
E4
102
}
330
E4
100
AcDbXrecord
280
     1
102
RTVSPropertyOp0
 70
     1
102
RTVSPropertyOp1
 70
     1
102
RTVSPropertyOp2
 70
     1
102
RTVSPropertyOp3
 70
     1
102
RTVSPropertyOp4
 70
     1
102
RTVSPropertyOp5
 70
     1
102
RTVSPropertyOp6
 70
     1
102
RTVSPropertyOp7
 70
     1
102
RTVSPropertyOp8
 70
     1
102
RTVSPropertyOp9
 70
     1
102
RTVSPropertyOp10
 70
     1
102
RTVSPropertyOp11
 70
     1
102
RTVSPropertyOp12
 70
     1
102
RTVSPropertyOp13
 70
     1
102
RTVSPropertyOp14
 70
     1
102
RTVSPropertyOp15
 70
     1
102
RTVSPropertyOp16
 70
     1
102
RTVSPropertyOp17
 70
     1
102
RTVSPropertyOp18
 70
     1
102
RTVSPropertyOp19
 70
     1
102
RTVSPropertyOp20
 70
     1
102
RTVSPropertyOp21
 70
     1
102
RTVSPropertyOp22
 70
     1
102
RTVSPropertyOp23
 70
     1
102
RTVSPropertyOp24
 70
     1
102
RTVSPropertyOp25
 70
     1
102
RTVSPropertyOp26
 70
     1
102
RTVSPropertyOp27
 70
     1
  0
XRECORD
  5
ED
102
{ACAD_REACTORS
330
EC
102
}
330
EC
100
AcDbXrecord
280
     1
102
RTVSPropertyOp0
 70
     1
102
RTVSPropertyOp1
 70
     1
102
RTVSPropertyOp2
 70
     1
102
RTVSPropertyOp3
 70
     1
102
RTVSPropertyOp4
 70
     1
102
RTVSPropertyOp5
 70
     1
102
RTVSPropertyOp6
 70
     1
102
RTVSPropertyOp7
 70
     1
102
RTVSPropertyOp8
 70
     1
102
RTVSPropertyOp9
 70
     1
102
RTVSPropertyOp10
 70
     1
102
RTVSPropertyOp11
 70
     1
102
RTVSPropertyOp12
 70
     1
102
RTVSPropertyOp13
 70
     1
102
RTVSPropertyOp14
 70
     1
102
RTVSPropertyOp15
 70
     1
102
RTVSPropertyOp16
 70
     1
102
RTVSPropertyOp17
 70
     1
102
RTVSPropertyOp18
 70
     1
102
RTVSPropertyOp19
 70
     1
102
RTVSPropertyOp20
 70
     1
102
RTVSPropertyOp21
 70
     1
102
RTVSPropertyOp22
 70
     1
102
RTVSPropertyOp23
 70
     1
102
RTVSPropertyOp24
 70
     1
102
RTVSPropertyOp25
 70
     1
102
RTVSPropertyOp26
 70
     1
102
RTVSPropertyOp27
 70
     1
  0
ENDSEC
  0
EOF
