  0
SECTION
  2
HEADER
  9
$ACADVER
  1
AC1014
  9
$ACADMAINTVER
 70
     9
  9
$DWGCODEPAGE
  3
ANSI_1250
  9
$INSBASE
 10
0.0
 20
0.0
 30
0.0
  9
$EXTMIN
 10
-32.414
 20
-36.5221
 30
0.0
  9
$EXTMAX
 10
32.414
 20
36.4404
 30
0.0
  9
$LIMMIN
 10
0.0
 20
0.0
  9
$LIMMAX
 10
12.0
 20
9.0
  9
$ORTHOMODE
 70
     0
  9
$REGENMODE
 70
     1
  9
$FILLMODE
 70
     1
  9
$QTEXTMODE
 70
     0
  9
$MIRRTEXT
 70
     1
  9
$DRAGMODE
 70
     2
  9
$LTSCALE
 40
1.0
  9
$OSMODE
 70
    37
  9
$ATTMODE
 70
     1
  9
$TEXTSIZE
 40
0.2
  9
$TRACEWID
 40
0.05
  9
$TEXTSTYLE
  7
STANDARD
  9
$CLAYER
  8
0
  9
$CELTYPE
  6
BYLAYER
  9
$CECOLOR
 62
   256
  9
$CELTSCALE
 40
1.0
  9
$DELOBJ
 70
     1
  9
$DISPSILH
 70
     0
  9
$DIMSCALE
 40
1.0
  9
$DIMASZ
 40
0.18
  9
$DIMEXO
 40
0.0625
  9
$DIMDLI
 40
0.38
  9
$DIMRND
 40
0.0
  9
$DIMDLE
 40
0.0
  9
$DIMEXE
 40
0.18
  9
$DIMTP
 40
0.0
  9
$DIMTM
 40
0.0
  9
$DIMTXT
 40
0.18
  9
$DIMCEN
 40
0.09
  9
$DIMTSZ
 40
0.0
  9
$DIMTOL
 70
     0
  9
$DIMLIM
 70
     0
  9
$DIMTIH
 70
     1
  9
$DIMTOH
 70
     1
  9
$DIMSE1
 70
     0
  9
$DIMSE2
 70
     0
  9
$DIMTAD
 70
     0
  9
$DIMZIN
 70
     0
  9
$DIMBLK
  1

  9
$DIMASO
 70
     1
  9
$DIMSHO
 70
     1
  9
$DIMPOST
  1

  9
$DIMAPOST
  1

  9
$DIMALT
 70
     0
  9
$DIMALTD
 70
     2
  9
$DIMALTF
 40
25.4
  9
$DIMLFAC
 40
1.0
  9
$DIMTOFL
 70
     0
  9
$DIMTVP
 40
0.0
  9
$DIMTIX
 70
     0
  9
$DIMSOXD
 70
     0
  9
$DIMSAH
 70
     0
  9
$DIMBLK1
  1

  9
$DIMBLK2
  1

  9
$DIMSTYLE
  2
STANDARD
  9
$DIMCLRD
 70
     0
  9
$DIMCLRE
 70
     0
  9
$DIMCLRT
 70
     0
  9
$DIMTFAC
 40
1.0
  9
$DIMGAP
 40
0.09
  9
$DIMJUST
 70
     0
  9
$DIMSD1
 70
     0
  9
$DIMSD2
 70
     0
  9
$DIMTOLJ
 70
     1
  9
$DIMTZIN
 70
     0
  9
$DIMALTZ
 70
     0
  9
$DIMALTTZ
 70
     0
  9
$DIMFIT
 70
     3
  9
$DIMUPT
 70
     0
  9
$DIMUNIT
 70
     2
  9
$DIMDEC
 70
     4
  9
$DIMTDEC
 70
     4
  9
$DIMALTU
 70
     2
  9
$DIMALTTD
 70
     2
  9
$DIMTXSTY
  7
STANDARD
  9
$DIMAUNIT
 70
     0
  9
$LUNITS
 70
     2
  9
$LUPREC
 70
     4
  9
$SKETCHINC
 40
0.1
  9
$FILLETRAD
 40
0.5
  9
$AUNITS
 70
     0
  9
$AUPREC
 70
     0
  9
$MENU
  1
.
  9
$ELEVATION
 40
0.0
  9
$PELEVATION
 40
0.0
  9
$THICKNESS
 40
0.0
  9
$LIMCHECK
 70
     0
  9
$CHAMFERA
 40
0.5
  9
$CHAMFERB
 40
0.5
  9
$CHAMFERC
 40
1.0
  9
$CHAMFERD
 40
0.0
  9
$SKPOLY
 70
     0
  9
$TDCREATE
 40
2456266.404864687
  9
$TDUPDATE
 40
2456266.404864699
  9
$TDINDWG
 40
0.0000000116
  9
$TDUSRTIMER
 40
0.0000000116
  9
$USRTIMER
 70
     1
  9
$ANGBASE
 50
0.0
  9
$ANGDIR
 70
     0
  9
$PDMODE
 70
     0
  9
$PDSIZE
 40
0.0
  9
$PLINEWID
 40
0.0
  9
$COORDS
 70
     1
  9
$SPLFRAME
 70
     0
  9
$SPLINETYPE
 70
     6
  9
$SPLINESEGS
 70
     8
  9
$ATTDIA
 70
     0
  9
$ATTREQ
 70
     1
  9
$HANDLING
 70
     1
  9
$HANDSEED
  5
F4
  9
$SURFTAB1
 70
     6
  9
$SURFTAB2
 70
     6
  9
$SURFTYPE
 70
     6
  9
$SURFU
 70
     6
  9
$SURFV
 70
     6
  9
$UCSNAME
  2

  9
$UCSORG
 10
0.0
 20
0.0
 30
0.0
  9
$UCSXDIR
 10
1.0
 20
0.0
 30
0.0
  9
$UCSYDIR
 10
0.0
 20
1.0
 30
0.0
  9
$PUCSNAME
  2

  9
$PUCSORG
 10
0.0
 20
0.0
 30
0.0
  9
$PUCSXDIR
 10
1.0
 20
0.0
 30
0.0
  9
$PUCSYDIR
 10
0.0
 20
1.0
 30
0.0
  9
$USERI1
 70
     0
  9
$USERI2
 70
     0
  9
$USERI3
 70
     0
  9
$USERI4
 70
     0
  9
$USERI5
 70
     0
  9
$USERR1
 40
0.0
  9
$USERR2
 40
0.0
  9
$USERR3
 40
0.0
  9
$USERR4
 40
0.0
  9
$USERR5
 40
0.0
  9
$WORLDVIEW
 70
     1
  9
$SHADEDGE
 70
     3
  9
$SHADEDIF
 70
    70
  9
$TILEMODE
 70
     1
  9
$MAXACTVP
 70
    64
  9
$PINSBASE
 10
0.0
 20
0.0
 30
0.0
  9
$PLIMCHECK
 70
     0
  9
$PEXTMIN
 10
1.000000000000000E+20
 20
1.000000000000000E+20
 30
1.000000000000000E+20
  9
$PEXTMAX
 10
-1.000000000000000E+20
 20
-1.000000000000000E+20
 30
-1.000000000000000E+20
  9
$PLIMMIN
 10
0.0
 20
0.0
  9
$PLIMMAX
 10
12.0
 20
9.0
  9
$UNITMODE
 70
     0
  9
$VISRETAIN
 70
     1
  9
$PLINEGEN
 70
     0
  9
$PSLTSCALE
 70
     1
  9
$TREEDEPTH
 70
  3020
  9
$PICKSTYLE
 70
     1
  9
$CMLSTYLE
  2
STANDARD
  9
$CMLJUST
 70
     0
  9
$CMLSCALE
 40
1.0
  9
$PROXYGRAPHICS
 70
     1
  9
$MEASUREMENT
 70
     0
  0
ENDSEC
  0
SECTION
  2
CLASSES
  0
CLASS
  1
ACDBDICTIONARYWDFLT
  2
AcDbDictionaryWithDefault
  3
ObjectDBX Classes
 90
        0
280
     0
281
     0
  0
CLASS
  1
VISUALSTYLE
  2
AcDbVisualStyle
  3
ObjectDBX Classes
 90
     4095
280
     0
281
     0
  0
CLASS
  1
MATERIAL
  2
AcDbMaterial
  3
ObjectDBX Classes
 90
     1153
280
     0
281
     0
  0
CLASS
  1
DICTIONARYVAR
  2
AcDbDictionaryVar
  3
ObjectDBX Classes
 90
        0
280
     0
281
     0
  0
CLASS
  1
XRECORD
  2
AcDbXrecord
  3
AutoCAD 2000
 90
        0
280
     0
281
     0
  0
CLASS
  1
LWPOLYLINE
  2
AcDbPolyline
  3
AutoCAD 2000
 90
        0
280
     0
281
     1
  0
CLASS
  1
HATCH
  2
AcDbHatch
  3
AutoCAD 2000
 90
        0
280
     0
281
     1
  0
CLASS
  1
ACDBPLACEHOLDER
  2
AcDbPlaceHolder
  3
ObjectDBX Classes
 90
        0
280
     0
281
     0
  0
CLASS
  1
LAYOUT
  2
AcDbLayout
  3
ObjectDBX Classes
 90
        0
280
     0
281
     0
  0
ENDSEC
  0
SECTION
  2
TABLES
  0
TABLE
  2
VPORT
  5
8
330
0
100
AcDbSymbolTable
 70
     1
  0
VPORT
  5
29
330
8
100
AcDbSymbolTableRecord
100
AcDbViewportTableRecord
  2
*ACTIVE
 70
     0
 10
0.0
 20
0.0
 11
1.0
 21
1.0
 12
10.42990654205607
 22
4.5
 13
0.0
 23
0.0
 14
0.5
 24
0.5
 15
0.5
 25
0.5
 16
0.0
 26
0.0
 36
1.0
 17
0.0
 27
0.0
 37
0.0
 40
9.0
 41
1.972972972850329
 42
50.0
 43
0.0
 44
0.0
 50
0.0
 51
0.0
 71
     0
 72
   100
 73
     1
 74
     3
 75
     0
 76
     0
 77
     0
 78
     0
  0
ENDTAB
  0
TABLE
  2
LTYPE
  5
5
330
0
100
AcDbSymbolTable
 70
     7
  0
LTYPE
  5
14
330
5
100
AcDbSymbolTableRecord
100
AcDbLinetypeTableRecord
  2
BYBLOCK
 70
     0
  3

 72
    65
 73
     0
 40
0.0
  0
LTYPE
  5
15
330
5
100
AcDbSymbolTableRecord
100
AcDbLinetypeTableRecord
  2
BYLAYER
 70
     0
  3

 72
    65
 73
     0
 40
0.0
  0
LTYPE
  5
16
330
5
100
AcDbSymbolTableRecord
100
AcDbLinetypeTableRecord
  2
CONTINUOUS
 70
     0
  3
Solid line
 72
    65
 73
     0
 40
0.0
  0
LTYPE
  5
59
330
5
100
AcDbSymbolTableRecord
100
AcDbLinetypeTableRecord
  2
NEW_LINE1
 70
     0
  3

 72
    65
 73
     4
 40
1.2
 49
0.5
 74
     4
 75
     0
340
0
 46
1.0
 50
0.0
 44
0.0
 45
0.0
 49
-0.3
 74
     4
 75
     0
340
0
 46
1.0
 50
0.0
 44
0.0
 45
0.0
 49
0.1
 74
     4
 75
     0
340
0
 46
1.0
 50
0.0
 44
0.0
 45
0.0
 49
-0.3
 74
     4
 75
     0
340
0
 46
1.0
 50
0.0
 44
0.0
 45
0.0
  0
LTYPE
  5
5F
330
5
100
AcDbSymbolTableRecord
100
AcDbLinetypeTableRecord
  2
NEW_LINE2
 70
     0
  3

 72
    65
 73
     4
 40
1.2
 49
0.5
 74
     4
 75
     0
340
0
 46
1.0
 50
0.0
 44
0.0
 45
0.0
 49
-0.3
 74
     4
 75
     0
340
0
 46
1.0
 50
0.0
 44
0.0
 45
0.0
 49
0.1
 74
     4
 75
     0
340
0
 46
1.0
 50
0.0
 44
0.0
 45
0.0
 49
-0.3
 74
     4
 75
     0
340
0
 46
1.0
 50
0.0
 44
0.0
 45
0.0
  0
LTYPE
  5
65
330
5
100
AcDbSymbolTableRecord
100
AcDbLinetypeTableRecord
  2
NEW_LINE3
 70
     0
  3

 72
    65
 73
     4
 40
1.2
 49
0.5
 74
     4
 75
     0
340
0
 46
1.0
 50
0.0
 44
0.0
 45
0.0
 49
-0.3
 74
     4
 75
     0
340
0
 46
1.0
 50
0.0
 44
0.0
 45
0.0
 49
0.1
 74
     4
 75
     0
340
0
 46
1.0
 50
0.0
 44
0.0
 45
0.0
 49
-0.3
 74
     4
 75
     0
340
0
 46
1.0
 50
0.0
 44
0.0
 45
0.0
  0
LTYPE
  5
67
330
5
100
AcDbSymbolTableRecord
100
AcDbLinetypeTableRecord
  2
NEW_LINE4
 70
     0
  3

 72
    65
 73
     4
 40
1.2
 49
0.5
 74
     4
 75
     0
340
0
 46
1.0
 50
0.0
 44
0.0
 45
0.0
 49
-0.3
 74
     4
 75
     0
340
0
 46
1.0
 50
0.0
 44
0.0
 45
0.0
 49
0.1
 74
     4
 75
     0
340
0
 46
1.0
 50
0.0
 44
0.0
 45
0.0
 49
-0.3
 74
     4
 75
     0
340
0
 46
1.0
 50
0.0
 44
0.0
 45
0.0
  0
LTYPE
  5
69
330
5
100
AcDbSymbolTableRecord
100
AcDbLinetypeTableRecord
  2
NEW_LINE5
 70
     0
  3

 72
    65
 73
     4
 40
1.2
 49
0.5
 74
     4
 75
     0
340
0
 46
1.0
 50
0.0
 44
0.0
 45
0.0
 49
-0.3
 74
     4
 75
     0
340
0
 46
1.0
 50
0.0
 44
0.0
 45
0.0
 49
0.1
 74
     4
 75
     0
340
0
 46
1.0
 50
0.0
 44
0.0
 45
0.0
 49
-0.3
 74
     4
 75
     0
340
0
 46
1.0
 50
0.0
 44
0.0
 45
0.0
  0
LTYPE
  5
6C
330
5
100
AcDbSymbolTableRecord
100
AcDbLinetypeTableRecord
  2
NEW_LINE6
 70
     0
  3

 72
    65
 73
     4
 40
1.2
 49
0.5
 74
     4
 75
     0
340
0
 46
1.0
 50
0.0
 44
0.0
 45
0.0
 49
-0.3
 74
     4
 75
     0
340
0
 46
1.0
 50
0.0
 44
0.0
 45
0.0
 49
0.1
 74
     4
 75
     0
340
0
 46
1.0
 50
0.0
 44
0.0
 45
0.0
 49
-0.3
 74
     4
 75
     0
340
0
 46
1.0
 50
0.0
 44
0.0
 45
0.0
  0
ENDTAB
  0
TABLE
  2
LAYER
  5
2
330
0
100
AcDbSymbolTable
 70
     2
  0
LAYER
  5
10
330
2
100
AcDbSymbolTableRecord
100
AcDbLayerTableRecord
  2
0
 70
     0
 62
     7
  6
CONTINUOUS
  0
LAYER
  5
40
330
2
100
AcDbSymbolTableRecord
100
AcDbLayerTableRecord
  2
ROUND
 70
     0
 62
     7
  6
CONTINUOUS
  0
ENDTAB
  0
TABLE
  2
STYLE
  5
3
330
0
100
AcDbSymbolTable
 70
     1
  0
STYLE
  5
11
330
3
100
AcDbSymbolTableRecord
100
AcDbTextStyleTableRecord
  2
STANDARD
 70
     0
 40
0.0
 41
1.0
 50
0.0
 71
     0
 42
0.2
  3
txt
  4

  0
ENDTAB
  0
TABLE
  2
VIEW
  5
6
330
0
100
AcDbSymbolTable
 70
     0
  0
ENDTAB
  0
TABLE
  2
UCS
  5
7
330
0
100
AcDbSymbolTable
 70
     0
  0
ENDTAB
  0
TABLE
  2
APPID
  5
9
330
0
100
AcDbSymbolTable
 70
     2
  0
APPID
  5
12
330
9
100
AcDbSymbolTableRecord
100
AcDbRegAppTableRecord
  2
ACAD
 70
     0
  0
APPID
  5
3F
330
9
100
AcDbSymbolTableRecord
100
AcDbRegAppTableRecord
  2
ODA
 70
     0
  0
ENDTAB
  0
TABLE
  2
DIMSTYLE
  5
A
330
0
100
AcDbSymbolTable
 70
     1
  0
DIMSTYLE
105
27
330
A
100
AcDbSymbolTableRecord
100
AcDbDimStyleTableRecord
  2
STANDARD
 70
     0
  3

  4

  5

  6

  7

 40
1.0
 41
0.18
 42
0.0625
 43
0.38
 44
0.18
 45
0.0
 46
0.0
 47
0.0
 48
0.0
140
0.18
141
0.09
142
0.0
143
25.4
144
1.0
145
0.0
146
1.0
147
0.09
 71
     0
 72
     0
 73
     1
 74
     1
 75
     0
 76
     0
 77
     0
 78
     0
170
     0
171
     2
172
     0
173
     0
174
     0
175
     0
176
     0
177
     0
178
     0
270
     2
271
     4
272
     4
273
     2
274
     2
340
11
275
     0
280
     0
281
     0
282
     0
283
     1
284
     0
285
     0
286
     0
287
     3
288
     0
  0
ENDTAB
  0
TABLE
  2
BLOCK_RECORD
  5
1
330
0
100
AcDbSymbolTable
 70
     1
  0
BLOCK_RECORD
  5
1F
330
1
100
AcDbSymbolTableRecord
100
AcDbBlockTableRecord
  2
*MODEL_SPACE
  0
BLOCK_RECORD
  5
1B
330
1
100
AcDbSymbolTableRecord
100
AcDbBlockTableRecord
  2
*PAPER_SPACE
  0
ENDTAB
  0
ENDSEC
  0
SECTION
  2
BLOCKS
  0
BLOCK
  5
20
330
1F
100
AcDbEntity
  8
0
100
AcDbBlockBegin
  2
*MODEL_SPACE
 70
     0
 10
0.0
 20
0.0
 30
0.0
  3
*MODEL_SPACE
  1

  0
ENDBLK
  5
21
330
1F
100
AcDbEntity
  8
0
100
AcDbBlockEnd
  0
BLOCK
  5
1C
330
1B
100
AcDbEntity
 67
     1
  8
0
100
AcDbBlockBegin
  2
*PAPER_SPACE
 70
     0
 10
0.0
 20
0.0
 30
0.0
  3
*PAPER_SPACE
  1

  0
ENDBLK
  5
1D
330
1B
100
AcDbEntity
 67
     1
  8
0
100
AcDbBlockEnd
  0
ENDSEC
  0
SECTION
  2
ENTITIES
  0
SPLINE
  5
41
330
1F
100
AcDbEntity
  8
ROUND
 62
   250
100
AcDbSpline
210
0.0
220
0.0
230
1.0
 70
    24
 71
     3
 72
     8
 73
     4
 74
     0
 42
0.0000000001
 43
0.0000000001
 40
0.0
 40
0.0
 40
0.0
 40
0.0
 40
1.0
 40
1.0
 40
1.0
 40
1.0
 10
-26.2071
 20
11.8021
 30
0.0
 10
-26.2071
 20
11.8021
 30
0.0
 10
-30.0752
 20
11.8021
 30
0.0
 10
-30.0752
 20
11.8021
 30
0.0
  0
SPLINE
  5
42
330
1F
100
AcDbEntity
  8
ROUND
 62
   250
100
AcDbSpline
210
0.0
220
0.0
230
1.0
 70
    24
 71
     3
 72
     8
 73
     4
 74
     0
 42
0.0000000001
 43
0.0000000001
 40
0.0
 40
0.0
 40
0.0
 40
0.0
 40
1.0
 40
1.0
 40
1.0
 40
1.0
 10
-26.1778
 20
22.4443
 30
0.0
 10
-26.1778
 20
22.4443
 30
0.0
 10
-30.0752
 20
22.4443
 30
0.0
 10
-30.0752
 20
22.4443
 30
0.0
  0
SPLINE
  5
43
330
1F
100
AcDbEntity
  8
ROUND
 62
   250
100
AcDbSpline
210
0.0
220
0.0
230
1.0
 70
    24
 71
     3
 72
     8
 73
     4
 74
     0
 42
0.0000000001
 43
0.0000000001
 40
0.0
 40
0.0
 40
0.0
 40
0.0
 40
1.0
 40
1.0
 40
1.0
 40
1.0
 10
-9.7692
 20
-7.156
 30
0.0
 10
-9.7692
 20
-7.156
 30
0.0
 10
-9.7692
 20
-36.2089
 30
0.0
 10
-9.7692
 20
-36.2089
 30
0.0
  0
SPLINE
  5
44
330
1F
100
AcDbEntity
  8
ROUND
 62
   250
100
AcDbSpline
210
0.0
220
0.0
230
1.0
 70
    24
 71
     3
 72
     8
 73
     4
 74
     0
 42
0.0000000001
 43
0.0000000001
 40
0.0
 40
0.0
 40
0.0
 40
0.0
 40
1.0
 40
1.0
 40
1.0
 40
1.0
 10
-24.0952
 20
-32.7063
 30
0.0
 10
-24.0952
 20
-32.7063
 30
0.0
 10
-24.0952
 20
-36.2089
 30
0.0
 10
-24.0952
 20
-36.2089
 30
0.0
  0
SPLINE
  5
45
330
1F
100
AcDbEntity
  8
ROUND
 62
   250
100
AcDbSpline
210
0.0
220
0.0
230
1.0
 70
    24
 71
     3
 72
     8
 73
     4
 74
     0
 42
0.0000000001
 43
0.0000000001
 40
0.0
 40
0.0
 40
0.0
 40
0.0
 40
1.0
 40
1.0
 40
1.0
 40
1.0
 10
15.2778
 20
-1.2959
 30
0.0
 10
15.2778
 20
-1.2959
 30
0.0
 10
7.9789
 20
-1.2959
 30
0.0
 10
7.9789
 20
-1.2959
 30
0.0
  0
SPLINE
  5
46
330
1F
100
AcDbEntity
  8
ROUND
 62
   250
100
AcDbSpline
210
0.0
220
0.0
230
1.0
 70
    24
 71
     3
 72
     8
 73
     4
 74
     0
 42
0.0000000001
 43
0.0000000001
 40
0.0
 40
0.0
 40
0.0
 40
0.0
 40
1.0
 40
1.0
 40
1.0
 40
1.0
 10
14.9864
 20
-31.9945
 30
0.0
 10
14.9864
 20
-31.9945
 30
0.0
 10
2.2764
 20
-31.9945
 30
0.0
 10
2.2764
 20
-31.9945
 30
0.0
  0
SPLINE
  5
47
330
1F
100
AcDbEntity
  8
ROUND
 62
   250
100
AcDbSpline
210
0.0
220
0.0
230
1.0
 70
    24
 71
     3
 72
     8
 73
     4
 74
     0
 42
0.0000000001
 43
0.0000000001
 40
0.0
 40
0.0
 40
0.0
 40
0.0
 40
1.0
 40
1.0
 40
1.0
 40
1.0
 10
14.7831
 20
29.4027
 30
0.0
 10
14.7831
 20
29.4027
 30
0.0
 10
1.8227
 20
29.4027
 30
0.0
 10
1.8227
 20
29.4027
 30
0.0
  0
SPLINE
  5
48
330
1F
100
AcDbEntity
  8
ROUND
 62
   250
100
AcDbSpline
210
0.0
220
0.0
230
1.0
 70
    24
 71
     3
 72
     8
 73
     4
 74
     0
 42
0.0000000001
 43
0.0000000001
 40
0.0
 40
0.0
 40
0.0
 40
0.0
 40
1.0
 40
1.0
 40
1.0
 40
1.0
 10
13.2312
 20
17.1232
 30
0.0
 10
13.2312
 20
17.1232
 30
0.0
 10
8.1403
 20
17.1232
 30
0.0
 10
8.1403
 20
17.1232
 30
0.0
  0
SPLINE
  5
49
330
1F
100
AcDbEntity
  8
ROUND
 62
   250
100
AcDbSpline
210
0.0
220
0.0
230
1.0
 70
    24
 71
     3
 72
     8
 73
     4
 74
     0
 42
0.0000000001
 43
0.0000000001
 40
0.0
 40
0.0
 40
0.0
 40
0.0
 40
1.0
 40
1.0
 40
1.0
 40
1.0
 10
31.0364
 20
19.0398
 30
0.0
 10
31.0364
 20
19.0398
 30
0.0
 10
31.0364
 20
34.1935
 30
0.0
 10
31.0364
 20
34.1935
 30
0.0
  0
SPLINE
  5
4A
330
1F
100
AcDbEntity
  8
ROUND
 62
   250
100
AcDbSpline
210
0.0
220
0.0
230
1.0
 70
    24
 71
     3
 72
     8
 73
     4
 74
     0
 42
0.0000000001
 43
0.0000000001
 40
0.0
 40
0.0
 40
0.0
 40
0.0
 40
1.0
 40
1.0
 40
1.0
 40
1.0
 10
10.5706
 20
24.8283
 30
0.0
 10
10.5706
 20
24.8283
 30
0.0
 10
10.5706
 20
33.987
 30
0.0
 10
10.5706
 20
33.987
 30
0.0
  0
SPLINE
  5
4B
330
1F
100
AcDbEntity
  8
ROUND
 62
   250
100
AcDbSpline
210
0.0
220
0.0
230
1.0
 70
    24
 71
     3
 72
     8
 73
     4
 74
     0
 42
0.0000000001
 43
0.0000000001
 40
0.0
 40
0.0
 40
0.0
 40
0.0
 40
1.0
 40
1.0
 40
1.0
 40
1.0
 10
-9.3595
 20
-6.4123
 30
0.0
 10
-9.3595
 20
-6.4123
 30
0.0
 10
-4.4476
 20
-6.4123
 30
0.0
 10
-4.4476
 20
-6.4123
 30
0.0
  0
SPLINE
  5
4C
330
1F
100
AcDbEntity
  8
ROUND
 62
   250
100
AcDbSpline
210
0.0
220
0.0
230
1.0
 70
    24
 71
     3
 72
     8
 73
     4
 74
     0
 42
0.0000000001
 43
0.0000000001
 40
0.0
 40
0.0
 40
0.0
 40
0.0
 40
1.0
 40
1.0
 40
1.0
 40
1.0
 10
-9.3595
 20
29.4027
 30
0.0
 10
-9.3595
 20
29.4027
 30
0.0
 10
-4.4476
 20
29.4027
 30
0.0
 10
-4.4476
 20
29.4027
 30
0.0
  0
SPLINE
  5
4D
330
1F
100
AcDbEntity
  8
ROUND
 62
   250
100
AcDbSpline
210
0.0
220
0.0
230
1.0
 70
    24
 71
     3
 72
     8
 73
     4
 74
     0
 42
0.0000000001
 43
0.0000000001
 40
0.0
 40
0.0
 40
0.0
 40
0.0
 40
1.0
 40
1.0
 40
1.0
 40
1.0
 10
-9.7692
 20
30.1672
 30
0.0
 10
-9.7692
 20
30.1672
 30
0.0
 10
-9.7692
 20
34.1066
 30
0.0
 10
-9.7692
 20
34.1066
 30
0.0
  0
SPLINE
  5
4E
330
1F
100
AcDbEntity
  8
ROUND
 62
   250
100
AcDbSpline
210
0.0
220
0.0
230
1.0
 70
    24
 71
     3
 72
     8
 73
     4
 74
     0
 42
0.0000000001
 43
0.0000000001
 40
0.0
 40
0.0
 40
0.0
 40
0.0
 40
1.0
 40
1.0
 40
1.0
 40
1.0
 10
-25.7324
 20
25.0531
 30
0.0
 10
-25.7324
 20
25.0531
 30
0.0
 10
-25.7324
 20
34.1066
 30
0.0
 10
-25.7324
 20
34.1066
 30
0.0
  0
SPLINE
  5
4F
330
1F
100
AcDbEntity
  8
ROUND
 62
   250
100
AcDbSpline
210
0.0
220
0.0
230
1.0
 70
    24
 71
     3
 72
     8
 73
     4
 74
     0
 42
0.0000000001
 43
0.0000000001
 40
0.0
 40
0.0
 40
0.0
 40
0.0
 40
1.0
 40
1.0
 40
1.0
 40
1.0
 10
-24.0952
 20
-1.2959
 30
0.0
 10
-24.0952
 20
-1.2959
 30
0.0
 10
-18.9787
 20
-1.2959
 30
0.0
 10
-18.9787
 20
-1.2959
 30
0.0
  0
SPLINE
  5
50
330
1F
100
AcDbEntity
  8
ROUND
 62
   250
100
AcDbSpline
210
0.0
220
0.0
230
1.0
 70
    24
 71
     3
 72
     8
 73
     4
 74
     0
 42
0.0000000001
 43
0.0000000001
 40
0.0
 40
0.0
 40
0.0
 40
0.0
 40
1.0
 40
1.0
 40
1.0
 40
1.0
 10
-18.9787
 20
-1.2959
 30
0.0
 10
-18.9787
 20
-1.2959
 30
0.0
 10
-18.9787
 20
3.8205
 30
0.0
 10
-18.9787
 20
3.8205
 30
0.0
  0
SPLINE
  5
51
330
1F
100
AcDbEntity
  8
ROUND
 62
   250
100
AcDbSpline
210
0.0
220
0.0
230
1.0
 70
    24
 71
     3
 72
     8
 73
     4
 74
     0
 42
0.0000000001
 43
0.0000000001
 40
0.0
 40
0.0
 40
0.0
 40
0.0
 40
1.0
 40
1.0
 40
1.0
 40
1.0
 10
-17.9554
 20
3.8205
 30
0.0
 10
-17.9554
 20
3.8205
 30
0.0
 10
-18.9787
 20
3.8205
 30
0.0
 10
-18.9787
 20
3.8205
 30
0.0
  0
SPLINE
  5
52
330
1F
100
AcDbEntity
  8
ROUND
 62
   250
100
AcDbSpline
210
0.0
220
0.0
230
1.0
 70
     8
 71
     3
 72
    12
 73
     8
 74
     0
 42
0.0000000001
 43
0.0000000001
 40
0.0
 40
0.0
 40
0.0
 40
0.0
 40
0.3333333333333333
 40
0.3333333333333333
 40
0.3333333333333333
 40
0.3333333333333333
 40
1.0
 40
1.0
 40
1.0
 40
1.0
 10
25.9199
 20
-1.2959
 30
0.0
 10
25.9199
 20
1.5299
 30
0.0
 10
23.6292
 20
3.8205
 30
0.0
 10
20.8035
 20
3.8205
 30
0.0
 10
20.8035
 20
3.8205
 30
0.0
 10
17.9778
 20
3.8205
 30
0.0
 10
15.6871
 20
1.5299
 30
0.0
 10
15.6871
 20
-1.2959
 30
0.0
  0
SPLINE
  5
53
330
1F
100
AcDbEntity
  8
ROUND
 62
   250
100
AcDbSpline
210
0.0
220
0.0
230
1.0
 70
     8
 71
     3
 72
    36
 73
    32
 74
     0
 42
0.0000000001
 43
0.0000000001
 40
0.0
 40
0.0
 40
0.0
 40
0.0
 40
0.1111111111111111
 40
0.1111111111111111
 40
0.1111111111111111
 40
0.1111111111111111
 40
0.2222222222222222
 40
0.2222222222222222
 40
0.2222222222222222
 40
0.2222222222222222
 40
0.3333333333333333
 40
0.3333333333333333
 40
0.3333333333333333
 40
0.3333333333333333
 40
0.4444444444444444
 40
0.4444444444444444
 40
0.4444444444444444
 40
0.4444444444444444
 40
0.5555555555555556
 40
0.5555555555555556
 40
0.5555555555555556
 40
0.5555555555555556
 40
0.6666666666666666
 40
0.6666666666666666
 40
0.6666666666666666
 40
0.6666666666666666
 40
0.7777777777777778
 40
0.7777777777777778
 40
0.7777777777777778
 40
0.7777777777777778
 40
1.0
 40
1.0
 40
1.0
 40
1.0
 10
-18.9787
 20
-1.2959
 30
0.0
 10
-18.9787
 20
-1.2959
 30
0.0
 10
-18.8504
 20
-1.4242
 30
0.0
 10
-18.8504
 20
-1.4242
 30
0.0
 10
-18.8504
 20
-1.4242
 30
0.0
 10
-18.8504
 20
-1.4242
 30
0.0
 10
-18.7221
 20
-1.5526
 30
0.0
 10
-18.7221
 20
-1.5526
 30
0.0
 10
-18.7221
 20
-1.5526
 30
0.0
 10
-18.7221
 20
-1.5526
 30
0.0
 10
-18.5939
 20
-1.6808
 30
0.0
 10
-18.5939
 20
-1.6808
 30
0.0
 10
-18.5939
 20
-1.6808
 30
0.0
 10
-18.5939
 20
-1.6808
 30
0.0
 10
-18.4657
 20
-1.8088
 30
0.0
 10
-18.4657
 20
-1.8088
 30
0.0
 10
-18.4657
 20
-1.8088
 30
0.0
 10
-18.4657
 20
-1.8088
 30
0.0
 10
-18.3378
 20
-1.9368
 30
0.0
 10
-18.3378
 20
-1.9368
 30
0.0
 10
-18.3378
 20
-1.9368
 30
0.0
 10
-18.3378
 20
-1.9368
 30
0.0
 10
-18.2101
 20
-2.0645
 30
0.0
 10
-18.2101
 20
-2.0645
 30
0.0
 10
-18.2101
 20
-2.0645
 30
0.0
 10
-18.2101
 20
-2.0645
 30
0.0
 10
-18.0826
 20
-2.192
 30
0.0
 10
-18.0826
 20
-2.192
 30
0.0
 10
-18.0826
 20
-2.192
 30
0.0
 10
-18.0826
 20
-2.192
 30
0.0
 10
-17.9554
 20
-2.3192
 30
0.0
 10
-17.9554
 20
-2.3192
 30
0.0
  0
SPLINE
  5
54
330
1F
100
AcDbEntity
  8
ROUND
 62
   250
100
AcDbSpline
210
0.0
220
0.0
230
1.0
 70
     8
 71
     3
 72
   112
 73
   108
 74
     0
 42
0.0000000001
 43
0.0000000001
 40
0.0
 40
0.0
 40
0.0
 40
0.0
 40
0.0357142857142857
 40
0.0357142857142857
 40
0.0357142857142857
 40
0.0357142857142857
 40
0.0714285714285714
 40
0.0714285714285714
 40
0.0714285714285714
 40
0.0714285714285714
 40
0.1071428571428571
 40
0.1071428571428571
 40
0.1071428571428571
 40
0.1071428571428571
 40
0.1428571428571428
 40
0.1428571428571428
 40
0.1428571428571428
 40
0.1428571428571428
 40
0.1785714285714286
 40
0.1785714285714286
 40
0.1785714285714286
 40
0.1785714285714286
 40
0.2142857142857143
 40
0.2142857142857143
 40
0.2142857142857143
 40
0.2142857142857143
 40
0.25
 40
0.25
 40
0.25
 40
0.25
 40
0.2857142857142857
 40
0.2857142857142857
 40
0.2857142857142857
 40
0.2857142857142857
 40
0.3214285714285715
 40
0.3214285714285715
 40
0.3214285714285715
 40
0.3214285714285715
 40
0.3571428571428572
 40
0.3571428571428572
 40
0.3571428571428572
 40
0.3571428571428572
 40
0.3928571428571428
 40
0.3928571428571428
 40
0.3928571428571428
 40
0.3928571428571428
 40
0.4285714285714285
 40
0.4285714285714285
 40
0.4285714285714285
 40
0.4285714285714285
 40
0.4642857142857143
 40
0.4642857142857143
 40
0.4642857142857143
 40
0.4642857142857143
 40
0.5
 40
0.5
 40
0.5
 40
0.5
 40
0.5357142857142857
 40
0.5357142857142857
 40
0.5357142857142857
 40
0.5357142857142857
 40
0.5714285714285714
 40
0.5714285714285714
 40
0.5714285714285714
 40
0.5714285714285714
 40
0.6071428571428571
 40
0.6071428571428571
 40
0.6071428571428571
 40
0.6071428571428571
 40
0.6428571428571429
 40
0.6428571428571429
 40
0.6428571428571429
 40
0.6428571428571429
 40
0.6785714285714286
 40
0.6785714285714286
 40
0.6785714285714286
 40
0.6785714285714286
 40
0.7142857142857143
 40
0.7142857142857143
 40
0.7142857142857143
 40
0.7142857142857143
 40
0.75
 40
0.75
 40
0.75
 40
0.75
 40
0.7857142857142857
 40
0.7857142857142857
 40
0.7857142857142857
 40
0.7857142857142857
 40
0.8214285714285714
 40
0.8214285714285714
 40
0.8214285714285714
 40
0.8214285714285714
 40
0.8571428571428571
 40
0.8571428571428571
 40
0.8571428571428571
 40
0.8571428571428571
 40
0.8928571428571429
 40
0.8928571428571429
 40
0.8928571428571429
 40
0.8928571428571429
 40
0.9285714285714286
 40
0.9285714285714286
 40
0.9285714285714286
 40
0.9285714285714286
 40
1.0
 40
1.0
 40
1.0
 40
1.0
 10
-13.8623
 20
-6.4123
 30
0.0
 10
-13.8623
 20
-6.4123
 30
0.0
 10
-13.8668
 20
-6.4078
 30
0.0
 10
-13.8668
 20
-6.4078
 30
0.0
 10
-13.8668
 20
-6.4078
 30
0.0
 10
-13.8668
 20
-6.4078
 30
0.0
 10
-13.8803
 20
-6.3943
 30
0.0
 10
-13.8803
 20
-6.3943
 30
0.0
 10
-13.8803
 20
-6.3943
 30
0.0
 10
-13.8803
 20
-6.3943
 30
0.0
 10
-13.9029
 20
-6.3717
 30
0.0
 10
-13.9029
 20
-6.3717
 30
0.0
 10
-13.9029
 20
-6.3717
 30
0.0
 10
-13.9029
 20
-6.3717
 30
0.0
 10
-13.9347
 20
-6.34
 30
0.0
 10
-13.9347
 20
-6.34
 30
0.0
 10
-13.9347
 20
-6.34
 30
0.0
 10
-13.9347
 20
-6.34
 30
0.0
 10
-13.9758
 20
-6.2988
 30
0.0
 10
-13.9758
 20
-6.2988
 30
0.0
 10
-13.9758
 20
-6.2988
 30
0.0
 10
-13.9758
 20
-6.2988
 30
0.0
 10
-14.0267
 20
-6.2479
 30
0.0
 10
-14.0267
 20
-6.2479
 30
0.0
 10
-14.0267
 20
-6.2479
 30
0.0
 10
-14.0267
 20
-6.2479
 30
0.0
 10
-14.0877
 20
-6.1869
 30
0.0
 10
-14.0877
 20
-6.1869
 30
0.0
 10
-14.0877
 20
-6.1869
 30
0.0
 10
-14.0877
 20
-6.1869
 30
0.0
 10
-14.1592
 20
-6.1154
 30
0.0
 10
-14.1592
 20
-6.1154
 30
0.0
 10
-14.1592
 20
-6.1154
 30
0.0
 10
-14.1592
 20
-6.1154
 30
0.0
 10
-14.2414
 20
-6.0332
 30
0.0
 10
-14.2414
 20
-6.0332
 30
0.0
 10
-14.2414
 20
-6.0332
 30
0.0
 10
-14.2414
 20
-6.0332
 30
0.0
 10
-14.3348
 20
-5.9398
 30
0.0
 10
-14.3348
 20
-5.9398
 30
0.0
 10
-14.3348
 20
-5.9398
 30
0.0
 10
-14.3348
 20
-5.9398
 30
0.0
 10
-14.4398
 20
-5.8349
 30
0.0
 10
-14.4398
 20
-5.8349
 30
0.0
 10
-14.4398
 20
-5.8349
 30
0.0
 10
-14.4398
 20
-5.8349
 30
0.0
 10
-14.5568
 20
-5.7178
 30
0.0
 10
-14.5568
 20
-5.7178
 30
0.0
 10
-14.5568
 20
-5.7178
 30
0.0
 10
-14.5568
 20
-5.7178
 30
0.0
 10
-14.6867
 20
-5.5879
 30
0.0
 10
-14.6867
 20
-5.5879
 30
0.0
 10
-14.6867
 20
-5.5879
 30
0.0
 10
-14.6867
 20
-5.5879
 30
0.0
 10
-14.8299
 20
-5.4447
 30
0.0
 10
-14.8299
 20
-5.4447
 30
0.0
 10
-14.8299
 20
-5.4447
 30
0.0
 10
-14.8299
 20
-5.4447
 30
0.0
 10
-14.9868
 20
-5.2878
 30
0.0
 10
-14.9868
 20
-5.2878
 30
0.0
 10
-14.9868
 20
-5.2878
 30
0.0
 10
-14.9868
 20
-5.2878
 30
0.0
 10
-15.1578
 20
-5.1168
 30
0.0
 10
-15.1578
 20
-5.1168
 30
0.0
 10
-15.1578
 20
-5.1168
 30
0.0
 10
-15.1578
 20
-5.1168
 30
0.0
 10
-15.3427
 20
-4.9319
 30
0.0
 10
-15.3427
 20
-4.9319
 30
0.0
 10
-15.3427
 20
-4.9319
 30
0.0
 10
-15.3427
 20
-4.9319
 30
0.0
 10
-15.542
 20
-4.7326
 30
0.0
 10
-15.542
 20
-4.7326
 30
0.0
 10
-15.542
 20
-4.7326
 30
0.0
 10
-15.542
 20
-4.7326
 30
0.0
 10
-15.7563
 20
-4.5183
 30
0.0
 10
-15.7563
 20
-4.5183
 30
0.0
 10
-15.7563
 20
-4.5183
 30
0.0
 10
-15.7563
 20
-4.5183
 30
0.0
 10
-15.9858
 20
-4.2888
 30
0.0
 10
-15.9858
 20
-4.2888
 30
0.0
 10
-15.9858
 20
-4.2888
 30
0.0
 10
-15.9858
 20
-4.2888
 30
0.0
 10
-16.2298
 20
-4.0448
 30
0.0
 10
-16.2298
 20
-4.0448
 30
0.0
 10
-16.2298
 20
-4.0448
 30
0.0
 10
-16.2298
 20
-4.0448
 30
0.0
 10
-16.4869
 20
-3.7877
 30
0.0
 10
-16.4869
 20
-3.7877
 30
0.0
 10
-16.4869
 20
-3.7877
 30
0.0
 10
-16.4869
 20
-3.7877
 30
0.0
 10
-16.7573
 20
-3.5174
 30
0.0
 10
-16.7573
 20
-3.5174
 30
0.0
 10
-16.7573
 20
-3.5174
 30
0.0
 10
-16.7573
 20
-3.5174
 30
0.0
 10
-17.0407
 20
-3.2339
 30
0.0
 10
-17.0407
 20
-3.2339
 30
0.0
 10
-17.0407
 20
-3.2339
 30
0.0
 10
-17.0407
 20
-3.2339
 30
0.0
 10
-17.337
 20
-2.9376
 30
0.0
 10
-17.337
 20
-2.9376
 30
0.0
 10
-17.337
 20
-2.9376
 30
0.0
 10
-17.337
 20
-2.9376
 30
0.0
 10
-17.6434
 20
-2.6312
 30
0.0
 10
-17.6434
 20
-2.6312
 30
0.0
 10
-17.6434
 20
-2.6312
 30
0.0
 10
-17.6434
 20
-2.6312
 30
0.0
 10
-17.9554
 20
-2.3192
 30
0.0
 10
-17.9554
 20
-2.3192
 30
0.0
  0
SPLINE
  5
55
330
1F
100
AcDbEntity
  8
ROUND
 62
   250
100
AcDbSpline
210
0.0
220
0.0
230
1.0
 70
    24
 71
     3
 72
     8
 73
     4
 74
     0
 42
0.0000000001
 43
0.0000000001
 40
0.0
 40
0.0
 40
0.0
 40
0.0
 40
1.0
 40
1.0
 40
1.0
 40
1.0
 10
-24.0952
 20
-31.9945
 30
0.0
 10
-24.0952
 20
-31.9945
 30
0.0
 10
-13.8623
 20
-31.9945
 30
0.0
 10
-13.8623
 20
-31.9945
 30
0.0
  0
SPLINE
  5
56
330
1F
100
AcDbEntity
  8
ROUND
 62
   250
100
AcDbSpline
210
0.0
220
0.0
230
1.0
 70
    24
 71
     3
 72
     8
 73
     4
 74
     0
 42
0.0000000001
 43
0.0000000001
 40
0.0
 40
0.0
 40
0.0
 40
0.0
 40
1.0
 40
1.0
 40
1.0
 40
1.0
 10
-10.1785
 20
-6.4123
 30
0.0
 10
-10.1785
 20
-6.4123
 30
0.0
 10
-13.8623
 20
-6.4123
 30
0.0
 10
-13.8623
 20
-6.4123
 30
0.0
  0
SPLINE
  5
57
330
1F
100
AcDbEntity
  8
ROUND
 62
   250
100
AcDbSpline
210
0.0
220
0.0
230
1.0
 70
    24
 71
     3
 72
     8
 73
     4
 74
     0
 42
0.0000000001
 43
0.0000000001
 40
0.0
 40
0.0
 40
0.0
 40
0.0
 40
1.0
 40
1.0
 40
1.0
 40
1.0
 10
-13.8623
 20
-31.9945
 30
0.0
 10
-13.8623
 20
-31.9945
 30
0.0
 10
-13.8623
 20
-6.4123
 30
0.0
 10
-13.8623
 20
-6.4123
 30
0.0
  0
SPLINE
  5
58
330
1F
100
AcDbEntity
  8
ROUND
  6
NEW_LINE1
 62
   250
100
AcDbSpline
210
0.0
220
0.0
230
1.0
 70
    24
 71
     3
 72
     8
 73
     4
 74
     0
 42
0.0000000001
 43
0.0000000001
 40
0.0
 40
0.0
 40
0.0
 40
0.0
 40
1.0
 40
1.0
 40
1.0
 40
1.0
 10
-18.9787
 20
-2.6819
 30
0.0
 10
-18.9787
 20
-2.6819
 30
0.0
 10
-18.9787
 20
-32.4038
 30
0.0
 10
-18.9787
 20
-32.4038
 30
0.0
  0
SPLINE
  5
5A
330
1F
100
AcDbEntity
  8
ROUND
 62
   250
100
AcDbSpline
210
0.0
220
0.0
230
1.0
 70
    24
 71
     3
 72
     8
 73
     4
 74
     0
 42
0.0000000001
 43
0.0000000001
 40
0.0
 40
0.0
 40
0.0
 40
0.0
 40
1.0
 40
1.0
 40
1.0
 40
1.0
 10
-20.616
 20
9.9602
 30
0.0
 10
-20.616
 20
9.9602
 30
0.0
 10
-20.616
 20
24.2862
 30
0.0
 10
-20.616
 20
24.2862
 30
0.0
  0
SPLINE
  5
5B
330
1F
100
AcDbEntity
  8
ROUND
 62
   250
100
AcDbSpline
210
0.0
220
0.0
230
1.0
 70
    24
 71
     3
 72
     8
 73
     4
 74
     0
 42
0.0000000001
 43
0.0000000001
 40
0.0
 40
0.0
 40
0.0
 40
0.0
 40
1.0
 40
1.0
 40
1.0
 40
1.0
 10
-24.0952
 20
-31.9945
 30
0.0
 10
-24.0952
 20
-31.9945
 30
0.0
 10
-24.0952
 20
-1.2959
 30
0.0
 10
-24.0952
 20
-1.2959
 30
0.0
  0
SPLINE
  5
5C
330
1F
100
AcDbEntity
  8
ROUND
 62
   250
100
AcDbSpline
210
0.0
220
0.0
230
1.0
 70
    24
 71
     3
 72
     8
 73
     4
 74
     0
 42
0.0000000001
 43
0.0000000001
 40
0.0
 40
0.0
 40
0.0
 40
0.0
 40
1.0
 40
1.0
 40
1.0
 40
1.0
 10
-20.616
 20
9.9602
 30
0.0
 10
-20.616
 20
9.9602
 30
0.0
 10
-25.1185
 20
9.9602
 30
0.0
 10
-25.1185
 20
9.9602
 30
0.0
  0
SPLINE
  5
5D
330
1F
100
AcDbEntity
  8
ROUND
 62
   250
100
AcDbSpline
210
0.0
220
0.0
230
1.0
 70
    24
 71
     3
 72
     8
 73
     4
 74
     0
 42
0.0000000001
 43
0.0000000001
 40
0.0
 40
0.0
 40
0.0
 40
0.0
 40
1.0
 40
1.0
 40
1.0
 40
1.0
 10
-18.3648
 20
11.1882
 30
0.0
 10
-18.3648
 20
11.1882
 30
0.0
 10
-20.616
 20
11.1882
 30
0.0
 10
-20.616
 20
11.1882
 30
0.0
  0
SPLINE
  5
5E
330
1F
100
AcDbEntity
  8
ROUND
  6
NEW_LINE2
 62
   250
100
AcDbSpline
210
0.0
220
0.0
230
1.0
 70
    24
 71
     3
 72
     8
 73
     4
 74
     0
 42
0.0000000001
 43
0.0000000001
 40
0.0
 40
0.0
 40
0.0
 40
0.0
 40
1.0
 40
1.0
 40
1.0
 40
1.0
 10
-26.1417
 20
17.1232
 30
0.0
 10
-26.1417
 20
17.1232
 30
0.0
 10
-16.3224
 20
17.1232
 30
0.0
 10
-16.3224
 20
17.1232
 30
0.0
  0
SPLINE
  5
60
330
1F
100
AcDbEntity
  8
ROUND
 62
   250
100
AcDbSpline
210
0.0
220
0.0
230
1.0
 70
    24
 71
     3
 72
     8
 73
     4
 74
     0
 42
0.0000000001
 43
0.0000000001
 40
0.0
 40
0.0
 40
0.0
 40
0.0
 40
1.0
 40
1.0
 40
1.0
 40
1.0
 10
-18.3648
 20
23.0583
 30
0.0
 10
-18.3648
 20
23.0583
 30
0.0
 10
-20.616
 20
23.0583
 30
0.0
 10
-20.616
 20
23.0583
 30
0.0
  0
SPLINE
  5
61
330
1F
100
AcDbEntity
  8
ROUND
 62
   250
100
AcDbSpline
210
0.0
220
0.0
230
1.0
 70
    24
 71
     3
 72
     8
 73
     4
 74
     0
 42
0.0000000001
 43
0.0000000001
 40
0.0
 40
0.0
 40
0.0
 40
0.0
 40
1.0
 40
1.0
 40
1.0
 40
1.0
 10
-20.616
 20
24.2862
 30
0.0
 10
-20.616
 20
24.2862
 30
0.0
 10
-25.1185
 20
24.2862
 30
0.0
 10
-25.1185
 20
24.2862
 30
0.0
  0
SPLINE
  5
62
330
1F
100
AcDbEntity
  8
ROUND
 62
   250
100
AcDbSpline
210
0.0
220
0.0
230
1.0
 70
    24
 71
     3
 72
     8
 73
     4
 74
     0
 42
0.0000000001
 43
0.0000000001
 40
0.0
 40
0.0
 40
0.0
 40
0.0
 40
1.0
 40
1.0
 40
1.0
 40
1.0
 10
25.9199
 20
-31.9945
 30
0.0
 10
25.9199
 20
-31.9945
 30
0.0
 10
15.6871
 20
-31.9945
 30
0.0
 10
15.6871
 20
-31.9945
 30
0.0
  0
SPLINE
  5
63
330
1F
100
AcDbEntity
  8
ROUND
 62
   250
100
AcDbSpline
210
0.0
220
0.0
230
1.0
 70
    24
 71
     3
 72
     8
 73
     4
 74
     0
 42
0.0000000001
 43
0.0000000001
 40
0.0
 40
0.0
 40
0.0
 40
0.0
 40
1.0
 40
1.0
 40
1.0
 40
1.0
 10
25.9199
 20
-31.9945
 30
0.0
 10
25.9199
 20
-31.9945
 30
0.0
 10
25.9199
 20
-1.2959
 30
0.0
 10
25.9199
 20
-1.2959
 30
0.0
  0
SPLINE
  5
64
330
1F
100
AcDbEntity
  8
ROUND
  6
NEW_LINE3
 62
   250
100
AcDbSpline
210
0.0
220
0.0
230
1.0
 70
    24
 71
     3
 72
     8
 73
     4
 74
     0
 42
0.0000000001
 43
0.0000000001
 40
0.0
 40
0.0
 40
0.0
 40
0.0
 40
1.0
 40
1.0
 40
1.0
 40
1.0
 10
15.4847
 20
-1.2959
 30
0.0
 10
15.4847
 20
-1.2959
 30
0.0
 10
26.3293
 20
-1.2959
 30
0.0
 10
26.3293
 20
-1.2959
 30
0.0
  0
SPLINE
  5
66
330
1F
100
AcDbEntity
  8
ROUND
  6
NEW_LINE4
 62
   250
100
AcDbSpline
210
0.0
220
0.0
230
1.0
 70
    24
 71
     3
 72
     8
 73
     4
 74
     0
 42
0.0000000001
 43
0.0000000001
 40
0.0
 40
0.0
 40
0.0
 40
0.0
 40
1.0
 40
1.0
 40
1.0
 40
1.0
 10
20.8035
 20
25.1868
 30
0.0
 10
20.8035
 20
25.1868
 30
0.0
 10
20.8035
 20
8.9313
 30
0.0
 10
20.8035
 20
8.9313
 30
0.0
  0
SPLINE
  5
68
330
1F
100
AcDbEntity
  8
ROUND
  6
NEW_LINE5
 62
   250
100
AcDbSpline
210
0.0
220
0.0
230
1.0
 70
    24
 71
     3
 72
     8
 73
     4
 74
     0
 42
0.0000000001
 43
0.0000000001
 40
0.0
 40
0.0
 40
0.0
 40
0.0
 40
1.0
 40
1.0
 40
1.0
 40
1.0
 10
20.8035
 20
4.7655
 30
0.0
 10
20.8035
 20
4.7655
 30
0.0
 10
20.8035
 20
-32.4038
 30
0.0
 10
20.8035
 20
-32.4038
 30
0.0
  0
SPLINE
  5
6A
330
1F
100
AcDbEntity
  8
ROUND
 62
   250
100
AcDbSpline
210
0.0
220
0.0
230
1.0
 70
    24
 71
     3
 72
     8
 73
     4
 74
     0
 42
0.0000000001
 43
0.0000000001
 40
0.0
 40
0.0
 40
0.0
 40
0.0
 40
1.0
 40
1.0
 40
1.0
 40
1.0
 10
15.6871
 20
-31.9945
 30
0.0
 10
15.6871
 20
-31.9945
 30
0.0
 10
15.6871
 20
-1.2959
 30
0.0
 10
15.6871
 20
-1.2959
 30
0.0
  0
SPLINE
  5
6B
330
1F
100
AcDbEntity
  8
ROUND
  6
NEW_LINE6
 62
   250
100
AcDbSpline
210
0.0
220
0.0
230
1.0
 70
    24
 71
     3
 72
     8
 73
     4
 74
     0
 42
0.0000000001
 43
0.0000000001
 40
0.0
 40
0.0
 40
0.0
 40
0.0
 40
1.0
 40
1.0
 40
1.0
 40
1.0
 10
28.7919
 20
17.1232
 30
0.0
 10
28.7919
 20
17.1232
 30
0.0
 10
13.3313
 20
17.1232
 30
0.0
 10
13.3313
 20
17.1232
 30
0.0
  0
SPLINE
  5
6D
330
1F
100
AcDbEntity
  8
ROUND
 62
   250
100
AcDbSpline
210
0.0
220
0.0
230
1.0
 70
     8
 71
     3
 72
     8
 73
     4
 74
     0
 42
0.0000000001
 43
0.0000000001
 40
0.0
 40
0.0
 40
0.0
 40
0.0
 40
1.0
 40
1.0
 40
1.0
 40
1.0
 10
-18.9787
 20
3.8205
 30
0.0
 10
-21.8044
 20
3.8205
 30
0.0
 10
-24.0952
 20
1.5299
 30
0.0
 10
-24.0952
 20
-1.2959
 30
0.0
  0
SPLINE
  5
6E
330
1F
100
AcDbEntity
  8
ROUND
 62
   250
100
AcDbSpline
210
0.0
220
0.0
230
1.0
 70
    24
 71
     3
 72
     8
 73
     4
 74
     0
 42
0.0000000001
 43
0.0000000001
 40
0.0
 40
0.0
 40
0.0
 40
0.0
 40
1.0
 40
1.0
 40
1.0
 40
1.0
 10
-9.7692
 20
-6.003
 30
0.0
 10
-9.7692
 20
-6.003
 30
0.0
 10
-9.7692
 20
28.9934
 30
0.0
 10
-9.7692
 20
28.9934
 30
0.0
  0
SPLINE
  5
6F
330
1F
100
AcDbEntity
  8
ROUND
 62
   250
100
AcDbSpline
210
0.0
220
0.0
230
1.0
 70
    24
 71
     3
 72
     8
 73
     4
 74
     0
 42
0.0000000001
 43
0.0000000001
 40
0.0
 40
0.0
 40
0.0
 40
0.0
 40
1.0
 40
1.0
 40
1.0
 40
1.0
 10
-17.9554
 20
1.1191
 30
0.0
 10
-17.9554
 20
1.1191
 30
0.0
 10
-17.9554
 20
28.9934
 30
0.0
 10
-17.9554
 20
28.9934
 30
0.0
  0
SPLINE
  5
70
330
1F
100
AcDbEntity
  8
ROUND
 62
   250
100
AcDbSpline
210
0.0
220
0.0
230
1.0
 70
    24
 71
     3
 72
     8
 73
     4
 74
     0
 42
0.0000000001
 43
0.0000000001
 40
0.0
 40
0.0
 40
0.0
 40
0.0
 40
1.0
 40
1.0
 40
1.0
 40
1.0
 10
-10.1785
 20
0.7507
 30
0.0
 10
-10.1785
 20
0.7507
 30
0.0
 10
-17.5461
 20
0.7507
 30
0.0
 10
-17.5461
 20
0.7507
 30
0.0
  0
SPLINE
  5
71
330
1F
100
AcDbEntity
  8
ROUND
 62
   250
100
AcDbSpline
210
0.0
220
0.0
230
1.0
 70
    24
 71
     3
 72
     8
 73
     4
 74
     0
 42
0.0000000001
 43
0.0000000001
 40
0.0
 40
0.0
 40
0.0
 40
0.0
 40
1.0
 40
1.0
 40
1.0
 40
1.0
 10
-25.7324
 20
23.6723
 30
0.0
 10
-25.7324
 20
23.6723
 30
0.0
 10
-25.7324
 20
10.5742
 30
0.0
 10
-25.7324
 20
10.5742
 30
0.0
  0
SPLINE
  5
72
330
1F
100
AcDbEntity
  8
ROUND
 62
   250
100
AcDbSpline
210
0.0
220
0.0
230
1.0
 70
    24
 71
     3
 72
     8
 73
     4
 74
     0
 42
0.0000000001
 43
0.0000000001
 40
0.0
 40
0.0
 40
0.0
 40
0.0
 40
1.0
 40
1.0
 40
1.0
 40
1.0
 10
-17.5461
 20
29.4027
 30
0.0
 10
-17.5461
 20
29.4027
 30
0.0
 10
-10.1785
 20
29.4027
 30
0.0
 10
-10.1785
 20
29.4027
 30
0.0
  0
SPLINE
  5
73
330
1F
100
AcDbEntity
  8
ROUND
 62
   250
100
AcDbSpline
210
0.0
220
0.0
230
1.0
 70
    24
 71
     3
 72
     8
 73
     4
 74
     0
 42
0.0000000001
 43
0.0000000001
 40
0.0
 40
0.0
 40
0.0
 40
0.0
 40
1.0
 40
1.0
 40
1.0
 40
1.0
 10
31.0364
 20
9.9602
 30
0.0
 10
31.0364
 20
9.9602
 30
0.0
 10
31.0364
 20
16.2028
 30
0.0
 10
31.0364
 20
16.2028
 30
0.0
  0
SPLINE
  5
74
330
1F
100
AcDbEntity
  8
ROUND
 62
   250
100
AcDbSpline
210
0.0
220
0.0
230
1.0
 70
    24
 71
     3
 72
     8
 73
     4
 74
     0
 42
0.0000000001
 43
0.0000000001
 40
0.0
 40
0.0
 40
0.0
 40
0.0
 40
1.0
 40
1.0
 40
1.0
 40
1.0
 10
10.5706
 20
22.2397
 30
0.0
 10
10.5706
 20
22.2397
 30
0.0
 10
10.5706
 20
9.9602
 30
0.0
 10
10.5706
 20
9.9602
 30
0.0
  0
SPLINE
  5
75
330
1F
100
AcDbEntity
  8
ROUND
 62
   250
100
AcDbSpline
210
0.0
220
0.0
230
1.0
 70
    24
 71
     3
 72
     8
 73
     4
 74
     0
 42
0.0000000001
 43
0.0000000001
 40
0.0
 40
0.0
 40
0.0
 40
0.0
 40
1.0
 40
1.0
 40
1.0
 40
1.0
 10
28.9384
 20
21.2678
 30
0.0
 10
28.9384
 20
21.2678
 30
0.0
 10
22.9015
 20
27.3047
 30
0.0
 10
22.9015
 20
27.3047
 30
0.0
  0
SPLINE
  5
76
330
1F
100
AcDbEntity
  8
ROUND
 62
   250
100
AcDbSpline
210
0.0
220
0.0
230
1.0
 70
     8
 71
     3
 72
     8
 73
     4
 74
     0
 42
0.0000000001
 43
0.0000000001
 40
0.0
 40
0.0
 40
0.0
 40
0.0
 40
1.0
 40
1.0
 40
1.0
 40
1.0
 10
-25.7324
 20
10.5742
 30
0.0
 10
-25.7324
 20
10.2351
 30
0.0
 10
-25.4575
 20
9.9602
 30
0.0
 10
-25.1185
 20
9.9602
 30
0.0
  0
SPLINE
  5
77
330
1F
100
AcDbEntity
  8
ROUND
 62
   250
100
AcDbSpline
210
0.0
220
0.0
230
1.0
 70
     8
 71
     3
 72
     8
 73
     4
 74
     0
 42
0.0000000001
 43
0.0000000001
 40
0.0
 40
0.0
 40
0.0
 40
0.0
 40
1.0
 40
1.0
 40
1.0
 40
1.0
 10
-25.1185
 20
24.2862
 30
0.0
 10
-25.4575
 20
24.2862
 30
0.0
 10
-25.7324
 20
24.0113
 30
0.0
 10
-25.7324
 20
23.6723
 30
0.0
  0
SPLINE
  5
78
330
1F
100
AcDbEntity
  8
ROUND
 62
   250
100
AcDbSpline
210
0.0
220
0.0
230
1.0
 70
     8
 71
     3
 72
     8
 73
     4
 74
     0
 42
0.0000000001
 43
0.0000000001
 40
0.0
 40
0.0
 40
0.0
 40
0.0
 40
1.0
 40
1.0
 40
1.0
 40
1.0
 10
-10.1785
 20
-6.4123
 30
0.0
 10
-9.9524
 20
-6.4123
 30
0.0
 10
-9.7692
 20
-6.2291
 30
0.0
 10
-9.7692
 20
-6.003
 30
0.0
  0
SPLINE
  5
79
330
1F
100
AcDbEntity
  8
ROUND
 62
   250
100
AcDbSpline
210
0.0
220
0.0
230
1.0
 70
     8
 71
     3
 72
     8
 73
     4
 74
     0
 42
0.0000000001
 43
0.0000000001
 40
0.0
 40
0.0
 40
0.0
 40
0.0
 40
1.0
 40
1.0
 40
1.0
 40
1.0
 10
-17.5461
 20
29.4027
 30
0.0
 10
-17.7722
 20
29.4027
 30
0.0
 10
-17.9554
 20
29.2194
 30
0.0
 10
-17.9554
 20
28.9934
 30
0.0
  0
SPLINE
  5
7A
330
1F
100
AcDbEntity
  8
ROUND
 62
   250
100
AcDbSpline
210
0.0
220
0.0
230
1.0
 70
     8
 71
     3
 72
     8
 73
     4
 74
     0
 42
0.0000000001
 43
0.0000000001
 40
0.0
 40
0.0
 40
0.0
 40
0.0
 40
1.0
 40
1.0
 40
1.0
 40
1.0
 10
-17.9554
 20
10.7789
 30
0.0
 10
-17.9554
 20
11.0049
 30
0.0
 10
-18.1387
 20
11.1882
 30
0.0
 10
-18.3648
 20
11.1882
 30
0.0
  0
SPLINE
  5
7B
330
1F
100
AcDbEntity
  8
ROUND
 62
   250
100
AcDbSpline
210
0.0
220
0.0
230
1.0
 70
     8
 71
     3
 72
     8
 73
     4
 74
     0
 42
0.0000000001
 43
0.0000000001
 40
0.0
 40
0.0
 40
0.0
 40
0.0
 40
1.0
 40
1.0
 40
1.0
 40
1.0
 10
-18.3648
 20
23.0583
 30
0.0
 10
-18.1387
 20
23.0583
 30
0.0
 10
-17.9554
 20
23.2415
 30
0.0
 10
-17.9554
 20
23.4676
 30
0.0
  0
SPLINE
  5
7C
330
1F
100
AcDbEntity
  8
ROUND
 62
   250
100
AcDbSpline
210
0.0
220
0.0
230
1.0
 70
     8
 71
     3
 72
     8
 73
     4
 74
     0
 42
0.0000000001
 43
0.0000000001
 40
0.0
 40
0.0
 40
0.0
 40
0.0
 40
1.0
 40
1.0
 40
1.0
 40
1.0
 10
-9.7692
 20
28.9934
 30
0.0
 10
-9.7692
 20
29.2194
 30
0.0
 10
-9.9524
 20
29.4027
 30
0.0
 10
-10.1785
 20
29.4027
 30
0.0
  0
SPLINE
  5
7D
330
1F
100
AcDbEntity
  8
ROUND
 62
   250
100
AcDbSpline
210
0.0
220
0.0
230
1.0
 70
     8
 71
     3
 72
     8
 73
     4
 74
     0
 42
0.0000000001
 43
0.0000000001
 40
0.0
 40
0.0
 40
0.0
 40
0.0
 40
1.0
 40
1.0
 40
1.0
 40
1.0
 10
25.4928
 20
0.7507
 30
0.0
 10
28.9341
 20
2.5247
 30
0.0
 10
31.0796
 20
6.0889
 30
0.0
 10
31.0364
 20
9.9602
 30
0.0
  0
SPLINE
  5
7E
330
1F
100
AcDbEntity
  8
ROUND
 62
   250
100
AcDbSpline
210
0.0
220
0.0
230
1.0
 70
     8
 71
     3
 72
     8
 73
     4
 74
     0
 42
0.0000000001
 43
0.0000000001
 40
0.0
 40
0.0
 40
0.0
 40
0.0
 40
1.0
 40
1.0
 40
1.0
 40
1.0
 10
10.5706
 20
9.9602
 30
0.0
 10
10.5706
 20
6.0042
 30
0.0
 10
13.7776
 20
2.7973
 30
0.0
 10
17.7336
 20
2.7973
 30
0.0
  0
SPLINE
  5
7F
330
1F
100
AcDbEntity
  8
ROUND
 62
   250
100
AcDbSpline
210
0.0
220
0.0
230
1.0
 70
     8
 71
     3
 72
     8
 73
     4
 74
     0
 42
0.0000000001
 43
0.0000000001
 40
0.0
 40
0.0
 40
0.0
 40
0.0
 40
1.0
 40
1.0
 40
1.0
 40
1.0
 10
17.7336
 20
2.7973
 30
0.0
 10
17.7042
 20
2.7752
 30
0.0
 10
17.675
 20
2.7528
 30
0.0
 10
17.6461
 20
2.7301
 30
0.0
  0
SPLINE
  5
80
330
1F
100
AcDbEntity
  8
ROUND
 62
   250
100
AcDbSpline
210
0.0
220
0.0
230
1.0
 70
     8
 71
     3
 72
     8
 73
     4
 74
     0
 42
0.0000000001
 43
0.0000000001
 40
0.0
 40
0.0
 40
0.0
 40
0.0
 40
1.0
 40
1.0
 40
1.0
 40
1.0
 10
15.6882
 20
-1.1899
 30
0.0
 10
15.6874
 20
-1.2252
 30
0.0
 10
15.6871
 20
-1.2606
 30
0.0
 10
15.6871
 20
-1.2959
 30
0.0
  0
SPLINE
  5
81
330
1F
100
AcDbEntity
  8
ROUND
 62
   250
100
AcDbSpline
210
0.0
220
0.0
230
1.0
 70
     8
 71
     3
 72
     8
 73
     4
 74
     0
 42
0.0000000001
 43
0.0000000001
 40
0.0
 40
0.0
 40
0.0
 40
0.0
 40
1.0
 40
1.0
 40
1.0
 40
1.0
 10
31.0364
 20
16.2028
 30
0.0
 10
31.0364
 20
18.1026
 30
0.0
 10
30.2817
 20
19.9245
 30
0.0
 10
28.9384
 20
21.2678
 30
0.0
  0
SPLINE
  5
82
330
1F
100
AcDbEntity
  8
ROUND
 62
   250
100
AcDbSpline
210
0.0
220
0.0
230
1.0
 70
    11
 71
     3
 72
    20
 73
    16
 74
     0
 42
0.0000000001
 43
0.0000000001
 40
0.0
 40
0.0
 40
0.0
 40
0.0
 40
0.2
 40
0.2
 40
0.2
 40
0.2
 40
0.4
 40
0.4
 40
0.4
 40
0.4
 40
0.6
 40
0.6
 40
0.6
 40
0.6
 40
1.0
 40
1.0
 40
1.0
 40
1.0
 10
20.8035
 20
24.2862
 30
0.0
 10
16.8475
 20
24.2862
 30
0.0
 10
13.6405
 20
21.0793
 30
0.0
 10
13.6405
 20
17.1232
 30
0.0
 10
13.6405
 20
17.1232
 30
0.0
 10
13.6405
 20
13.1672
 30
0.0
 10
16.8475
 20
9.9602
 30
0.0
 10
20.8035
 20
9.9602
 30
0.0
 10
20.8035
 20
9.9602
 30
0.0
 10
24.7595
 20
9.9602
 30
0.0
 10
27.9665
 20
13.1672
 30
0.0
 10
27.9665
 20
17.1232
 30
0.0
 10
27.9665
 20
17.1232
 30
0.0
 10
27.9665
 20
21.0793
 30
0.0
 10
24.7595
 20
24.2862
 30
0.0
 10
20.8035
 20
24.2862
 30
0.0
  0
SPLINE
  5
83
330
1F
100
AcDbEntity
  8
ROUND
 62
   250
100
AcDbSpline
210
0.0
220
0.0
230
1.0
 70
     8
 71
     3
 72
     8
 73
     4
 74
     0
 42
0.0000000001
 43
0.0000000001
 40
0.0
 40
0.0
 40
0.0
 40
0.0
 40
1.0
 40
1.0
 40
1.0
 40
1.0
 10
22.9015
 20
27.3047
 30
0.0
 10
21.5582
 20
28.648
 30
0.0
 10
19.6348
 20
29.4027
 30
0.0
 10
17.735
 20
29.4027
 30
0.0
  0
SPLINE
  5
84
330
1F
100
AcDbEntity
  8
ROUND
 62
   250
100
AcDbSpline
210
0.0
220
0.0
230
1.0
 70
     8
 71
     3
 72
     8
 73
     4
 74
     0
 42
0.0000000001
 43
0.0000000001
 40
0.0
 40
0.0
 40
0.0
 40
0.0
 40
1.0
 40
1.0
 40
1.0
 40
1.0
 10
17.7336
 20
29.4027
 30
0.0
 10
13.7776
 20
29.4027
 30
0.0
 10
10.5706
 20
26.1957
 30
0.0
 10
10.5706
 20
22.2397
 30
0.0
  0
SPLINE
  5
85
330
1F
100
AcDbEntity
  8
ROUND
 62
   250
100
AcDbSpline
210
0.0
220
0.0
230
1.0
 70
    11
 71
     3
 72
    20
 73
    16
 74
     0
 42
0.0000000001
 43
0.0000000001
 40
0.0
 40
0.0
 40
0.0
 40
0.0
 40
0.2
 40
0.2
 40
0.2
 40
0.2
 40
0.4
 40
0.4
 40
0.4
 40
0.4
 40
0.6
 40
0.6
 40
0.6
 40
0.6
 40
1.0
 40
1.0
 40
1.0
 40
1.0
 10
20.8035
 20
22.3607
 30
0.0
 10
17.911
 20
22.3607
 30
0.0
 10
15.5661
 20
20.0158
 30
0.0
 10
15.5661
 20
17.1232
 30
0.0
 10
15.5661
 20
17.1232
 30
0.0
 10
15.5661
 20
14.2307
 30
0.0
 10
17.911
 20
11.8858
 30
0.0
 10
20.8035
 20
11.8858
 30
0.0
 10
20.8035
 20
11.8858
 30
0.0
 10
23.696
 20
11.8858
 30
0.0
 10
26.0409
 20
14.2307
 30
0.0
 10
26.0409
 20
17.1232
 30
0.0
 10
26.0409
 20
17.1232
 30
0.0
 10
26.0409
 20
20.0158
 30
0.0
 10
23.696
 20
22.3607
 30
0.0
 10
20.8035
 20
22.3607
 30
0.0
  0
SPLINE
  5
86
330
1F
100
AcDbEntity
  8
ROUND
 62
   250
100
AcDbSpline
210
0.0
220
0.0
230
1.0
 70
     8
 71
     3
 72
    72
 73
    68
 74
     0
 42
0.0000000001
 43
0.0000000001
 40
0.0
 40
0.0
 40
0.0
 40
0.0
 40
0.0555555555555556
 40
0.0555555555555556
 40
0.0555555555555556
 40
0.0555555555555556
 40
0.1111111111111111
 40
0.1111111111111111
 40
0.1111111111111111
 40
0.1111111111111111
 40
0.1666666666666667
 40
0.1666666666666667
 40
0.1666666666666667
 40
0.1666666666666667
 40
0.2222222222222222
 40
0.2222222222222222
 40
0.2222222222222222
 40
0.2222222222222222
 40
0.2777777777777778
 40
0.2777777777777778
 40
0.2777777777777778
 40
0.2777777777777778
 40
0.3333333333333333
 40
0.3333333333333333
 40
0.3333333333333333
 40
0.3333333333333333
 40
0.3888888888888889
 40
0.3888888888888889
 40
0.3888888888888889
 40
0.3888888888888889
 40
0.4444444444444444
 40
0.4444444444444444
 40
0.4444444444444444
 40
0.4444444444444444
 40
0.5
 40
0.5
 40
0.5
 40
0.5
 40
0.5555555555555556
 40
0.5555555555555556
 40
0.5555555555555556
 40
0.5555555555555556
 40
0.6111111111111112
 40
0.6111111111111112
 40
0.6111111111111112
 40
0.6111111111111112
 40
0.6666666666666666
 40
0.6666666666666666
 40
0.6666666666666666
 40
0.6666666666666666
 40
0.7222222222222222
 40
0.7222222222222222
 40
0.7222222222222222
 40
0.7222222222222222
 40
0.7777777777777778
 40
0.7777777777777778
 40
0.7777777777777778
 40
0.7777777777777778
 40
0.8333333333333334
 40
0.8333333333333334
 40
0.8333333333333334
 40
0.8333333333333334
 40
0.8888888888888888
 40
0.8888888888888888
 40
0.8888888888888888
 40
0.8888888888888888
 40
1.0
 40
1.0
 40
1.0
 40
1.0
 10
-17.5461
 20
0.7507
 30
0.0
 10
-17.5461
 20
0.7507
 30
0.0
 10
-17.5838
 20
0.7523
 30
0.0
 10
-17.5838
 20
0.7523
 30
0.0
 10
-17.5838
 20
0.7523
 30
0.0
 10
-17.5838
 20
0.7523
 30
0.0
 10
-17.6213
 20
0.7571
 30
0.0
 10
-17.6213
 20
0.7571
 30
0.0
 10
-17.6213
 20
0.7571
 30
0.0
 10
-17.6213
 20
0.7571
 30
0.0
 10
-17.6581
 20
0.765
 30
0.0
 10
-17.6581
 20
0.765
 30
0.0
 10
-17.6581
 20
0.765
 30
0.0
 10
-17.6581
 20
0.765
 30
0.0
 10
-17.6939
 20
0.776
 30
0.0
 10
-17.6939
 20
0.776
 30
0.0
 10
-17.6939
 20
0.776
 30
0.0
 10
-17.6939
 20
0.776
 30
0.0
 10
-17.7285
 20
0.79
 30
0.0
 10
-17.7285
 20
0.79
 30
0.0
 10
-17.7285
 20
0.79
 30
0.0
 10
-17.7285
 20
0.79
 30
0.0
 10
-17.7616
 20
0.8068
 30
0.0
 10
-17.7616
 20
0.8068
 30
0.0
 10
-17.7616
 20
0.8068
 30
0.0
 10
-17.7616
 20
0.8068
 30
0.0
 10
-17.7928
 20
0.8263
 30
0.0
 10
-17.7928
 20
0.8263
 30
0.0
 10
-17.7928
 20
0.8263
 30
0.0
 10
-17.7928
 20
0.8263
 30
0.0
 10
-17.822
 20
0.8484
 30
0.0
 10
-17.822
 20
0.8484
 30
0.0
 10
-17.822
 20
0.8484
 30
0.0
 10
-17.822
 20
0.8484
 30
0.0
 10
-17.8487
 20
0.8726
 30
0.0
 10
-17.8487
 20
0.8726
 30
0.0
 10
-17.8487
 20
0.8726
 30
0.0
 10
-17.8487
 20
0.8726
 30
0.0
 10
-17.8729
 20
0.899
 30
0.0
 10
-17.8729
 20
0.899
 30
0.0
 10
-17.8729
 20
0.899
 30
0.0
 10
-17.8729
 20
0.899
 30
0.0
 10
-17.8942
 20
0.9271
 30
0.0
 10
-17.8942
 20
0.9271
 30
0.0
 10
-17.8942
 20
0.9271
 30
0.0
 10
-17.8942
 20
0.9271
 30
0.0
 10
-17.9126
 20
0.9569
 30
0.0
 10
-17.9126
 20
0.9569
 30
0.0
 10
-17.9126
 20
0.9569
 30
0.0
 10
-17.9126
 20
0.9569
 30
0.0
 10
-17.9279
 20
0.9879
 30
0.0
 10
-17.9279
 20
0.9879
 30
0.0
 10
-17.9279
 20
0.9879
 30
0.0
 10
-17.9279
 20
0.9879
 30
0.0
 10
-17.9399
 20
1.0199
 30
0.0
 10
-17.9399
 20
1.0199
 30
0.0
 10
-17.9399
 20
1.0199
 30
0.0
 10
-17.9399
 20
1.0199
 30
0.0
 10
-17.9485
 20
1.0526
 30
0.0
 10
-17.9485
 20
1.0526
 30
0.0
 10
-17.9485
 20
1.0526
 30
0.0
 10
-17.9485
 20
1.0526
 30
0.0
 10
-17.9537
 20
1.0858
 30
0.0
 10
-17.9537
 20
1.0858
 30
0.0
 10
-17.9537
 20
1.0858
 30
0.0
 10
-17.9537
 20
1.0858
 30
0.0
 10
-17.9554
 20
1.1191
 30
0.0
 10
-17.9554
 20
1.1191
 30
0.0
  0
SPLINE
  5
87
330
1F
100
AcDbEntity
  8
ROUND
 62
   250
100
AcDbSpline
210
0.0
220
0.0
230
1.0
 70
     8
 71
     3
 72
   132
 73
   128
 74
     0
 42
0.0000000001
 43
0.0000000001
 40
0.0
 40
0.0
 40
0.0
 40
0.0
 40
0.0303030303030303
 40
0.0303030303030303
 40
0.0303030303030303
 40
0.0303030303030303
 40
0.0606060606060606
 40
0.0606060606060606
 40
0.0606060606060606
 40
0.0606060606060606
 40
0.0909090909090909
 40
0.0909090909090909
 40
0.0909090909090909
 40
0.0909090909090909
 40
0.1212121212121212
 40
0.1212121212121212
 40
0.1212121212121212
 40
0.1212121212121212
 40
0.1515151515151515
 40
0.1515151515151515
 40
0.1515151515151515
 40
0.1515151515151515
 40
0.1818181818181818
 40
0.1818181818181818
 40
0.1818181818181818
 40
0.1818181818181818
 40
0.2121212121212121
 40
0.2121212121212121
 40
0.2121212121212121
 40
0.2121212121212121
 40
0.2424242424242424
 40
0.2424242424242424
 40
0.2424242424242424
 40
0.2424242424242424
 40
0.2727272727272727
 40
0.2727272727272727
 40
0.2727272727272727
 40
0.2727272727272727
 40
0.303030303030303
 40
0.303030303030303
 40
0.303030303030303
 40
0.303030303030303
 40
0.3333333333333333
 40
0.3333333333333333
 40
0.3333333333333333
 40
0.3333333333333333
 40
0.3636363636363636
 40
0.3636363636363636
 40
0.3636363636363636
 40
0.3636363636363636
 40
0.3939393939393939
 40
0.3939393939393939
 40
0.3939393939393939
 40
0.3939393939393939
 40
0.4242424242424243
 40
0.4242424242424243
 40
0.4242424242424243
 40
0.4242424242424243
 40
0.4545454545454545
 40
0.4545454545454545
 40
0.4545454545454545
 40
0.4545454545454545
 40
0.4848484848484849
 40
0.4848484848484849
 40
0.4848484848484849
 40
0.4848484848484849
 40
0.5151515151515151
 40
0.5151515151515151
 40
0.5151515151515151
 40
0.5151515151515151
 40
0.5454545454545454
 40
0.5454545454545454
 40
0.5454545454545454
 40
0.5454545454545454
 40
0.5757575757575758
 40
0.5757575757575758
 40
0.5757575757575758
 40
0.5757575757575758
 40
0.6060606060606061
 40
0.6060606060606061
 40
0.6060606060606061
 40
0.6060606060606061
 40
0.6363636363636364
 40
0.6363636363636364
 40
0.6363636363636364
 40
0.6363636363636364
 40
0.6666666666666666
 40
0.6666666666666666
 40
0.6666666666666666
 40
0.6666666666666666
 40
0.696969696969697
 40
0.696969696969697
 40
0.696969696969697
 40
0.696969696969697
 40
0.7272727272727273
 40
0.7272727272727273
 40
0.7272727272727273
 40
0.7272727272727273
 40
0.7575757575757576
 40
0.7575757575757576
 40
0.7575757575757576
 40
0.7575757575757576
 40
0.7878787878787878
 40
0.7878787878787878
 40
0.7878787878787878
 40
0.7878787878787878
 40
0.8181818181818182
 40
0.8181818181818182
 40
0.8181818181818182
 40
0.8181818181818182
 40
0.8484848484848485
 40
0.8484848484848485
 40
0.8484848484848485
 40
0.8484848484848485
 40
0.8787878787878788
 40
0.8787878787878788
 40
0.8787878787878788
 40
0.8787878787878788
 40
0.9090909090909091
 40
0.9090909090909091
 40
0.9090909090909091
 40
0.9090909090909091
 40
0.9393939393939394
 40
0.9393939393939394
 40
0.9393939393939394
 40
0.9393939393939394
 40
1.0
 40
1.0
 40
1.0
 40
1.0
 10
-10.1785
 20
0.7507
 30
0.0
 10
-10.1785
 20
0.7507
 30
0.0
 10
-10.152
 20
0.7511
 30
0.0
 10
-10.152
 20
0.7511
 30
0.0
 10
-10.152
 20
0.7511
 30
0.0
 10
-10.152
 20
0.7511
 30
0.0
 10
-10.1262
 20
0.7522
 30
0.0
 10
-10.1262
 20
0.7522
 30
0.0
 10
-10.1262
 20
0.7522
 30
0.0
 10
-10.1262
 20
0.7522
 30
0.0
 10
-10.1011
 20
0.7541
 30
0.0
 10
-10.1011
 20
0.7541
 30
0.0
 10
-10.1011
 20
0.7541
 30
0.0
 10
-10.1011
 20
0.7541
 30
0.0
 10
-10.0769
 20
0.7566
 30
0.0
 10
-10.0769
 20
0.7566
 30
0.0
 10
-10.0769
 20
0.7566
 30
0.0
 10
-10.0769
 20
0.7566
 30
0.0
 10
-10.0535
 20
0.7597
 30
0.0
 10
-10.0535
 20
0.7597
 30
0.0
 10
-10.0535
 20
0.7597
 30
0.0
 10
-10.0535
 20
0.7597
 30
0.0
 10
-10.0312
 20
0.7633
 30
0.0
 10
-10.0312
 20
0.7633
 30
0.0
 10
-10.0312
 20
0.7633
 30
0.0
 10
-10.0312
 20
0.7633
 30
0.0
 10
-10.0097
 20
0.7674
 30
0.0
 10
-10.0097
 20
0.7674
 30
0.0
 10
-10.0097
 20
0.7674
 30
0.0
 10
-10.0097
 20
0.7674
 30
0.0
 10
-9.9893
 20
0.772
 30
0.0
 10
-9.9893
 20
0.772
 30
0.0
 10
-9.9893
 20
0.772
 30
0.0
 10
-9.9893
 20
0.772
 30
0.0
 10
-9.9699
 20
0.7769
 30
0.0
 10
-9.9699
 20
0.7769
 30
0.0
 10
-9.9699
 20
0.7769
 30
0.0
 10
-9.9699
 20
0.7769
 30
0.0
 10
-9.9514
 20
0.7822
 30
0.0
 10
-9.9514
 20
0.7822
 30
0.0
 10
-9.9514
 20
0.7822
 30
0.0
 10
-9.9514
 20
0.7822
 30
0.0
 10
-9.934
 20
0.7879
 30
0.0
 10
-9.934
 20
0.7879
 30
0.0
 10
-9.934
 20
0.7879
 30
0.0
 10
-9.934
 20
0.7879
 30
0.0
 10
-9.9175
 20
0.7939
 30
0.0
 10
-9.9175
 20
0.7939
 30
0.0
 10
-9.9175
 20
0.7939
 30
0.0
 10
-9.9175
 20
0.7939
 30
0.0
 10
-9.902
 20
0.8001
 30
0.0
 10
-9.902
 20
0.8001
 30
0.0
 10
-9.902
 20
0.8001
 30
0.0
 10
-9.902
 20
0.8001
 30
0.0
 10
-9.8874
 20
0.8065
 30
0.0
 10
-9.8874
 20
0.8065
 30
0.0
 10
-9.8874
 20
0.8065
 30
0.0
 10
-9.8874
 20
0.8065
 30
0.0
 10
-9.8738
 20
0.8131
 30
0.0
 10
-9.8738
 20
0.8131
 30
0.0
 10
-9.8738
 20
0.8131
 30
0.0
 10
-9.8738
 20
0.8131
 30
0.0
 10
-9.861
 20
0.82
 30
0.0
 10
-9.861
 20
0.82
 30
0.0
 10
-9.861
 20
0.82
 30
0.0
 10
-9.861
 20
0.82
 30
0.0
 10
-9.8493
 20
0.827
 30
0.0
 10
-9.8493
 20
0.827
 30
0.0
 10
-9.8493
 20
0.827
 30
0.0
 10
-9.8493
 20
0.827
 30
0.0
 10
-9.8383
 20
0.8341
 30
0.0
 10
-9.8383
 20
0.8341
 30
0.0
 10
-9.8383
 20
0.8341
 30
0.0
 10
-9.8383
 20
0.8341
 30
0.0
 10
-9.8283
 20
0.8414
 30
0.0
 10
-9.8283
 20
0.8414
 30
0.0
 10
-9.8283
 20
0.8414
 30
0.0
 10
-9.8283
 20
0.8414
 30
0.0
 10
-9.8191
 20
0.8487
 30
0.0
 10
-9.8191
 20
0.8487
 30
0.0
 10
-9.8191
 20
0.8487
 30
0.0
 10
-9.8191
 20
0.8487
 30
0.0
 10
-9.8107
 20
0.8561
 30
0.0
 10
-9.8107
 20
0.8561
 30
0.0
 10
-9.8107
 20
0.8561
 30
0.0
 10
-9.8107
 20
0.8561
 30
0.0
 10
-9.8032
 20
0.8636
 30
0.0
 10
-9.8032
 20
0.8636
 30
0.0
 10
-9.8032
 20
0.8636
 30
0.0
 10
-9.8032
 20
0.8636
 30
0.0
 10
-9.7965
 20
0.8712
 30
0.0
 10
-9.7965
 20
0.8712
 30
0.0
 10
-9.7965
 20
0.8712
 30
0.0
 10
-9.7965
 20
0.8712
 30
0.0
 10
-9.7905
 20
0.8788
 30
0.0
 10
-9.7905
 20
0.8788
 30
0.0
 10
-9.7905
 20
0.8788
 30
0.0
 10
-9.7905
 20
0.8788
 30
0.0
 10
-9.7853
 20
0.8863
 30
0.0
 10
-9.7853
 20
0.8863
 30
0.0
 10
-9.7853
 20
0.8863
 30
0.0
 10
-9.7853
 20
0.8863
 30
0.0
 10
-9.7809
 20
0.8939
 30
0.0
 10
-9.7809
 20
0.8939
 30
0.0
 10
-9.7809
 20
0.8939
 30
0.0
 10
-9.7809
 20
0.8939
 30
0.0
 10
-9.7772
 20
0.9015
 30
0.0
 10
-9.7772
 20
0.9015
 30
0.0
 10
-9.7772
 20
0.9015
 30
0.0
 10
-9.7772
 20
0.9015
 30
0.0
 10
-9.7743
 20
0.9091
 30
0.0
 10
-9.7743
 20
0.9091
 30
0.0
 10
-9.7743
 20
0.9091
 30
0.0
 10
-9.7743
 20
0.9091
 30
0.0
 10
-9.772
 20
0.9166
 30
0.0
 10
-9.772
 20
0.9166
 30
0.0
 10
-9.772
 20
0.9166
 30
0.0
 10
-9.772
 20
0.9166
 30
0.0
 10
-9.7704
 20
0.924
 30
0.0
 10
-9.7704
 20
0.924
 30
0.0
 10
-9.7704
 20
0.924
 30
0.0
 10
-9.7704
 20
0.924
 30
0.0
 10
-9.7694
 20
0.9314
 30
0.0
 10
-9.7694
 20
0.9314
 30
0.0
 10
-9.7694
 20
0.9314
 30
0.0
 10
-9.7694
 20
0.9314
 30
0.0
 10
-9.7692
 20
0.9387
 30
0.0
 10
-9.7692
 20
0.9387
 30
0.0
  0
SPLINE
  5
88
330
1F
100
AcDbEntity
  8
ROUND
 62
   250
100
AcDbSpline
210
0.0
220
0.0
230
1.0
 70
    11
 71
     3
 72
    84
 73
    80
 74
     0
 42
0.0000000001
 43
0.0000000001
 40
0.0
 40
0.0
 40
0.0
 40
0.0
 40
0.0476190476190476
 40
0.0476190476190476
 40
0.0476190476190476
 40
0.0476190476190476
 40
0.0952380952380952
 40
0.0952380952380952
 40
0.0952380952380952
 40
0.0952380952380952
 40
0.1428571428571428
 40
0.1428571428571428
 40
0.1428571428571428
 40
0.1428571428571428
 40
0.1904761904761905
 40
0.1904761904761905
 40
0.1904761904761905
 40
0.1904761904761905
 40
0.2380952380952381
 40
0.2380952380952381
 40
0.2380952380952381
 40
0.2380952380952381
 40
0.2857142857142857
 40
0.2857142857142857
 40
0.2857142857142857
 40
0.2857142857142857
 40
0.3333333333333333
 40
0.3333333333333333
 40
0.3333333333333333
 40
0.3333333333333333
 40
0.3809523809523809
 40
0.3809523809523809
 40
0.3809523809523809
 40
0.3809523809523809
 40
0.4285714285714285
 40
0.4285714285714285
 40
0.4285714285714285
 40
0.4285714285714285
 40
0.4761904761904762
 40
0.4761904761904762
 40
0.4761904761904762
 40
0.4761904761904762
 40
0.5238095238095238
 40
0.5238095238095238
 40
0.5238095238095238
 40
0.5238095238095238
 40
0.5714285714285714
 40
0.5714285714285714
 40
0.5714285714285714
 40
0.5714285714285714
 40
0.6190476190476191
 40
0.6190476190476191
 40
0.6190476190476191
 40
0.6190476190476191
 40
0.6666666666666666
 40
0.6666666666666666
 40
0.6666666666666666
 40
0.6666666666666666
 40
0.7142857142857143
 40
0.7142857142857143
 40
0.7142857142857143
 40
0.7142857142857143
 40
0.7619047619047619
 40
0.7619047619047619
 40
0.7619047619047619
 40
0.7619047619047619
 40
0.8095238095238095
 40
0.8095238095238095
 40
0.8095238095238095
 40
0.8095238095238095
 40
0.8571428571428571
 40
0.8571428571428571
 40
0.8571428571428571
 40
0.8571428571428571
 40
0.9047619047619048
 40
0.9047619047619048
 40
0.9047619047619048
 40
0.9047619047619048
 40
1.0
 40
1.0
 40
1.0
 40
1.0
 10
-32.1548
 20
16.5636
 30
0.0
 10
-32.1548
 20
16.5636
 30
0.0
 10
-32.414
 20
16.7951
 30
0.0
 10
-32.414
 20
16.7951
 30
0.0
 10
-32.414
 20
16.7951
 30
0.0
 10
-32.414
 20
16.7951
 30
0.0
 10
-32.2983
 20
16.9314
 30
0.0
 10
-32.2983
 20
16.9314
 30
0.0
 10
-32.2983
 20
16.9314
 30
0.0
 10
-32.2983
 20
16.9314
 30
0.0
 10
-32.0254
 20
16.6892
 30
0.0
 10
-32.0254
 20
16.6892
 30
0.0
 10
-32.0254
 20
16.6892
 30
0.0
 10
-31.9079
 20
16.7682
 30
0.0
 10
-31.8049
 20
16.8214
 30
0.0
 10
-31.7168
 20
16.8491
 30
0.0
 10
-31.7168
 20
16.8491
 30
0.0
 10
-31.6011
 20
16.8859
 30
0.0
 10
-31.4714
 20
16.9042
 30
0.0
 10
-31.3284
 20
16.9042
 30
0.0
 10
-31.3284
 20
16.9042
 30
0.0
 10
-31.1214
 20
16.9042
 30
0.0
 10
-30.937
 20
16.8623
 30
0.0
 10
-30.7757
 20
16.7785
 30
0.0
 10
-30.7757
 20
16.7785
 30
0.0
 10
-30.6138
 20
16.6948
 30
0.0
 10
-30.4915
 20
16.5778
 30
0.0
 10
-30.4088
 20
16.4267
 30
0.0
 10
-30.4088
 20
16.4267
 30
0.0
 10
-30.3265
 20
16.2753
 30
0.0
 10
-30.285
 20
16.1149
 30
0.0
 10
-30.285
 20
15.9451
 30
0.0
 10
-30.285
 20
15.9451
 30
0.0
 10
-30.285
 20
15.8181
 30
0.0
 10
-30.303
 20
15.7033
 30
0.0
 10
-30.3387
 20
15.6003
 30
0.0
 10
-30.3387
 20
15.6003
 30
0.0
 10
-30.3665
 20
15.5213
 30
0.0
 10
-30.4192
 20
15.429
 30
0.0
 10
-30.4972
 20
15.3232
 30
0.0
 10
-30.4972
 20
15.3232
 30
0.0
 10
-30.4972
 20
15.3232
 30
0.0
 10
-30.2381
 20
15.0918
 30
0.0
 10
-30.2381
 20
15.0918
 30
0.0
 10
-30.2381
 20
15.0918
 30
0.0
 10
-30.2381
 20
15.0918
 30
0.0
 10
-30.3538
 20
14.9554
 30
0.0
 10
-30.3538
 20
14.9554
 30
0.0
 10
-30.3538
 20
14.9554
 30
0.0
 10
-30.3538
 20
14.9554
 30
0.0
 10
-30.6251
 20
15.1981
 30
0.0
 10
-30.6251
 20
15.1981
 30
0.0
 10
-30.6251
 20
15.1981
 30
0.0
 10
-30.762
 20
15.1079
 30
0.0
 10
-30.8792
 20
15.0476
 30
0.0
 10
-30.9761
 20
15.0174
 30
0.0
 10
-30.9761
 20
15.0174
 30
0.0
 10
-31.073
 20
14.9874
 30
0.0
 10
-31.1895
 20
14.9719
 30
0.0
 10
-31.3255
 20
14.9719
 30
0.0
 10
-31.3255
 20
14.9719
 30
0.0
 10
-31.533
 20
14.9719
 30
0.0
 10
-31.7178
 20
15.0132
 30
0.0
 10
-31.8801
 20
15.096
 30
0.0
 10
-31.8801
 20
15.096
 30
0.0
 10
-32.0424
 20
15.1788
 30
0.0
 10
-32.1652
 20
15.2945
 30
0.0
 10
-32.2488
 20
15.4441
 30
0.0
 10
-32.2488
 20
15.4441
 30
0.0
 10
-32.3322
 20
15.5932
 30
0.0
 10
-32.374
 20
15.7593
 30
0.0
 10
-32.374
 20
15.9423
 30
0.0
 10
-32.374
 20
15.9423
 30
0.0
 10
-32.374
 20
16.0655
 30
0.0
 10
-32.3581
 20
16.1731
 30
0.0
 10
-32.3251
 20
16.2654
 30
0.0
 10
-32.3251
 20
16.2654
 30
0.0
 10
-32.2927
 20
16.3576
 30
0.0
 10
-32.2356
 20
16.4573
 30
0.0
 10
-32.1548
 20
16.5636
 30
0.0
  0
SPLINE
  5
89
330
1F
100
AcDbEntity
  8
ROUND
 62
   250
100
AcDbSpline
210
0.0
220
0.0
230
1.0
 70
    11
 71
     3
 72
    32
 73
    28
 74
     0
 42
0.0000000001
 43
0.0000000001
 40
0.0
 40
0.0
 40
0.0
 40
0.0
 40
0.125
 40
0.125
 40
0.125
 40
0.125
 40
0.25
 40
0.25
 40
0.25
 40
0.25
 40
0.375
 40
0.375
 40
0.375
 40
0.375
 40
0.5
 40
0.5
 40
0.5
 40
0.5
 40
0.625
 40
0.625
 40
0.625
 40
0.625
 40
0.75
 40
0.75
 40
0.75
 40
0.75
 40
1.0
 40
1.0
 40
1.0
 40
1.0
 10
-31.969
 20
16.3986
 30
0.0
 10
-32.0368
 20
16.312
 30
0.0
 10
-32.0833
 20
16.2363
 30
0.0
 10
-32.1082
 20
16.1718
 30
0.0
 10
-32.1082
 20
16.1718
 30
0.0
 10
-32.1327
 20
16.1069
 30
0.0
 10
-32.1454
 20
16.0307
 30
0.0
 10
-32.1454
 20
15.9436
 30
0.0
 10
-32.1454
 20
15.9436
 30
0.0
 10
-32.1454
 20
15.7424
 30
0.0
 10
-32.0772
 20
15.5762
 30
0.0
 10
-31.9407
 20
15.4446
 30
0.0
 10
-31.9407
 20
15.4446
 30
0.0
 10
-31.8044
 20
15.3133
 30
0.0
 10
-31.6008
 20
15.2475
 30
0.0
 10
-31.3293
 20
15.2475
 30
0.0
 10
-31.3293
 20
15.2475
 30
0.0
 10
-31.223
 20
15.2475
 30
0.0
 10
-31.1284
 20
15.2578
 30
0.0
 10
-31.0457
 20
15.2781
 30
0.0
 10
-31.0457
 20
15.2781
 30
0.0
 10
-30.9841
 20
15.2927
 30
0.0
 10
-30.9083
 20
15.3232
 30
0.0
 10
-30.8184
 20
15.3703
 30
0.0
 10
-30.8184
 20
15.3703
 30
0.0
 10
-30.8184
 20
15.3703
 30
0.0
 10
-31.969
 20
16.3986
 30
0.0
 10
-31.969
 20
16.3986
 30
0.0
  0
SPLINE
  5
8A
330
1F
100
AcDbEntity
  8
ROUND
 62
   250
100
AcDbSpline
210
0.0
220
0.0
230
1.0
 70
    11
 71
     3
 72
    28
 73
    24
 74
     0
 42
0.0000000001
 43
0.0000000001
 40
0.0
 40
0.0
 40
0.0
 40
0.0
 40
0.1428571428571428
 40
0.1428571428571428
 40
0.1428571428571428
 40
0.1428571428571428
 40
0.2857142857142857
 40
0.2857142857142857
 40
0.2857142857142857
 40
0.2857142857142857
 40
0.4285714285714285
 40
0.4285714285714285
 40
0.4285714285714285
 40
0.4285714285714285
 40
0.5714285714285714
 40
0.5714285714285714
 40
0.5714285714285714
 40
0.5714285714285714
 40
0.7142857142857143
 40
0.7142857142857143
 40
0.7142857142857143
 40
0.7142857142857143
 40
1.0
 40
1.0
 40
1.0
 40
1.0
 10
-31.8269
 20
16.5114
 30
0.0
 10
-31.8269
 20
16.5114
 30
0.0
 10
-30.6807
 20
15.4874
 30
0.0
 10
-30.6807
 20
15.4874
 30
0.0
 10
-30.6807
 20
15.4874
 30
0.0
 10
-30.6228
 20
15.5579
 30
0.0
 10
-30.5823
 20
15.6233
 30
0.0
 10
-30.5593
 20
15.6831
 30
0.0
 10
-30.5593
 20
15.6831
 30
0.0
 10
-30.5287
 20
15.7612
 30
0.0
 10
-30.5137
 20
15.8459
 30
0.0
 10
-30.5137
 20
15.9366
 30
0.0
 10
-30.5137
 20
15.9366
 30
0.0
 10
-30.5137
 20
16.137
 30
0.0
 10
-30.5842
 20
16.302
 30
0.0
 10
-30.7258
 20
16.4328
 30
0.0
 10
-30.7258
 20
16.4328
 30
0.0
 10
-30.8674
 20
16.5632
 30
0.0
 10
-31.0659
 20
16.6286
 30
0.0
 10
-31.3213
 20
16.6286
 30
0.0
 10
-31.3213
 20
16.6286
 30
0.0
 10
-31.5122
 20
16.6286
 30
0.0
 10
-31.6811
 20
16.5895
 30
0.0
 10
-31.8269
 20
16.5114
 30
0.0
  0
SPLINE
  5
8B
330
1F
100
AcDbEntity
  8
ROUND
 62
   250
100
AcDbSpline
210
0.0
220
0.0
230
1.0
 70
    11
 71
     3
 72
    92
 73
    88
 74
     0
 42
0.0000000001
 43
0.0000000001
 40
0.0
 40
0.0
 40
0.0
 40
0.0
 40
0.0434782608695652
 40
0.0434782608695652
 40
0.0434782608695652
 40
0.0434782608695652
 40
0.0869565217391304
 40
0.0869565217391304
 40
0.0869565217391304
 40
0.0869565217391304
 40
0.1304347826086956
 40
0.1304347826086956
 40
0.1304347826086956
 40
0.1304347826086956
 40
0.1739130434782609
 40
0.1739130434782609
 40
0.1739130434782609
 40
0.1739130434782609
 40
0.2173913043478261
 40
0.2173913043478261
 40
0.2173913043478261
 40
0.2173913043478261
 40
0.2608695652173913
 40
0.2608695652173913
 40
0.2608695652173913
 40
0.2608695652173913
 40
0.3043478260869565
 40
0.3043478260869565
 40
0.3043478260869565
 40
0.3043478260869565
 40
0.3478260869565217
 40
0.3478260869565217
 40
0.3478260869565217
 40
0.3478260869565217
 40
0.391304347826087
 40
0.391304347826087
 40
0.391304347826087
 40
0.391304347826087
 40
0.4347826086956522
 40
0.4347826086956522
 40
0.4347826086956522
 40
0.4347826086956522
 40
0.4782608695652174
 40
0.4782608695652174
 40
0.4782608695652174
 40
0.4782608695652174
 40
0.5217391304347826
 40
0.5217391304347826
 40
0.5217391304347826
 40
0.5217391304347826
 40
0.5652173913043478
 40
0.5652173913043478
 40
0.5652173913043478
 40
0.5652173913043478
 40
0.6086956521739131
 40
0.6086956521739131
 40
0.6086956521739131
 40
0.6086956521739131
 40
0.6521739130434783
 40
0.6521739130434783
 40
0.6521739130434783
 40
0.6521739130434783
 40
0.6956521739130435
 40
0.6956521739130435
 40
0.6956521739130435
 40
0.6956521739130435
 40
0.7391304347826086
 40
0.7391304347826086
 40
0.7391304347826086
 40
0.7391304347826086
 40
0.782608695652174
 40
0.782608695652174
 40
0.782608695652174
 40
0.782608695652174
 40
0.8260869565217391
 40
0.8260869565217391
 40
0.8260869565217391
 40
0.8260869565217391
 40
0.8695652173913043
 40
0.8695652173913043
 40
0.8695652173913043
 40
0.8695652173913043
 40
0.9130434782608695
 40
0.9130434782608695
 40
0.9130434782608695
 40
0.9130434782608695
 40
1.0
 40
1.0
 40
1.0
 40
1.0
 10
-30.8486
 20
17.1534
 30
0.0
 10
-30.8486
 20
17.1534
 30
0.0
 10
-30.8707
 20
17.414
 30
0.0
 10
-30.8707
 20
17.414
 30
0.0
 10
-30.8707
 20
17.414
 30
0.0
 10
-30.7437
 20
17.4333
 30
0.0
 10
-30.6487
 20
17.478
 30
0.0
 10
-30.5847
 20
17.548
 30
0.0
 10
-30.5847
 20
17.548
 30
0.0
 10
-30.5208
 20
17.6186
 30
0.0
 10
-30.4888
 20
17.7033
 30
0.0
 10
-30.4888
 20
17.8026
 30
0.0
 10
-30.4888
 20
17.8026
 30
0.0
 10
-30.4888
 20
17.922
 30
0.0
 10
-30.5339
 20
18.0231
 30
0.0
 10
-30.6238
 20
18.1055
 30
0.0
 10
-30.6238
 20
18.1055
 30
0.0
 10
-30.7141
 20
18.1883
 30
0.0
 10
-30.8335
 20
18.2296
 30
0.0
 10
-30.9822
 20
18.2296
 30
0.0
 10
-30.9822
 20
18.2296
 30
0.0
 10
-31.1238
 20
18.2296
 30
0.0
 10
-31.2352
 20
18.1901
 30
0.0
 10
-31.3171
 20
18.1107
 30
0.0
 10
-31.3171
 20
18.1107
 30
0.0
 10
-31.3989
 20
18.0311
 30
0.0
 10
-31.4399
 20
17.9272
 30
0.0
 10
-31.4399
 20
17.7984
 30
0.0
 10
-31.4399
 20
17.7984
 30
0.0
 10
-31.4399
 20
17.7184
 30
0.0
 10
-31.4215
 20
17.6464
 30
0.0
 10
-31.3853
 20
17.5819
 30
0.0
 10
-31.3853
 20
17.5819
 30
0.0
 10
-31.3491
 20
17.5175
 30
0.0
 10
-31.302
 20
17.4672
 30
0.0
 10
-31.2442
 20
17.4305
 30
0.0
 10
-31.2442
 20
17.4305
 30
0.0
 10
-31.2442
 20
17.4305
 30
0.0
 10
-31.2742
 20
17.1977
 30
0.0
 10
-31.2742
 20
17.1977
 30
0.0
 10
-31.2742
 20
17.1977
 30
0.0
 10
-31.2742
 20
17.1977
 30
0.0
 10
-32.3119
 20
17.3934
 30
0.0
 10
-32.3119
 20
17.3934
 30
0.0
 10
-32.3119
 20
17.3934
 30
0.0
 10
-32.3119
 20
17.3934
 30
0.0
 10
-32.3119
 20
18.398
 30
0.0
 10
-32.3119
 20
18.398
 30
0.0
 10
-32.3119
 20
18.398
 30
0.0
 10
-32.3119
 20
18.398
 30
0.0
 10
-32.0749
 20
18.398
 30
0.0
 10
-32.0749
 20
18.398
 30
0.0
 10
-32.0749
 20
18.398
 30
0.0
 10
-32.0749
 20
18.398
 30
0.0
 10
-32.0749
 20
17.5919
 30
0.0
 10
-32.0749
 20
17.5919
 30
0.0
 10
-32.0749
 20
17.5919
 30
0.0
 10
-32.0749
 20
17.5919
 30
0.0
 10
-31.532
 20
17.4826
 30
0.0
 10
-31.532
 20
17.4826
 30
0.0
 10
-31.532
 20
17.4826
 30
0.0
 10
-31.6167
 20
17.6041
 30
0.0
 10
-31.659
 20
17.7315
 30
0.0
 10
-31.659
 20
17.8646
 30
0.0
 10
-31.659
 20
17.8646
 30
0.0
 10
-31.659
 20
18.0411
 30
0.0
 10
-31.5979
 20
18.1896
 30
0.0
 10
-31.4756
 20
18.3111
 30
0.0
 10
-31.4756
 20
18.3111
 30
0.0
 10
-31.3533
 20
18.4324
 30
0.0
 10
-31.1961
 20
18.493
 30
0.0
 10
-31.0042
 20
18.493
 30
0.0
 10
-31.0042
 20
18.493
 30
0.0
 10
-30.8213
 20
18.493
 30
0.0
 10
-30.6632
 20
18.4395
 30
0.0
 10
-30.5301
 20
18.3331
 30
0.0
 10
-30.5301
 20
18.3331
 30
0.0
 10
-30.3668
 20
18.2033
 30
0.0
 10
-30.285
 20
18.0265
 30
0.0
 10
-30.285
 20
17.8026
 30
0.0
 10
-30.285
 20
17.8026
 30
0.0
 10
-30.285
 20
17.6186
 30
0.0
 10
-30.3363
 20
17.4686
 30
0.0
 10
-30.4393
 20
17.3524
 30
0.0
 10
-30.4393
 20
17.3524
 30
0.0
 10
-30.5423
 20
17.2362
 30
0.0
 10
-30.6788
 20
17.1699
 30
0.0
 10
-30.8486
 20
17.1534
 30
0.0
  0
SPLINE
  5
8C
330
1F
100
AcDbEntity
  8
ROUND
 62
   250
100
AcDbSpline
210
0.0
220
0.0
230
1.0
 70
    11
 71
     3
 72
    52
 73
    48
 74
     0
 42
0.0000000001
 43
0.0000000001
 40
0.0
 40
0.0
 40
0.0
 40
0.0
 40
0.0769230769230769
 40
0.0769230769230769
 40
0.0769230769230769
 40
0.0769230769230769
 40
0.1538461538461539
 40
0.1538461538461539
 40
0.1538461538461539
 40
0.1538461538461539
 40
0.2307692307692308
 40
0.2307692307692308
 40
0.2307692307692308
 40
0.2307692307692308
 40
0.3076923076923077
 40
0.3076923076923077
 40
0.3076923076923077
 40
0.3076923076923077
 40
0.3846153846153846
 40
0.3846153846153846
 40
0.3846153846153846
 40
0.3846153846153846
 40
0.4615384615384616
 40
0.4615384615384616
 40
0.4615384615384616
 40
0.4615384615384616
 40
0.5384615384615384
 40
0.5384615384615384
 40
0.5384615384615384
 40
0.5384615384615384
 40
0.6153846153846154
 40
0.6153846153846154
 40
0.6153846153846154
 40
0.6153846153846154
 40
0.6923076923076923
 40
0.6923076923076923
 40
0.6923076923076923
 40
0.6923076923076923
 40
0.7692307692307693
 40
0.7692307692307693
 40
0.7692307692307693
 40
0.7692307692307693
 40
0.8461538461538461
 40
0.8461538461538461
 40
0.8461538461538461
 40
0.8461538461538461
 40
1.0
 40
1.0
 40
1.0
 40
1.0
 10
-31.3157
 20
18.723
 30
0.0
 10
-31.5546
 20
18.723
 30
0.0
 10
-31.747
 20
18.7476
 30
0.0
 10
-31.8923
 20
18.7969
 30
0.0
 10
-31.8923
 20
18.7969
 30
0.0
 10
-32.0381
 20
18.8458
 30
0.0
 10
-32.1506
 20
18.9192
 30
0.0
 10
-32.2295
 20
19.0162
 30
0.0
 10
-32.2295
 20
19.0162
 30
0.0
 10
-32.3086
 20
19.1131
 30
0.0
 10
-32.3481
 20
19.2349
 30
0.0
 10
-32.3481
 20
19.3816
 30
0.0
 10
-32.3481
 20
19.3816
 30
0.0
 10
-32.3481
 20
19.4903
 30
0.0
 10
-32.3261
 20
19.5853
 30
0.0
 10
-32.2822
 20
19.6671
 30
0.0
 10
-32.2822
 20
19.6671
 30
0.0
 10
-32.239
 20
19.749
 30
0.0
 10
-32.176
 20
19.8162
 30
0.0
 10
-32.0937
 20
19.8699
 30
0.0
 10
-32.0937
 20
19.8699
 30
0.0
 10
-32.0114
 20
19.9231
 30
0.0
 10
-31.9111
 20
19.9649
 30
0.0
 10
-31.793
 20
19.9949
 30
0.0
 10
-31.793
 20
19.9949
 30
0.0
 10
-31.675
 20
20.0256
 30
0.0
 10
-31.5161
 20
20.0406
 30
0.0
 10
-31.3157
 20
20.0406
 30
0.0
 10
-31.3157
 20
20.0406
 30
0.0
 10
-31.0786
 20
20.0406
 30
0.0
 10
-30.8877
 20
20.0161
 30
0.0
 10
-30.7418
 20
19.9677
 30
0.0
 10
-30.7418
 20
19.9677
 30
0.0
 10
-30.596
 20
19.9188
 30
0.0
 10
-30.4835
 20
19.8459
 30
0.0
 10
-30.4041
 20
19.749
 30
0.0
 10
-30.4041
 20
19.749
 30
0.0
 10
-30.3246
 20
19.6521
 30
0.0
 10
-30.285
 20
19.5298
 30
0.0
 10
-30.285
 20
19.3816
 30
0.0
 10
-30.285
 20
19.3816
 30
0.0
 10
-30.285
 20
19.1869
 30
0.0
 10
-30.3546
 20
19.034
 30
0.0
 10
-30.4944
 20
18.923
 30
0.0
 10
-30.4944
 20
18.923
 30
0.0
 10
-30.6622
 20
18.7899
 30
0.0
 10
-30.9365
 20
18.723
 30
0.0
 10
-31.3157
 20
18.723
 30
0.0
  0
SPLINE
  5
8D
330
1F
100
AcDbEntity
  8
ROUND
 62
   250
100
AcDbSpline
210
0.0
220
0.0
230
1.0
 70
    11
 71
     3
 72
    36
 73
    32
 74
     0
 42
0.0000000001
 43
0.0000000001
 40
0.0
 40
0.0
 40
0.0
 40
0.0
 40
0.1111111111111111
 40
0.1111111111111111
 40
0.1111111111111111
 40
0.1111111111111111
 40
0.2222222222222222
 40
0.2222222222222222
 40
0.2222222222222222
 40
0.2222222222222222
 40
0.3333333333333333
 40
0.3333333333333333
 40
0.3333333333333333
 40
0.3333333333333333
 40
0.4444444444444444
 40
0.4444444444444444
 40
0.4444444444444444
 40
0.4444444444444444
 40
0.5555555555555556
 40
0.5555555555555556
 40
0.5555555555555556
 40
0.5555555555555556
 40
0.6666666666666666
 40
0.6666666666666666
 40
0.6666666666666666
 40
0.6666666666666666
 40
0.7777777777777778
 40
0.7777777777777778
 40
0.7777777777777778
 40
0.7777777777777778
 40
1.0
 40
1.0
 40
1.0
 40
1.0
 10
-31.3157
 20
18.9781
 30
0.0
 10
-30.9841
 20
18.9781
 30
0.0
 10
-30.7634
 20
19.0171
 30
0.0
 10
-30.6534
 20
19.0947
 30
0.0
 10
-30.6534
 20
19.0947
 30
0.0
 10
-30.5438
 20
19.1724
 30
0.0
 10
-30.4888
 20
19.2678
 30
0.0
 10
-30.4888
 20
19.3816
 30
0.0
 10
-30.4888
 20
19.3816
 30
0.0
 10
-30.4888
 20
19.4959
 30
0.0
 10
-30.5442
 20
19.5914
 30
0.0
 10
-30.6543
 20
19.669
 30
0.0
 10
-30.6543
 20
19.669
 30
0.0
 10
-30.7644
 20
19.7466
 30
0.0
 10
-30.9849
 20
19.7857
 30
0.0
 10
-31.3157
 20
19.7857
 30
0.0
 10
-31.3157
 20
19.7857
 30
0.0
 10
-31.6482
 20
19.7857
 30
0.0
 10
-31.8693
 20
19.7466
 30
0.0
 10
-31.9784
 20
19.669
 30
0.0
 10
-31.9784
 20
19.669
 30
0.0
 10
-32.0881
 20
19.5914
 30
0.0
 10
-32.1426
 20
19.495
 30
0.0
 10
-32.1426
 20
19.3792
 30
0.0
 10
-32.1426
 20
19.3792
 30
0.0
 10
-32.1426
 20
19.265
 30
0.0
 10
-32.0942
 20
19.1742
 30
0.0
 10
-31.9977
 20
19.106
 30
0.0
 10
-31.9977
 20
19.106
 30
0.0
 10
-31.875
 20
19.0208
 30
0.0
 10
-31.6472
 20
18.9781
 30
0.0
 10
-31.3157
 20
18.9781
 30
0.0
  0
SPLINE
  5
8E
330
1F
100
AcDbEntity
  8
ROUND
 62
   250
100
AcDbSpline
210
0.0
220
0.0
230
1.0
 70
    11
 71
     3
 72
    20
 73
    16
 74
     0
 42
0.0000000001
 43
0.0000000001
 40
0.0
 40
0.0
 40
0.0
 40
0.0
 40
0.2
 40
0.2
 40
0.2
 40
0.2
 40
0.4
 40
0.4
 40
0.4
 40
0.4
 40
0.6
 40
0.6
 40
0.6
 40
0.6
 40
1.0
 40
1.0
 40
1.0
 40
1.0
 10
-30.2157
 20
6.9079
 30
0.0
 10
-30.2157
 20
6.9079
 30
0.0
 10
-29.7141
 20
10.4618
 30
0.0
 10
-29.7141
 20
10.4618
 30
0.0
 10
-29.7141
 20
10.4618
 30
0.0
 10
-29.7141
 20
10.4618
 30
0.0
 10
-29.6027
 20
10.4618
 30
0.0
 10
-29.6027
 20
10.4618
 30
0.0
 10
-29.6027
 20
10.4618
 30
0.0
 10
-29.6027
 20
10.4618
 30
0.0
 10
-29.0678
 20
6.9079
 30
0.0
 10
-29.0678
 20
6.9079
 30
0.0
 10
-29.0678
 20
6.9079
 30
0.0
 10
-29.0678
 20
6.9079
 30
0.0
 10
-30.2157
 20
6.9079
 30
0.0
 10
-30.2157
 20
6.9079
 30
0.0
  0
SPLINE
  5
8F
330
1F
100
AcDbEntity
  8
ROUND
 62
   250
100
AcDbSpline
210
0.0
220
0.0
230
1.0
 70
    11
 71
     3
 72
    20
 73
    16
 74
     0
 42
0.0000000001
 43
0.0000000001
 40
0.0
 40
0.0
 40
0.0
 40
0.0
 40
0.2
 40
0.2
 40
0.2
 40
0.2
 40
0.4
 40
0.4
 40
0.4
 40
0.4
 40
0.6
 40
0.6
 40
0.6
 40
0.6
 40
1.0
 40
1.0
 40
1.0
 40
1.0
 10
-29.11
 20
26.2122
 30
0.0
 10
-29.11
 20
26.2122
 30
0.0
 10
-29.6115
 20
22.6583
 30
0.0
 10
-29.6115
 20
22.6583
 30
0.0
 10
-29.6115
 20
22.6583
 30
0.0
 10
-29.6115
 20
22.6583
 30
0.0
 10
-29.7229
 20
22.6583
 30
0.0
 10
-29.7229
 20
22.6583
 30
0.0
 10
-29.7229
 20
22.6583
 30
0.0
 10
-29.7229
 20
22.6583
 30
0.0
 10
-30.2578
 20
26.2122
 30
0.0
 10
-30.2578
 20
26.2122
 30
0.0
 10
-30.2578
 20
26.2122
 30
0.0
 10
-30.2578
 20
26.2122
 30
0.0
 10
-29.11
 20
26.2122
 30
0.0
 10
-29.11
 20
26.2122
 30
0.0
  0
SPLINE
  5
90
330
1F
100
AcDbEntity
  8
ROUND
 62
   250
100
AcDbSpline
210
0.0
220
0.0
230
1.0
 70
    24
 71
     3
 72
     8
 73
     4
 74
     0
 42
0.0000000001
 43
0.0000000001
 40
0.0
 40
0.0
 40
0.0
 40
0.0
 40
1.0
 40
1.0
 40
1.0
 40
1.0
 10
-29.6687
 20
5.7448
 30
0.0
 10
-29.6687
 20
5.7448
 30
0.0
 10
-29.6687
 20
27.5295
 30
0.0
 10
-29.6687
 20
27.5295
 30
0.0
  0
SPLINE
  5
91
330
1F
100
AcDbEntity
  8
ROUND
 62
   250
100
AcDbSpline
210
0.0
220
0.0
230
1.0
 70
    11
 71
     3
 72
    40
 73
    36
 74
     0
 42
0.0000000001
 43
0.0000000001
 40
0.0
 40
0.0
 40
0.0
 40
0.0
 40
0.1
 40
0.1
 40
0.1
 40
0.1
 40
0.2
 40
0.2
 40
0.2
 40
0.2
 40
0.3
 40
0.3
 40
0.3
 40
0.3
 40
0.4
 40
0.4
 40
0.4
 40
0.4
 40
0.5
 40
0.5
 40
0.5
 40
0.5
 40
0.6
 40
0.6
 40
0.6
 40
0.6
 40
0.7
 40
0.7
 40
0.7
 40
0.7
 40
0.8
 40
0.8
 40
0.8
 40
0.8
 40
1.0
 40
1.0
 40
1.0
 40
1.0
 10
-5.4396
 20
8.629
 30
0.0
 10
-5.4396
 20
8.629
 30
0.0
 10
-5.4396
 20
8.3811
 30
0.0
 10
-5.4396
 20
8.3811
 30
0.0
 10
-5.4396
 20
8.3811
 30
0.0
 10
-5.4396
 20
8.3811
 30
0.0
 10
-7.0201
 20
8.3811
 30
0.0
 10
-7.0201
 20
8.3811
 30
0.0
 10
-7.0201
 20
8.3811
 30
0.0
 10
-6.9632
 20
8.3213
 30
0.0
 10
-6.9063
 20
8.2432
 30
0.0
 10
-6.8494
 20
8.1463
 30
0.0
 10
-6.8494
 20
8.1463
 30
0.0
 10
-6.7924
 20
8.0491
 30
0.0
 10
-6.7496
 20
7.962
 30
0.0
 10
-6.7213
 20
7.8848
 30
0.0
 10
-6.7213
 20
7.8848
 30
0.0
 10
-6.7213
 20
7.8848
 30
0.0
 10
-6.9608
 20
7.8848
 30
0.0
 10
-6.9608
 20
7.8848
 30
0.0
 10
-6.9608
 20
7.8848
 30
0.0
 10
-7.0262
 20
8.0237
 30
0.0
 10
-7.1052
 20
8.145
 30
0.0
 10
-7.1978
 20
8.249
 30
0.0
 10
-7.1978
 20
8.249
 30
0.0
 10
-7.291
 20
8.3524
 30
0.0
 10
-7.3809
 20
8.4263
 30
0.0
 10
-7.4683
 20
8.4695
 30
0.0
 10
-7.4683
 20
8.4695
 30
0.0
 10
-7.4683
 20
8.4695
 30
0.0
 10
-7.4683
 20
8.629
 30
0.0
 10
-7.4683
 20
8.629
 30
0.0
 10
-7.4683
 20
8.629
 30
0.0
 10
-7.4683
 20
8.629
 30
0.0
 10
-5.4396
 20
8.629
 30
0.0
 10
-5.4396
 20
8.629
 30
0.0
  0
SPLINE
  5
92
330
1F
100
AcDbEntity
  8
ROUND
 62
   250
100
AcDbSpline
210
0.0
220
0.0
230
1.0
 70
    11
 71
     3
 72
    48
 73
    44
 74
     0
 42
0.0000000001
 43
0.0000000001
 40
0.0
 40
0.0
 40
0.0
 40
0.0
 40
0.0833333333333333
 40
0.0833333333333333
 40
0.0833333333333333
 40
0.0833333333333333
 40
0.1666666666666667
 40
0.1666666666666667
 40
0.1666666666666667
 40
0.1666666666666667
 40
0.25
 40
0.25
 40
0.25
 40
0.25
 40
0.3333333333333333
 40
0.3333333333333333
 40
0.3333333333333333
 40
0.3333333333333333
 40
0.4166666666666667
 40
0.4166666666666667
 40
0.4166666666666667
 40
0.4166666666666667
 40
0.5
 40
0.5
 40
0.5
 40
0.5
 40
0.5833333333333334
 40
0.5833333333333334
 40
0.5833333333333334
 40
0.5833333333333334
 40
0.6666666666666666
 40
0.6666666666666666
 40
0.6666666666666666
 40
0.6666666666666666
 40
0.75
 40
0.75
 40
0.75
 40
0.75
 40
0.8333333333333334
 40
0.8333333333333334
 40
0.8333333333333334
 40
0.8333333333333334
 40
1.0
 40
1.0
 40
1.0
 40
1.0
 10
-7.1951
 20
9.281
 30
0.0
 10
-7.1951
 20
9.281
 30
0.0
 10
-7.4336
 20
9.281
 30
0.0
 10
-7.4336
 20
9.281
 30
0.0
 10
-7.4336
 20
9.281
 30
0.0
 10
-7.4336
 20
9.281
 30
0.0
 10
-7.4336
 20
10.5886
 30
0.0
 10
-7.4336
 20
10.5886
 30
0.0
 10
-7.4336
 20
10.5886
 30
0.0
 10
-7.4336
 20
10.5886
 30
0.0
 10
-7.2406
 20
10.5886
 30
0.0
 10
-7.2406
 20
10.5886
 30
0.0
 10
-7.2406
 20
10.5886
 30
0.0
 10
-7.1038
 20
10.4602
 30
0.0
 10
-6.9217
 20
10.3327
 30
0.0
 10
-6.6951
 20
10.2062
 30
0.0
 10
-6.6951
 20
10.2062
 30
0.0
 10
-6.4683
 20
10.0801
 30
0.0
 10
-6.2345
 20
9.9823
 30
0.0
 10
-5.9952
 20
9.9136
 30
0.0
 10
-5.9952
 20
9.9136
 30
0.0
 10
-5.8258
 20
9.8637
 30
0.0
 10
-5.641
 20
9.8322
 30
0.0
 10
-5.4396
 20
9.8186
 30
0.0
 10
-5.4396
 20
9.8186
 30
0.0
 10
-5.4396
 20
9.8186
 30
0.0
 10
-5.4396
 20
9.5637
 30
0.0
 10
-5.4396
 20
9.5637
 30
0.0
 10
-5.4396
 20
9.5637
 30
0.0
 10
-5.5986
 20
9.5664
 30
0.0
 10
-5.7905
 20
9.5976
 30
0.0
 10
-6.0158
 20
9.6572
 30
0.0
 10
-6.0158
 20
9.6572
 30
0.0
 10
-6.2406
 20
9.717
 30
0.0
 10
-6.4579
 20
9.8025
 30
0.0
 10
-6.6668
 20
9.9141
 30
0.0
 10
-6.6668
 20
9.9141
 30
0.0
 10
-6.8756
 20
10.026
 30
0.0
 10
-7.0521
 20
10.1445
 30
0.0
 10
-7.1951
 20
10.2706
 30
0.0
 10
-7.1951
 20
10.2706
 30
0.0
 10
-7.1951
 20
10.2706
 30
0.0
 10
-7.1951
 20
9.281
 30
0.0
 10
-7.1951
 20
9.281
 30
0.0
  0
SPLINE
  5
93
330
1F
100
AcDbEntity
  8
ROUND
 62
   250
100
AcDbSpline
210
0.0
220
0.0
230
1.0
 70
    11
 71
     3
 72
    92
 73
    88
 74
     0
 42
0.0000000001
 43
0.0000000001
 40
0.0
 40
0.0
 40
0.0
 40
0.0
 40
0.0434782608695652
 40
0.0434782608695652
 40
0.0434782608695652
 40
0.0434782608695652
 40
0.0869565217391304
 40
0.0869565217391304
 40
0.0869565217391304
 40
0.0869565217391304
 40
0.1304347826086956
 40
0.1304347826086956
 40
0.1304347826086956
 40
0.1304347826086956
 40
0.1739130434782609
 40
0.1739130434782609
 40
0.1739130434782609
 40
0.1739130434782609
 40
0.2173913043478261
 40
0.2173913043478261
 40
0.2173913043478261
 40
0.2173913043478261
 40
0.2608695652173913
 40
0.2608695652173913
 40
0.2608695652173913
 40
0.2608695652173913
 40
0.3043478260869565
 40
0.3043478260869565
 40
0.3043478260869565
 40
0.3043478260869565
 40
0.3478260869565217
 40
0.3478260869565217
 40
0.3478260869565217
 40
0.3478260869565217
 40
0.391304347826087
 40
0.391304347826087
 40
0.391304347826087
 40
0.391304347826087
 40
0.4347826086956522
 40
0.4347826086956522
 40
0.4347826086956522
 40
0.4347826086956522
 40
0.4782608695652174
 40
0.4782608695652174
 40
0.4782608695652174
 40
0.4782608695652174
 40
0.5217391304347826
 40
0.5217391304347826
 40
0.5217391304347826
 40
0.5217391304347826
 40
0.5652173913043478
 40
0.5652173913043478
 40
0.5652173913043478
 40
0.5652173913043478
 40
0.6086956521739131
 40
0.6086956521739131
 40
0.6086956521739131
 40
0.6086956521739131
 40
0.6521739130434783
 40
0.6521739130434783
 40
0.6521739130434783
 40
0.6521739130434783
 40
0.6956521739130435
 40
0.6956521739130435
 40
0.6956521739130435
 40
0.6956521739130435
 40
0.7391304347826086
 40
0.7391304347826086
 40
0.7391304347826086
 40
0.7391304347826086
 40
0.782608695652174
 40
0.782608695652174
 40
0.782608695652174
 40
0.782608695652174
 40
0.8260869565217391
 40
0.8260869565217391
 40
0.8260869565217391
 40
0.8260869565217391
 40
0.8695652173913043
 40
0.8695652173913043
 40
0.8695652173913043
 40
0.8695652173913043
 40
0.9130434782608695
 40
0.9130434782608695
 40
0.9130434782608695
 40
0.9130434782608695
 40
1.0
 40
1.0
 40
1.0
 40
1.0
 10
-5.9688
 20
10.8341
 30
0.0
 10
-5.9688
 20
10.8341
 30
0.0
 10
-5.9909
 20
11.0947
 30
0.0
 10
-5.9909
 20
11.0947
 30
0.0
 10
-5.9909
 20
11.0947
 30
0.0
 10
-5.8639
 20
11.114
 30
0.0
 10
-5.7689
 20
11.1588
 30
0.0
 10
-5.7049
 20
11.2287
 30
0.0
 10
-5.7049
 20
11.2287
 30
0.0
 10
-5.641
 20
11.2994
 30
0.0
 10
-5.609
 20
11.384
 30
0.0
 10
-5.609
 20
11.4833
 30
0.0
 10
-5.609
 20
11.4833
 30
0.0
 10
-5.609
 20
11.6027
 30
0.0
 10
-5.6541
 20
11.7039
 30
0.0
 10
-5.744
 20
11.7862
 30
0.0
 10
-5.744
 20
11.7862
 30
0.0
 10
-5.8343
 20
11.869
 30
0.0
 10
-5.9537
 20
11.9103
 30
0.0
 10
-6.1024
 20
11.9103
 30
0.0
 10
-6.1024
 20
11.9103
 30
0.0
 10
-6.244
 20
11.9103
 30
0.0
 10
-6.3554
 20
11.8709
 30
0.0
 10
-6.4373
 20
11.7914
 30
0.0
 10
-6.4373
 20
11.7914
 30
0.0
 10
-6.5191
 20
11.7118
 30
0.0
 10
-6.5601
 20
11.608
 30
0.0
 10
-6.5601
 20
11.4791
 30
0.0
 10
-6.5601
 20
11.4791
 30
0.0
 10
-6.5601
 20
11.3991
 30
0.0
 10
-6.5417
 20
11.3271
 30
0.0
 10
-6.5055
 20
11.2626
 30
0.0
 10
-6.5055
 20
11.2626
 30
0.0
 10
-6.4693
 20
11.1982
 30
0.0
 10
-6.4222
 20
11.1479
 30
0.0
 10
-6.3644
 20
11.1112
 30
0.0
 10
-6.3644
 20
11.1112
 30
0.0
 10
-6.3644
 20
11.1112
 30
0.0
 10
-6.3944
 20
10.8784
 30
0.0
 10
-6.3944
 20
10.8784
 30
0.0
 10
-6.3944
 20
10.8784
 30
0.0
 10
-6.3944
 20
10.8784
 30
0.0
 10
-7.4321
 20
11.0741
 30
0.0
 10
-7.4321
 20
11.0741
 30
0.0
 10
-7.4321
 20
11.0741
 30
0.0
 10
-7.4321
 20
11.0741
 30
0.0
 10
-7.4321
 20
12.0787
 30
0.0
 10
-7.4321
 20
12.0787
 30
0.0
 10
-7.4321
 20
12.0787
 30
0.0
 10
-7.4321
 20
12.0787
 30
0.0
 10
-7.1951
 20
12.0787
 30
0.0
 10
-7.1951
 20
12.0787
 30
0.0
 10
-7.1951
 20
12.0787
 30
0.0
 10
-7.1951
 20
12.0787
 30
0.0
 10
-7.1951
 20
11.2726
 30
0.0
 10
-7.1951
 20
11.2726
 30
0.0
 10
-7.1951
 20
11.2726
 30
0.0
 10
-7.1951
 20
11.2726
 30
0.0
 10
-6.6522
 20
11.1634
 30
0.0
 10
-6.6522
 20
11.1634
 30
0.0
 10
-6.6522
 20
11.1634
 30
0.0
 10
-6.7369
 20
11.2848
 30
0.0
 10
-6.7792
 20
11.4122
 30
0.0
 10
-6.7792
 20
11.5453
 30
0.0
 10
-6.7792
 20
11.5453
 30
0.0
 10
-6.7792
 20
11.7218
 30
0.0
 10
-6.7181
 20
11.8704
 30
0.0
 10
-6.5958
 20
11.9918
 30
0.0
 10
-6.5958
 20
11.9918
 30
0.0
 10
-6.4735
 20
12.1131
 30
0.0
 10
-6.3163
 20
12.1737
 30
0.0
 10
-6.1244
 20
12.1737
 30
0.0
 10
-6.1244
 20
12.1737
 30
0.0
 10
-5.9415
 20
12.1737
 30
0.0
 10
-5.7834
 20
12.1202
 30
0.0
 10
-5.6503
 20
12.0138
 30
0.0
 10
-5.6503
 20
12.0138
 30
0.0
 10
-5.487
 20
11.8841
 30
0.0
 10
-5.4052
 20
11.7072
 30
0.0
 10
-5.4052
 20
11.4833
 30
0.0
 10
-5.4052
 20
11.4833
 30
0.0
 10
-5.4052
 20
11.2994
 30
0.0
 10
-5.4565
 20
11.1493
 30
0.0
 10
-5.5595
 20
11.0331
 30
0.0
 10
-5.5595
 20
11.0331
 30
0.0
 10
-5.6625
 20
10.9169
 30
0.0
 10
-5.799
 20
10.8507
 30
0.0
 10
-5.9688
 20
10.8341
 30
0.0
  0
SPLINE
  5
94
330
1F
100
AcDbEntity
  8
ROUND
 62
   250
100
AcDbSpline
210
0.0
220
0.0
230
1.0
 70
    11
 71
     3
 72
    84
 73
    80
 74
     0
 42
0.0000000001
 43
0.0000000001
 40
0.0
 40
0.0
 40
0.0
 40
0.0
 40
0.0476190476190476
 40
0.0476190476190476
 40
0.0476190476190476
 40
0.0476190476190476
 40
0.0952380952380952
 40
0.0952380952380952
 40
0.0952380952380952
 40
0.0952380952380952
 40
0.1428571428571428
 40
0.1428571428571428
 40
0.1428571428571428
 40
0.1428571428571428
 40
0.1904761904761905
 40
0.1904761904761905
 40
0.1904761904761905
 40
0.1904761904761905
 40
0.2380952380952381
 40
0.2380952380952381
 40
0.2380952380952381
 40
0.2380952380952381
 40
0.2857142857142857
 40
0.2857142857142857
 40
0.2857142857142857
 40
0.2857142857142857
 40
0.3333333333333333
 40
0.3333333333333333
 40
0.3333333333333333
 40
0.3333333333333333
 40
0.3809523809523809
 40
0.3809523809523809
 40
0.3809523809523809
 40
0.3809523809523809
 40
0.4285714285714285
 40
0.4285714285714285
 40
0.4285714285714285
 40
0.4285714285714285
 40
0.4761904761904762
 40
0.4761904761904762
 40
0.4761904761904762
 40
0.4761904761904762
 40
0.5238095238095238
 40
0.5238095238095238
 40
0.5238095238095238
 40
0.5238095238095238
 40
0.5714285714285714
 40
0.5714285714285714
 40
0.5714285714285714
 40
0.5714285714285714
 40
0.6190476190476191
 40
0.6190476190476191
 40
0.6190476190476191
 40
0.6190476190476191
 40
0.6666666666666666
 40
0.6666666666666666
 40
0.6666666666666666
 40
0.6666666666666666
 40
0.7142857142857143
 40
0.7142857142857143
 40
0.7142857142857143
 40
0.7142857142857143
 40
0.7619047619047619
 40
0.7619047619047619
 40
0.7619047619047619
 40
0.7619047619047619
 40
0.8095238095238095
 40
0.8095238095238095
 40
0.8095238095238095
 40
0.8095238095238095
 40
0.8571428571428571
 40
0.8571428571428571
 40
0.8571428571428571
 40
0.8571428571428571
 40
0.9047619047619048
 40
0.9047619047619048
 40
0.9047619047619048
 40
0.9047619047619048
 40
1.0
 40
1.0
 40
1.0
 40
1.0
 10
20.5604
 20
-17.546
 30
0.0
 10
20.5604
 20
-17.546
 30
0.0
 10
20.7919
 20
-17.2868
 30
0.0
 10
20.7919
 20
-17.2868
 30
0.0
 10
20.7919
 20
-17.2868
 30
0.0
 10
20.7919
 20
-17.2868
 30
0.0
 10
20.9282
 20
-17.4025
 30
0.0
 10
20.9282
 20
-17.4025
 30
0.0
 10
20.9282
 20
-17.4025
 30
0.0
 10
20.9282
 20
-17.4025
 30
0.0
 10
20.686
 20
-17.6754
 30
0.0
 10
20.686
 20
-17.6754
 30
0.0
 10
20.686
 20
-17.6754
 30
0.0
 10
20.765
 20
-17.7929
 30
0.0
 10
20.8182
 20
-17.8959
 30
0.0
 10
20.8459
 20
-17.984
 30
0.0
 10
20.8459
 20
-17.984
 30
0.0
 10
20.8827
 20
-18.0997
 30
0.0
 10
20.901
 20
-18.2294
 30
0.0
 10
20.901
 20
-18.3724
 30
0.0
 10
20.901
 20
-18.3724
 30
0.0
 10
20.901
 20
-18.5794
 30
0.0
 10
20.8591
 20
-18.7638
 30
0.0
 10
20.7753
 20
-18.9251
 30
0.0
 10
20.7753
 20
-18.9251
 30
0.0
 10
20.6916
 20
-19.087
 30
0.0
 10
20.5746
 20
-19.2093
 30
0.0
 10
20.4235
 20
-19.292
 30
0.0
 10
20.4235
 20
-19.292
 30
0.0
 10
20.2721
 20
-19.3743
 30
0.0
 10
20.1117
 20
-19.4158
 30
0.0
 10
19.9419
 20
-19.4158
 30
0.0
 10
19.9419
 20
-19.4158
 30
0.0
 10
19.8149
 20
-19.4158
 30
0.0
 10
19.7001
 20
-19.3978
 30
0.0
 10
19.5971
 20
-19.3621
 30
0.0
 10
19.5971
 20
-19.3621
 30
0.0
 10
19.5181
 20
-19.3343
 30
0.0
 10
19.4258
 20
-19.2816
 30
0.0
 10
19.32
 20
-19.2036
 30
0.0
 10
19.32
 20
-19.2036
 30
0.0
 10
19.32
 20
-19.2036
 30
0.0
 10
19.0886
 20
-19.4627
 30
0.0
 10
19.0886
 20
-19.4627
 30
0.0
 10
19.0886
 20
-19.4627
 30
0.0
 10
19.0886
 20
-19.4627
 30
0.0
 10
18.9522
 20
-19.347
 30
0.0
 10
18.9522
 20
-19.347
 30
0.0
 10
18.9522
 20
-19.347
 30
0.0
 10
18.9522
 20
-19.347
 30
0.0
 10
19.1949
 20
-19.0757
 30
0.0
 10
19.1949
 20
-19.0757
 30
0.0
 10
19.1949
 20
-19.0757
 30
0.0
 10
19.1047
 20
-18.9388
 30
0.0
 10
19.0444
 20
-18.8216
 30
0.0
 10
19.0142
 20
-18.7247
 30
0.0
 10
19.0142
 20
-18.7247
 30
0.0
 10
18.9842
 20
-18.6278
 30
0.0
 10
18.9687
 20
-18.5113
 30
0.0
 10
18.9687
 20
-18.3753
 30
0.0
 10
18.9687
 20
-18.3753
 30
0.0
 10
18.9687
 20
-18.1678
 30
0.0
 10
19.01
 20
-17.983
 30
0.0
 10
19.0928
 20
-17.8207
 30
0.0
 10
19.0928
 20
-17.8207
 30
0.0
 10
19.1756
 20
-17.6584
 30
0.0
 10
19.2913
 20
-17.5356
 30
0.0
 10
19.4409
 20
-17.452
 30
0.0
 10
19.4409
 20
-17.452
 30
0.0
 10
19.59
 20
-17.3686
 30
0.0
 10
19.7561
 20
-17.3268
 30
0.0
 10
19.9391
 20
-17.3268
 30
0.0
 10
19.9391
 20
-17.3268
 30
0.0
 10
20.0623
 20
-17.3268
 30
0.0
 10
20.1699
 20
-17.3427
 30
0.0
 10
20.2622
 20
-17.3757
 30
0.0
 10
20.2622
 20
-17.3757
 30
0.0
 10
20.3544
 20
-17.4081
 30
0.0
 10
20.4541
 20
-17.4652
 30
0.0
 10
20.5604
 20
-17.546
 30
0.0
  0
SPLINE
  5
95
330
1F
100
AcDbEntity
  8
ROUND
 62
   250
100
AcDbSpline
210
0.0
220
0.0
230
1.0
 70
    11
 71
     3
 72
    32
 73
    28
 74
     0
 42
0.0000000001
 43
0.0000000001
 40
0.0
 40
0.0
 40
0.0
 40
0.0
 40
0.125
 40
0.125
 40
0.125
 40
0.125
 40
0.25
 40
0.25
 40
0.25
 40
0.25
 40
0.375
 40
0.375
 40
0.375
 40
0.375
 40
0.5
 40
0.5
 40
0.5
 40
0.5
 40
0.625
 40
0.625
 40
0.625
 40
0.625
 40
0.75
 40
0.75
 40
0.75
 40
0.75
 40
1.0
 40
1.0
 40
1.0
 40
1.0
 10
20.3954
 20
-17.7318
 30
0.0
 10
20.3088
 20
-17.664
 30
0.0
 10
20.2331
 20
-17.6175
 30
0.0
 10
20.1686
 20
-17.5926
 30
0.0
 10
20.1686
 20
-17.5926
 30
0.0
 10
20.1037
 20
-17.5681
 30
0.0
 10
20.0275
 20
-17.5554
 30
0.0
 10
19.9404
 20
-17.5554
 30
0.0
 10
19.9404
 20
-17.5554
 30
0.0
 10
19.7392
 20
-17.5554
 30
0.0
 10
19.573
 20
-17.6236
 30
0.0
 10
19.4414
 20
-17.7601
 30
0.0
 10
19.4414
 20
-17.7601
 30
0.0
 10
19.3101
 20
-17.8964
 30
0.0
 10
19.2443
 20
-18.1
 30
0.0
 10
19.2443
 20
-18.3715
 30
0.0
 10
19.2443
 20
-18.3715
 30
0.0
 10
19.2443
 20
-18.4778
 30
0.0
 10
19.2546
 20
-18.5724
 30
0.0
 10
19.2749
 20
-18.6551
 30
0.0
 10
19.2749
 20
-18.6551
 30
0.0
 10
19.2895
 20
-18.7167
 30
0.0
 10
19.32
 20
-18.7925
 30
0.0
 10
19.3671
 20
-18.8824
 30
0.0
 10
19.3671
 20
-18.8824
 30
0.0
 10
19.3671
 20
-18.8824
 30
0.0
 10
20.3954
 20
-17.7318
 30
0.0
 10
20.3954
 20
-17.7318
 30
0.0
  0
SPLINE
  5
96
330
1F
100
AcDbEntity
  8
ROUND
 62
   250
100
AcDbSpline
210
0.0
220
0.0
230
1.0
 70
    11
 71
     3
 72
    28
 73
    24
 74
     0
 42
0.0000000001
 43
0.0000000001
 40
0.0
 40
0.0
 40
0.0
 40
0.0
 40
0.1428571428571428
 40
0.1428571428571428
 40
0.1428571428571428
 40
0.1428571428571428
 40
0.2857142857142857
 40
0.2857142857142857
 40
0.2857142857142857
 40
0.2857142857142857
 40
0.4285714285714285
 40
0.4285714285714285
 40
0.4285714285714285
 40
0.4285714285714285
 40
0.5714285714285714
 40
0.5714285714285714
 40
0.5714285714285714
 40
0.5714285714285714
 40
0.7142857142857143
 40
0.7142857142857143
 40
0.7142857142857143
 40
0.7142857142857143
 40
1.0
 40
1.0
 40
1.0
 40
1.0
 10
20.5082
 20
-17.8739
 30
0.0
 10
20.5082
 20
-17.8739
 30
0.0
 10
19.4842
 20
-19.0201
 30
0.0
 10
19.4842
 20
-19.0201
 30
0.0
 10
19.4842
 20
-19.0201
 30
0.0
 10
19.5547
 20
-19.078
 30
0.0
 10
19.6201
 20
-19.1185
 30
0.0
 10
19.6799
 20
-19.1415
 30
0.0
 10
19.6799
 20
-19.1415
 30
0.0
 10
19.758
 20
-19.1721
 30
0.0
 10
19.8427
 20
-19.1871
 30
0.0
 10
19.9334
 20
-19.1871
 30
0.0
 10
19.9334
 20
-19.1871
 30
0.0
 10
20.1338
 20
-19.1871
 30
0.0
 10
20.2988
 20
-19.1166
 30
0.0
 10
20.4296
 20
-18.975
 30
0.0
 10
20.4296
 20
-18.975
 30
0.0
 10
20.56
 20
-18.8334
 30
0.0
 10
20.6254
 20
-18.6349
 30
0.0
 10
20.6254
 20
-18.3795
 30
0.0
 10
20.6254
 20
-18.3795
 30
0.0
 10
20.6254
 20
-18.1886
 30
0.0
 10
20.5863
 20
-18.0197
 30
0.0
 10
20.5082
 20
-17.8739
 30
0.0
  0
SPLINE
  5
97
330
1F
100
AcDbEntity
  8
ROUND
 62
   250
100
AcDbSpline
210
0.0
220
0.0
230
1.0
 70
    11
 71
     3
 72
    92
 73
    88
 74
     0
 42
0.0000000001
 43
0.0000000001
 40
0.0
 40
0.0
 40
0.0
 40
0.0
 40
0.0434782608695652
 40
0.0434782608695652
 40
0.0434782608695652
 40
0.0434782608695652
 40
0.0869565217391304
 40
0.0869565217391304
 40
0.0869565217391304
 40
0.0869565217391304
 40
0.1304347826086956
 40
0.1304347826086956
 40
0.1304347826086956
 40
0.1304347826086956
 40
0.1739130434782609
 40
0.1739130434782609
 40
0.1739130434782609
 40
0.1739130434782609
 40
0.2173913043478261
 40
0.2173913043478261
 40
0.2173913043478261
 40
0.2173913043478261
 40
0.2608695652173913
 40
0.2608695652173913
 40
0.2608695652173913
 40
0.2608695652173913
 40
0.3043478260869565
 40
0.3043478260869565
 40
0.3043478260869565
 40
0.3043478260869565
 40
0.3478260869565217
 40
0.3478260869565217
 40
0.3478260869565217
 40
0.3478260869565217
 40
0.391304347826087
 40
0.391304347826087
 40
0.391304347826087
 40
0.391304347826087
 40
0.4347826086956522
 40
0.4347826086956522
 40
0.4347826086956522
 40
0.4347826086956522
 40
0.4782608695652174
 40
0.4782608695652174
 40
0.4782608695652174
 40
0.4782608695652174
 40
0.5217391304347826
 40
0.5217391304347826
 40
0.5217391304347826
 40
0.5217391304347826
 40
0.5652173913043478
 40
0.5652173913043478
 40
0.5652173913043478
 40
0.5652173913043478
 40
0.6086956521739131
 40
0.6086956521739131
 40
0.6086956521739131
 40
0.6086956521739131
 40
0.6521739130434783
 40
0.6521739130434783
 40
0.6521739130434783
 40
0.6521739130434783
 40
0.6956521739130435
 40
0.6956521739130435
 40
0.6956521739130435
 40
0.6956521739130435
 40
0.7391304347826086
 40
0.7391304347826086
 40
0.7391304347826086
 40
0.7391304347826086
 40
0.782608695652174
 40
0.782608695652174
 40
0.782608695652174
 40
0.782608695652174
 40
0.8260869565217391
 40
0.8260869565217391
 40
0.8260869565217391
 40
0.8260869565217391
 40
0.8695652173913043
 40
0.8695652173913043
 40
0.8695652173913043
 40
0.8695652173913043
 40
0.9130434782608695
 40
0.9130434782608695
 40
0.9130434782608695
 40
0.9130434782608695
 40
1.0
 40
1.0
 40
1.0
 40
1.0
 10
21.1502
 20
-18.8522
 30
0.0
 10
21.1502
 20
-18.8522
 30
0.0
 10
21.4108
 20
-18.8301
 30
0.0
 10
21.4108
 20
-18.8301
 30
0.0
 10
21.4108
 20
-18.8301
 30
0.0
 10
21.4301
 20
-18.9571
 30
0.0
 10
21.4748
 20
-19.0521
 30
0.0
 10
21.5448
 20
-19.1161
 30
0.0
 10
21.5448
 20
-19.1161
 30
0.0
 10
21.6154
 20
-19.18
 30
0.0
 10
21.7001
 20
-19.212
 30
0.0
 10
21.7994
 20
-19.212
 30
0.0
 10
21.7994
 20
-19.212
 30
0.0
 10
21.9188
 20
-19.212
 30
0.0
 10
22.0199
 20
-19.1669
 30
0.0
 10
22.1023
 20
-19.077
 30
0.0
 10
22.1023
 20
-19.077
 30
0.0
 10
22.1851
 20
-18.9867
 30
0.0
 10
22.2264
 20
-18.8673
 30
0.0
 10
22.2264
 20
-18.7186
 30
0.0
 10
22.2264
 20
-18.7186
 30
0.0
 10
22.2264
 20
-18.577
 30
0.0
 10
22.1869
 20
-18.4656
 30
0.0
 10
22.1075
 20
-18.3837
 30
0.0
 10
22.1075
 20
-18.3837
 30
0.0
 10
22.0279
 20
-18.3019
 30
0.0
 10
21.924
 20
-18.2609
 30
0.0
 10
21.7952
 20
-18.2609
 30
0.0
 10
21.7952
 20
-18.2609
 30
0.0
 10
21.7152
 20
-18.2609
 30
0.0
 10
21.6432
 20
-18.2793
 30
0.0
 10
21.5787
 20
-18.3155
 30
0.0
 10
21.5787
 20
-18.3155
 30
0.0
 10
21.5143
 20
-18.3517
 30
0.0
 10
21.464
 20
-18.3988
 30
0.0
 10
21.4273
 20
-18.4566
 30
0.0
 10
21.4273
 20
-18.4566
 30
0.0
 10
21.4273
 20
-18.4566
 30
0.0
 10
21.1945
 20
-18.4266
 30
0.0
 10
21.1945
 20
-18.4266
 30
0.0
 10
21.1945
 20
-18.4266
 30
0.0
 10
21.1945
 20
-18.4266
 30
0.0
 10
21.3902
 20
-17.3889
 30
0.0
 10
21.3902
 20
-17.3889
 30
0.0
 10
21.3902
 20
-17.3889
 30
0.0
 10
21.3902
 20
-17.3889
 30
0.0
 10
22.3948
 20
-17.3889
 30
0.0
 10
22.3948
 20
-17.3889
 30
0.0
 10
22.3948
 20
-17.3889
 30
0.0
 10
22.3948
 20
-17.3889
 30
0.0
 10
22.3948
 20
-17.6259
 30
0.0
 10
22.3948
 20
-17.6259
 30
0.0
 10
22.3948
 20
-17.6259
 30
0.0
 10
22.3948
 20
-17.6259
 30
0.0
 10
21.5887
 20
-17.6259
 30
0.0
 10
21.5887
 20
-17.6259
 30
0.0
 10
21.5887
 20
-17.6259
 30
0.0
 10
21.5887
 20
-17.6259
 30
0.0
 10
21.4794
 20
-18.1688
 30
0.0
 10
21.4794
 20
-18.1688
 30
0.0
 10
21.4794
 20
-18.1688
 30
0.0
 10
21.6009
 20
-18.0841
 30
0.0
 10
21.7283
 20
-18.0418
 30
0.0
 10
21.8614
 20
-18.0418
 30
0.0
 10
21.8614
 20
-18.0418
 30
0.0
 10
22.0379
 20
-18.0418
 30
0.0
 10
22.1864
 20
-18.1029
 30
0.0
 10
22.3079
 20
-18.2252
 30
0.0
 10
22.3079
 20
-18.2252
 30
0.0
 10
22.4292
 20
-18.3475
 30
0.0
 10
22.4898
 20
-18.5047
 30
0.0
 10
22.4898
 20
-18.6966
 30
0.0
 10
22.4898
 20
-18.6966
 30
0.0
 10
22.4898
 20
-18.8795
 30
0.0
 10
22.4363
 20
-19.0376
 30
0.0
 10
22.3299
 20
-19.1707
 30
0.0
 10
22.3299
 20
-19.1707
 30
0.0
 10
22.2001
 20
-19.334
 30
0.0
 10
22.0233
 20
-19.4158
 30
0.0
 10
21.7994
 20
-19.4158
 30
0.0
 10
21.7994
 20
-19.4158
 30
0.0
 10
21.6154
 20
-19.4158
 30
0.0
 10
21.4654
 20
-19.3645
 30
0.0
 10
21.3492
 20
-19.2615
 30
0.0
 10
21.3492
 20
-19.2615
 30
0.0
 10
21.233
 20
-19.1585
 30
0.0
 10
21.1667
 20
-19.022
 30
0.0
 10
21.1502
 20
-18.8522
 30
0.0
  0
SPLINE
  5
98
330
1F
100
AcDbEntity
  8
ROUND
 62
   250
100
AcDbSpline
210
0.0
220
0.0
230
1.0
 70
    11
 71
     3
 72
    52
 73
    48
 74
     0
 42
0.0000000001
 43
0.0000000001
 40
0.0
 40
0.0
 40
0.0
 40
0.0
 40
0.0769230769230769
 40
0.0769230769230769
 40
0.0769230769230769
 40
0.0769230769230769
 40
0.1538461538461539
 40
0.1538461538461539
 40
0.1538461538461539
 40
0.1538461538461539
 40
0.2307692307692308
 40
0.2307692307692308
 40
0.2307692307692308
 40
0.2307692307692308
 40
0.3076923076923077
 40
0.3076923076923077
 40
0.3076923076923077
 40
0.3076923076923077
 40
0.3846153846153846
 40
0.3846153846153846
 40
0.3846153846153846
 40
0.3846153846153846
 40
0.4615384615384616
 40
0.4615384615384616
 40
0.4615384615384616
 40
0.4615384615384616
 40
0.5384615384615384
 40
0.5384615384615384
 40
0.5384615384615384
 40
0.5384615384615384
 40
0.6153846153846154
 40
0.6153846153846154
 40
0.6153846153846154
 40
0.6153846153846154
 40
0.6923076923076923
 40
0.6923076923076923
 40
0.6923076923076923
 40
0.6923076923076923
 40
0.7692307692307693
 40
0.7692307692307693
 40
0.7692307692307693
 40
0.7692307692307693
 40
0.8461538461538461
 40
0.8461538461538461
 40
0.8461538461538461
 40
0.8461538461538461
 40
1.0
 40
1.0
 40
1.0
 40
1.0
 10
22.7198
 20
-18.3851
 30
0.0
 10
22.7198
 20
-18.1462
 30
0.0
 10
22.7444
 20
-17.9538
 30
0.0
 10
22.7937
 20
-17.8085
 30
0.0
 10
22.7937
 20
-17.8085
 30
0.0
 10
22.8426
 20
-17.6627
 30
0.0
 10
22.916
 20
-17.5502
 30
0.0
 10
23.013
 20
-17.4713
 30
0.0
 10
23.013
 20
-17.4713
 30
0.0
 10
23.1099
 20
-17.3922
 30
0.0
 10
23.2317
 20
-17.3527
 30
0.0
 10
23.3784
 20
-17.3527
 30
0.0
 10
23.3784
 20
-17.3527
 30
0.0
 10
23.4871
 20
-17.3527
 30
0.0
 10
23.5821
 20
-17.3747
 30
0.0
 10
23.6639
 20
-17.4186
 30
0.0
 10
23.6639
 20
-17.4186
 30
0.0
 10
23.7458
 20
-17.4618
 30
0.0
 10
23.813
 20
-17.5248
 30
0.0
 10
23.8667
 20
-17.6071
 30
0.0
 10
23.8667
 20
-17.6071
 30
0.0
 10
23.9199
 20
-17.6894
 30
0.0
 10
23.9617
 20
-17.7897
 30
0.0
 10
23.9917
 20
-17.9078
 30
0.0
 10
23.9917
 20
-17.9078
 30
0.0
 10
24.0224
 20
-18.0258
 30
0.0
 10
24.0374
 20
-18.1847
 30
0.0
 10
24.0374
 20
-18.3851
 30
0.0
 10
24.0374
 20
-18.3851
 30
0.0
 10
24.0374
 20
-18.6222
 30
0.0
 10
24.0129
 20
-18.8131
 30
0.0
 10
23.9645
 20
-18.959
 30
0.0
 10
23.9645
 20
-18.959
 30
0.0
 10
23.9156
 20
-19.1048
 30
0.0
 10
23.8427
 20
-19.2173
 30
0.0
 10
23.7458
 20
-19.2967
 30
0.0
 10
23.7458
 20
-19.2967
 30
0.0
 10
23.6489
 20
-19.3762
 30
0.0
 10
23.5266
 20
-19.4158
 30
0.0
 10
23.3784
 20
-19.4158
 30
0.0
 10
23.3784
 20
-19.4158
 30
0.0
 10
23.1837
 20
-19.4158
 30
0.0
 10
23.0308
 20
-19.3462
 30
0.0
 10
22.9198
 20
-19.2064
 30
0.0
 10
22.9198
 20
-19.2064
 30
0.0
 10
22.7867
 20
-19.0386
 30
0.0
 10
22.7198
 20
-18.7643
 30
0.0
 10
22.7198
 20
-18.3851
 30
0.0
  0
SPLINE
  5
99
330
1F
100
AcDbEntity
  8
ROUND
 62
   250
100
AcDbSpline
210
0.0
220
0.0
230
1.0
 70
    11
 71
     3
 72
    36
 73
    32
 74
     0
 42
0.0000000001
 43
0.0000000001
 40
0.0
 40
0.0
 40
0.0
 40
0.0
 40
0.1111111111111111
 40
0.1111111111111111
 40
0.1111111111111111
 40
0.1111111111111111
 40
0.2222222222222222
 40
0.2222222222222222
 40
0.2222222222222222
 40
0.2222222222222222
 40
0.3333333333333333
 40
0.3333333333333333
 40
0.3333333333333333
 40
0.3333333333333333
 40
0.4444444444444444
 40
0.4444444444444444
 40
0.4444444444444444
 40
0.4444444444444444
 40
0.5555555555555556
 40
0.5555555555555556
 40
0.5555555555555556
 40
0.5555555555555556
 40
0.6666666666666666
 40
0.6666666666666666
 40
0.6666666666666666
 40
0.6666666666666666
 40
0.7777777777777778
 40
0.7777777777777778
 40
0.7777777777777778
 40
0.7777777777777778
 40
1.0
 40
1.0
 40
1.0
 40
1.0
 10
22.9749
 20
-18.3851
 30
0.0
 10
22.9749
 20
-18.7167
 30
0.0
 10
23.0139
 20
-18.9374
 30
0.0
 10
23.0915
 20
-19.0474
 30
0.0
 10
23.0915
 20
-19.0474
 30
0.0
 10
23.1692
 20
-19.157
 30
0.0
 10
23.2646
 20
-19.212
 30
0.0
 10
23.3784
 20
-19.212
 30
0.0
 10
23.3784
 20
-19.212
 30
0.0
 10
23.4927
 20
-19.212
 30
0.0
 10
23.5882
 20
-19.1566
 30
0.0
 10
23.6658
 20
-19.0465
 30
0.0
 10
23.6658
 20
-19.0465
 30
0.0
 10
23.7434
 20
-18.9364
 30
0.0
 10
23.7825
 20
-18.7159
 30
0.0
 10
23.7825
 20
-18.3851
 30
0.0
 10
23.7825
 20
-18.3851
 30
0.0
 10
23.7825
 20
-18.0526
 30
0.0
 10
23.7434
 20
-17.8315
 30
0.0
 10
23.6658
 20
-17.7224
 30
0.0
 10
23.6658
 20
-17.7224
 30
0.0
 10
23.5882
 20
-17.6127
 30
0.0
 10
23.4918
 20
-17.5582
 30
0.0
 10
23.376
 20
-17.5582
 30
0.0
 10
23.376
 20
-17.5582
 30
0.0
 10
23.2618
 20
-17.5582
 30
0.0
 10
23.171
 20
-17.6066
 30
0.0
 10
23.1028
 20
-17.7031
 30
0.0
 10
23.1028
 20
-17.7031
 30
0.0
 10
23.0176
 20
-17.8258
 30
0.0
 10
22.9749
 20
-18.0536
 30
0.0
 10
22.9749
 20
-18.3851
 30
0.0
  0
SPLINE
  5
9A
330
1F
100
AcDbEntity
  8
ROUND
 62
   250
100
AcDbSpline
210
0.0
220
0.0
230
1.0
 70
    11
 71
     3
 72
    20
 73
    16
 74
     0
 42
0.0000000001
 43
0.0000000001
 40
0.0
 40
0.0
 40
0.0
 40
0.0
 40
0.2
 40
0.2
 40
0.2
 40
0.2
 40
0.4
 40
0.4
 40
0.4
 40
0.4
 40
0.6
 40
0.6
 40
0.6
 40
0.6
 40
1.0
 40
1.0
 40
1.0
 40
1.0
 10
12.0072
 20
-19.3582
 30
0.0
 10
12.0072
 20
-19.3582
 30
0.0
 10
15.5611
 20
-19.8598
 30
0.0
 10
15.5611
 20
-19.8598
 30
0.0
 10
15.5611
 20
-19.8598
 30
0.0
 10
15.5611
 20
-19.8598
 30
0.0
 10
15.5611
 20
-19.9712
 30
0.0
 10
15.5611
 20
-19.9712
 30
0.0
 10
15.5611
 20
-19.9712
 30
0.0
 10
15.5611
 20
-19.9712
 30
0.0
 10
12.0072
 20
-20.5061
 30
0.0
 10
12.0072
 20
-20.5061
 30
0.0
 10
12.0072
 20
-20.5061
 30
0.0
 10
12.0072
 20
-20.5061
 30
0.0
 10
12.0072
 20
-19.3582
 30
0.0
 10
12.0072
 20
-19.3582
 30
0.0
  0
SPLINE
  5
9B
330
1F
100
AcDbEntity
  8
ROUND
 62
   250
100
AcDbSpline
210
0.0
220
0.0
230
1.0
 70
    11
 71
     3
 72
    20
 73
    16
 74
     0
 42
0.0000000001
 43
0.0000000001
 40
0.0
 40
0.0
 40
0.0
 40
0.0
 40
0.2
 40
0.2
 40
0.2
 40
0.2
 40
0.4
 40
0.4
 40
0.4
 40
0.4
 40
0.6
 40
0.6
 40
0.6
 40
0.6
 40
1.0
 40
1.0
 40
1.0
 40
1.0
 10
29.6199
 20
-20.4639
 30
0.0
 10
29.6199
 20
-20.4639
 30
0.0
 10
26.066
 20
-19.9624
 30
0.0
 10
26.066
 20
-19.9624
 30
0.0
 10
26.066
 20
-19.9624
 30
0.0
 10
26.066
 20
-19.9624
 30
0.0
 10
26.066
 20
-19.851
 30
0.0
 10
26.066
 20
-19.851
 30
0.0
 10
26.066
 20
-19.851
 30
0.0
 10
26.066
 20
-19.851
 30
0.0
 10
29.6199
 20
-19.3161
 30
0.0
 10
29.6199
 20
-19.3161
 30
0.0
 10
29.6199
 20
-19.3161
 30
0.0
 10
29.6199
 20
-19.3161
 30
0.0
 10
29.6199
 20
-20.4639
 30
0.0
 10
29.6199
 20
-20.4639
 30
0.0
  0
SPLINE
  5
9C
330
1F
100
AcDbEntity
  8
ROUND
 62
   250
100
AcDbSpline
210
0.0
220
0.0
230
1.0
 70
    24
 71
     3
 72
     8
 73
     4
 74
     0
 42
0.0000000001
 43
0.0000000001
 40
0.0
 40
0.0
 40
0.0
 40
0.0
 40
1.0
 40
1.0
 40
1.0
 40
1.0
 10
10.6293
 20
-19.9052
 30
0.0
 10
10.6293
 20
-19.9052
 30
0.0
 10
32.414
 20
-19.9052
 30
0.0
 10
32.414
 20
-19.9052
 30
0.0
  0
SPLINE
  5
9D
330
1F
100
AcDbEntity
  8
ROUND
 62
   250
100
AcDbSpline
210
0.0
220
0.0
230
1.0
 70
    11
 71
     3
 72
    48
 73
    44
 74
     0
 42
0.0000000001
 43
0.0000000001
 40
0.0
 40
0.0
 40
0.0
 40
0.0
 40
0.0833333333333333
 40
0.0833333333333333
 40
0.0833333333333333
 40
0.0833333333333333
 40
0.1666666666666667
 40
0.1666666666666667
 40
0.1666666666666667
 40
0.1666666666666667
 40
0.25
 40
0.25
 40
0.25
 40
0.25
 40
0.3333333333333333
 40
0.3333333333333333
 40
0.3333333333333333
 40
0.3333333333333333
 40
0.4166666666666667
 40
0.4166666666666667
 40
0.4166666666666667
 40
0.4166666666666667
 40
0.5
 40
0.5
 40
0.5
 40
0.5
 40
0.5833333333333334
 40
0.5833333333333334
 40
0.5833333333333334
 40
0.5833333333333334
 40
0.6666666666666666
 40
0.6666666666666666
 40
0.6666666666666666
 40
0.6666666666666666
 40
0.75
 40
0.75
 40
0.75
 40
0.75
 40
0.8333333333333334
 40
0.8333333333333334
 40
0.8333333333333334
 40
0.8333333333333334
 40
1.0
 40
1.0
 40
1.0
 40
1.0
 10
-19.1828
 20
36.2019
 30
0.0
 10
-19.1828
 20
36.2019
 30
0.0
 10
-19.1828
 20
36.4404
 30
0.0
 10
-19.1828
 20
36.4404
 30
0.0
 10
-19.1828
 20
36.4404
 30
0.0
 10
-19.1828
 20
36.4404
 30
0.0
 10
-17.8752
 20
36.4404
 30
0.0
 10
-17.8752
 20
36.4404
 30
0.0
 10
-17.8752
 20
36.4404
 30
0.0
 10
-17.8752
 20
36.4404
 30
0.0
 10
-17.8752
 20
36.2475
 30
0.0
 10
-17.8752
 20
36.2475
 30
0.0
 10
-17.8752
 20
36.2475
 30
0.0
 10
-18.0036
 20
36.1107
 30
0.0
 10
-18.1311
 20
35.9286
 30
0.0
 10
-18.2576
 20
35.7019
 30
0.0
 10
-18.2576
 20
35.7019
 30
0.0
 10
-18.3837
 20
35.4752
 30
0.0
 10
-18.4815
 20
35.2414
 30
0.0
 10
-18.5502
 20
35.002
 30
0.0
 10
-18.5502
 20
35.002
 30
0.0
 10
-18.6
 20
34.8327
 30
0.0
 10
-18.6315
 20
34.6478
 30
0.0
 10
-18.6452
 20
34.4465
 30
0.0
 10
-18.6452
 20
34.4465
 30
0.0
 10
-18.6452
 20
34.4465
 30
0.0
 10
-18.9001
 20
34.4465
 30
0.0
 10
-18.9001
 20
34.4465
 30
0.0
 10
-18.9001
 20
34.4465
 30
0.0
 10
-18.8973
 20
34.6055
 30
0.0
 10
-18.8663
 20
34.7974
 30
0.0
 10
-18.8065
 20
35.0227
 30
0.0
 10
-18.8065
 20
35.0227
 30
0.0
 10
-18.7468
 20
35.2475
 30
0.0
 10
-18.6612
 20
35.4648
 30
0.0
 10
-18.5497
 20
35.6737
 30
0.0
 10
-18.5497
 20
35.6737
 30
0.0
 10
-18.4378
 20
35.8825
 30
0.0
 10
-18.3192
 20
36.0589
 30
0.0
 10
-18.1932
 20
36.2019
 30
0.0
 10
-18.1932
 20
36.2019
 30
0.0
 10
-18.1932
 20
36.2019
 30
0.0
 10
-19.1828
 20
36.2019
 30
0.0
 10
-19.1828
 20
36.2019
 30
0.0
  0
SPLINE
  5
9E
330
1F
100
AcDbEntity
  8
ROUND
 62
   250
100
AcDbSpline
210
0.0
220
0.0
230
1.0
 70
    11
 71
     3
 72
    92
 73
    88
 74
     0
 42
0.0000000001
 43
0.0000000001
 40
0.0
 40
0.0
 40
0.0
 40
0.0
 40
0.0434782608695652
 40
0.0434782608695652
 40
0.0434782608695652
 40
0.0434782608695652
 40
0.0869565217391304
 40
0.0869565217391304
 40
0.0869565217391304
 40
0.0869565217391304
 40
0.1304347826086956
 40
0.1304347826086956
 40
0.1304347826086956
 40
0.1304347826086956
 40
0.1739130434782609
 40
0.1739130434782609
 40
0.1739130434782609
 40
0.1739130434782609
 40
0.2173913043478261
 40
0.2173913043478261
 40
0.2173913043478261
 40
0.2173913043478261
 40
0.2608695652173913
 40
0.2608695652173913
 40
0.2608695652173913
 40
0.2608695652173913
 40
0.3043478260869565
 40
0.3043478260869565
 40
0.3043478260869565
 40
0.3043478260869565
 40
0.3478260869565217
 40
0.3478260869565217
 40
0.3478260869565217
 40
0.3478260869565217
 40
0.391304347826087
 40
0.391304347826087
 40
0.391304347826087
 40
0.391304347826087
 40
0.4347826086956522
 40
0.4347826086956522
 40
0.4347826086956522
 40
0.4347826086956522
 40
0.4782608695652174
 40
0.4782608695652174
 40
0.4782608695652174
 40
0.4782608695652174
 40
0.5217391304347826
 40
0.5217391304347826
 40
0.5217391304347826
 40
0.5217391304347826
 40
0.5652173913043478
 40
0.5652173913043478
 40
0.5652173913043478
 40
0.5652173913043478
 40
0.6086956521739131
 40
0.6086956521739131
 40
0.6086956521739131
 40
0.6086956521739131
 40
0.6521739130434783
 40
0.6521739130434783
 40
0.6521739130434783
 40
0.6521739130434783
 40
0.6956521739130435
 40
0.6956521739130435
 40
0.6956521739130435
 40
0.6956521739130435
 40
0.7391304347826086
 40
0.7391304347826086
 40
0.7391304347826086
 40
0.7391304347826086
 40
0.782608695652174
 40
0.782608695652174
 40
0.782608695652174
 40
0.782608695652174
 40
0.8260869565217391
 40
0.8260869565217391
 40
0.8260869565217391
 40
0.8260869565217391
 40
0.8695652173913043
 40
0.8695652173913043
 40
0.8695652173913043
 40
0.8695652173913043
 40
0.9130434782608695
 40
0.9130434782608695
 40
0.9130434782608695
 40
0.9130434782608695
 40
1.0
 40
1.0
 40
1.0
 40
1.0
 10
-17.6297
 20
34.9757
 30
0.0
 10
-17.6297
 20
34.9757
 30
0.0
 10
-17.3691
 20
34.9978
 30
0.0
 10
-17.3691
 20
34.9978
 30
0.0
 10
-17.3691
 20
34.9978
 30
0.0
 10
-17.3498
 20
34.8708
 30
0.0
 10
-17.3051
 20
34.7758
 30
0.0
 10
-17.235
 20
34.7118
 30
0.0
 10
-17.235
 20
34.7118
 30
0.0
 10
-17.1645
 20
34.6478
 30
0.0
 10
-17.0798
 20
34.6158
 30
0.0
 10
-16.9806
 20
34.6158
 30
0.0
 10
-16.9806
 20
34.6158
 30
0.0
 10
-16.8611
 20
34.6158
 30
0.0
 10
-16.76
 20
34.661
 30
0.0
 10
-16.6777
 20
34.7508
 30
0.0
 10
-16.6777
 20
34.7508
 30
0.0
 10
-16.5949
 20
34.8411
 30
0.0
 10
-16.5535
 20
34.9606
 30
0.0
 10
-16.5535
 20
35.1092
 30
0.0
 10
-16.5535
 20
35.1092
 30
0.0
 10
-16.5535
 20
35.2508
 30
0.0
 10
-16.593
 20
35.3623
 30
0.0
 10
-16.6725
 20
35.4441
 30
0.0
 10
-16.6725
 20
35.4441
 30
0.0
 10
-16.752
 20
35.526
 30
0.0
 10
-16.8559
 20
35.5669
 30
0.0
 10
-16.9848
 20
35.5669
 30
0.0
 10
-16.9848
 20
35.5669
 30
0.0
 10
-17.0648
 20
35.5669
 30
0.0
 10
-17.1367
 20
35.5486
 30
0.0
 10
-17.2012
 20
35.5124
 30
0.0
 10
-17.2012
 20
35.5124
 30
0.0
 10
-17.2656
 20
35.4761
 30
0.0
 10
-17.3159
 20
35.4291
 30
0.0
 10
-17.3526
 20
35.3712
 30
0.0
 10
-17.3526
 20
35.3712
 30
0.0
 10
-17.3526
 20
35.3712
 30
0.0
 10
-17.5855
 20
35.4013
 30
0.0
 10
-17.5855
 20
35.4013
 30
0.0
 10
-17.5855
 20
35.4013
 30
0.0
 10
-17.5855
 20
35.4013
 30
0.0
 10
-17.3898
 20
36.439
 30
0.0
 10
-17.3898
 20
36.439
 30
0.0
 10
-17.3898
 20
36.439
 30
0.0
 10
-17.3898
 20
36.439
 30
0.0
 10
-16.3851
 20
36.439
 30
0.0
 10
-16.3851
 20
36.439
 30
0.0
 10
-16.3851
 20
36.439
 30
0.0
 10
-16.3851
 20
36.439
 30
0.0
 10
-16.3851
 20
36.2019
 30
0.0
 10
-16.3851
 20
36.2019
 30
0.0
 10
-16.3851
 20
36.2019
 30
0.0
 10
-16.3851
 20
36.2019
 30
0.0
 10
-17.1913
 20
36.2019
 30
0.0
 10
-17.1913
 20
36.2019
 30
0.0
 10
-17.1913
 20
36.2019
 30
0.0
 10
-17.1913
 20
36.2019
 30
0.0
 10
-17.3004
 20
35.6591
 30
0.0
 10
-17.3004
 20
35.6591
 30
0.0
 10
-17.3004
 20
35.6591
 30
0.0
 10
-17.1791
 20
35.7438
 30
0.0
 10
-17.0516
 20
35.7861
 30
0.0
 10
-16.9185
 20
35.7861
 30
0.0
 10
-16.9185
 20
35.7861
 30
0.0
 10
-16.7421
 20
35.7861
 30
0.0
 10
-16.5935
 20
35.725
 30
0.0
 10
-16.4721
 20
35.6027
 30
0.0
 10
-16.4721
 20
35.6027
 30
0.0
 10
-16.3508
 20
35.4804
 30
0.0
 10
-16.2901
 20
35.3233
 30
0.0
 10
-16.2901
 20
35.1314
 30
0.0
 10
-16.2901
 20
35.1314
 30
0.0
 10
-16.2901
 20
34.9484
 30
0.0
 10
-16.3437
 20
34.7903
 30
0.0
 10
-16.45
 20
34.6572
 30
0.0
 10
-16.45
 20
34.6572
 30
0.0
 10
-16.5798
 20
34.494
 30
0.0
 10
-16.7567
 20
34.4122
 30
0.0
 10
-16.9806
 20
34.4122
 30
0.0
 10
-16.9806
 20
34.4122
 30
0.0
 10
-17.1645
 20
34.4122
 30
0.0
 10
-17.3145
 20
34.4634
 30
0.0
 10
-17.4307
 20
34.5664
 30
0.0
 10
-17.4307
 20
34.5664
 30
0.0
 10
-17.5469
 20
34.6695
 30
0.0
 10
-17.6132
 20
34.8059
 30
0.0
 10
-17.6297
 20
34.9757
 30
0.0
  0
SPLINE
  5
9F
330
1F
100
AcDbEntity
  8
ROUND
 62
   250
100
AcDbSpline
210
0.0
220
0.0
230
1.0
 70
    11
 71
     3
 72
    20
 73
    16
 74
     0
 42
0.0000000001
 43
0.0000000001
 40
0.0
 40
0.0
 40
0.0
 40
0.0
 40
0.2
 40
0.2
 40
0.2
 40
0.2
 40
0.4
 40
0.4
 40
0.4
 40
0.4
 40
0.6
 40
0.6
 40
0.6
 40
0.6
 40
1.0
 40
1.0
 40
1.0
 40
1.0
 10
-13.4079
 20
34.1605
 30
0.0
 10
-13.4079
 20
34.1605
 30
0.0
 10
-9.8541
 20
33.6589
 30
0.0
 10
-9.8541
 20
33.6589
 30
0.0
 10
-9.8541
 20
33.6589
 30
0.0
 10
-9.8541
 20
33.6589
 30
0.0
 10
-9.8541
 20
33.5475
 30
0.0
 10
-9.8541
 20
33.5475
 30
0.0
 10
-9.8541
 20
33.5475
 30
0.0
 10
-9.8541
 20
33.5475
 30
0.0
 10
-13.4079
 20
33.0127
 30
0.0
 10
-13.4079
 20
33.0127
 30
0.0
 10
-13.4079
 20
33.0127
 30
0.0
 10
-13.4079
 20
33.0127
 30
0.0
 10
-13.4079
 20
34.1605
 30
0.0
 10
-13.4079
 20
34.1605
 30
0.0
  0
SPLINE
  5
A0
330
1F
100
AcDbEntity
  8
ROUND
 62
   250
100
AcDbSpline
210
0.0
220
0.0
230
1.0
 70
    11
 71
     3
 72
    20
 73
    16
 74
     0
 42
0.0000000001
 43
0.0000000001
 40
0.0
 40
0.0
 40
0.0
 40
0.0
 40
0.2
 40
0.2
 40
0.2
 40
0.2
 40
0.4
 40
0.4
 40
0.4
 40
0.4
 40
0.6
 40
0.6
 40
0.6
 40
0.6
 40
1.0
 40
1.0
 40
1.0
 40
1.0
 10
-22.1171
 20
33.105
 30
0.0
 10
-22.1171
 20
33.105
 30
0.0
 10
-25.6709
 20
33.6066
 30
0.0
 10
-25.6709
 20
33.6066
 30
0.0
 10
-25.6709
 20
33.6066
 30
0.0
 10
-25.6709
 20
33.6066
 30
0.0
 10
-25.6709
 20
33.718
 30
0.0
 10
-25.6709
 20
33.718
 30
0.0
 10
-25.6709
 20
33.718
 30
0.0
 10
-25.6709
 20
33.718
 30
0.0
 10
-22.1171
 20
34.2529
 30
0.0
 10
-22.1171
 20
34.2529
 30
0.0
 10
-22.1171
 20
34.2529
 30
0.0
 10
-22.1171
 20
34.2529
 30
0.0
 10
-22.1171
 20
33.105
 30
0.0
 10
-22.1171
 20
33.105
 30
0.0
  0
SPLINE
  5
A1
330
1F
100
AcDbEntity
  8
ROUND
 62
   250
100
AcDbSpline
210
0.0
220
0.0
230
1.0
 70
    24
 71
     3
 72
     8
 73
     4
 74
     0
 42
0.0000000001
 43
0.0000000001
 40
0.0
 40
0.0
 40
0.0
 40
0.0
 40
1.0
 40
1.0
 40
1.0
 40
1.0
 10
-25.2503
 20
33.6496
 30
0.0
 10
-25.2503
 20
33.6496
 30
0.0
 10
-11.2505
 20
33.6496
 30
0.0
 10
-11.2505
 20
33.6496
 30
0.0
  0
SPLINE
  5
A2
330
1F
100
AcDbEntity
  8
ROUND
 62
   250
100
AcDbSpline
210
0.0
220
0.0
230
1.0
 70
    24
 71
     3
 72
     8
 73
     4
 74
     0
 42
0.0000000001
 43
0.0000000001
 40
0.0
 40
0.0
 40
0.0
 40
0.0
 40
1.0
 40
1.0
 40
1.0
 40
1.0
 10
-4.9094
 20
-5.7609
 30
0.0
 10
-4.9094
 20
-5.7609
 30
0.0
 10
-4.9094
 20
28.636
 30
0.0
 10
-4.9094
 20
28.636
 30
0.0
  0
SPLINE
  5
A3
330
1F
100
AcDbEntity
  8
ROUND
 62
   250
100
AcDbSpline
210
0.0
220
0.0
230
1.0
 70
    11
 71
     3
 72
    20
 73
    16
 74
     0
 42
0.0000000001
 43
0.0000000001
 40
0.0
 40
0.0
 40
0.0
 40
0.0
 40
0.2
 40
0.2
 40
0.2
 40
0.2
 40
0.4
 40
0.4
 40
0.4
 40
0.4
 40
0.6
 40
0.6
 40
0.6
 40
0.6
 40
1.0
 40
1.0
 40
1.0
 40
1.0
 10
-5.4654
 20
25.7582
 30
0.0
 10
-5.4654
 20
25.7582
 30
0.0
 10
-4.9638
 20
29.3121
 30
0.0
 10
-4.9638
 20
29.3121
 30
0.0
 10
-4.9638
 20
29.3121
 30
0.0
 10
-4.9638
 20
29.3121
 30
0.0
 10
-4.8524
 20
29.3121
 30
0.0
 10
-4.8524
 20
29.3121
 30
0.0
 10
-4.8524
 20
29.3121
 30
0.0
 10
-4.8524
 20
29.3121
 30
0.0
 10
-4.3175
 20
25.7582
 30
0.0
 10
-4.3175
 20
25.7582
 30
0.0
 10
-4.3175
 20
25.7582
 30
0.0
 10
-4.3175
 20
25.7582
 30
0.0
 10
-5.4654
 20
25.7582
 30
0.0
 10
-5.4654
 20
25.7582
 30
0.0
  0
SPLINE
  5
A4
330
1F
100
AcDbEntity
  8
ROUND
 62
   250
100
AcDbSpline
210
0.0
220
0.0
230
1.0
 70
    11
 71
     3
 72
    20
 73
    16
 74
     0
 42
0.0000000001
 43
0.0000000001
 40
0.0
 40
0.0
 40
0.0
 40
0.0
 40
0.2
 40
0.2
 40
0.2
 40
0.2
 40
0.4
 40
0.4
 40
0.4
 40
0.4
 40
0.6
 40
0.6
 40
0.6
 40
0.6
 40
1.0
 40
1.0
 40
1.0
 40
1.0
 10
-4.3943
 20
-2.7096
 30
0.0
 10
-4.3943
 20
-2.7096
 30
0.0
 10
-4.8958
 20
-6.2635
 30
0.0
 10
-4.8958
 20
-6.2635
 30
0.0
 10
-4.8958
 20
-6.2635
 30
0.0
 10
-4.8958
 20
-6.2635
 30
0.0
 10
-5.0072
 20
-6.2635
 30
0.0
 10
-5.0072
 20
-6.2635
 30
0.0
 10
-5.0072
 20
-6.2635
 30
0.0
 10
-5.0072
 20
-6.2635
 30
0.0
 10
-5.5421
 20
-2.7096
 30
0.0
 10
-5.5421
 20
-2.7096
 30
0.0
 10
-5.5421
 20
-2.7096
 30
0.0
 10
-5.5421
 20
-2.7096
 30
0.0
 10
-4.3943
 20
-2.7096
 30
0.0
 10
-4.3943
 20
-2.7096
 30
0.0
  0
SPLINE
  5
A5
330
1F
100
AcDbEntity
  8
ROUND
 62
   250
100
AcDbSpline
210
0.0
220
0.0
230
1.0
 70
    11
 71
     3
 72
    48
 73
    44
 74
     0
 42
0.0000000001
 43
0.0000000001
 40
0.0
 40
0.0
 40
0.0
 40
0.0
 40
0.0833333333333333
 40
0.0833333333333333
 40
0.0833333333333333
 40
0.0833333333333333
 40
0.1666666666666667
 40
0.1666666666666667
 40
0.1666666666666667
 40
0.1666666666666667
 40
0.25
 40
0.25
 40
0.25
 40
0.25
 40
0.3333333333333333
 40
0.3333333333333333
 40
0.3333333333333333
 40
0.3333333333333333
 40
0.4166666666666667
 40
0.4166666666666667
 40
0.4166666666666667
 40
0.4166666666666667
 40
0.5
 40
0.5
 40
0.5
 40
0.5
 40
0.5833333333333334
 40
0.5833333333333334
 40
0.5833333333333334
 40
0.5833333333333334
 40
0.6666666666666666
 40
0.6666666666666666
 40
0.6666666666666666
 40
0.6666666666666666
 40
0.75
 40
0.75
 40
0.75
 40
0.75
 40
0.8333333333333334
 40
0.8333333333333334
 40
0.8333333333333334
 40
0.8333333333333334
 40
1.0
 40
1.0
 40
1.0
 40
1.0
 10
-18.0738
 20
-33.5801
 30
0.0
 10
-18.0738
 20
-33.5801
 30
0.0
 10
-18.0738
 20
-33.3416
 30
0.0
 10
-18.0738
 20
-33.3416
 30
0.0
 10
-18.0738
 20
-33.3416
 30
0.0
 10
-18.0738
 20
-33.3416
 30
0.0
 10
-16.7662
 20
-33.3416
 30
0.0
 10
-16.7662
 20
-33.3416
 30
0.0
 10
-16.7662
 20
-33.3416
 30
0.0
 10
-16.7662
 20
-33.3416
 30
0.0
 10
-16.7662
 20
-33.5345
 30
0.0
 10
-16.7662
 20
-33.5345
 30
0.0
 10
-16.7662
 20
-33.5345
 30
0.0
 10
-16.8946
 20
-33.6713
 30
0.0
 10
-17.0221
 20
-33.8534
 30
0.0
 10
-17.1486
 20
-34.0801
 30
0.0
 10
-17.1486
 20
-34.0801
 30
0.0
 10
-17.2747
 20
-34.3068
 30
0.0
 10
-17.3725
 20
-34.5406
 30
0.0
 10
-17.4412
 20
-34.78
 30
0.0
 10
-17.4412
 20
-34.78
 30
0.0
 10
-17.491
 20
-34.9493
 30
0.0
 10
-17.5225
 20
-35.1342
 30
0.0
 10
-17.5362
 20
-35.3355
 30
0.0
 10
-17.5362
 20
-35.3355
 30
0.0
 10
-17.5362
 20
-35.3355
 30
0.0
 10
-17.7911
 20
-35.3355
 30
0.0
 10
-17.7911
 20
-35.3355
 30
0.0
 10
-17.7911
 20
-35.3355
 30
0.0
 10
-17.7883
 20
-35.1765
 30
0.0
 10
-17.7573
 20
-34.9846
 30
0.0
 10
-17.6975
 20
-34.7593
 30
0.0
 10
-17.6975
 20
-34.7593
 30
0.0
 10
-17.6378
 20
-34.5345
 30
0.0
 10
-17.5522
 20
-34.3172
 30
0.0
 10
-17.4407
 20
-34.1083
 30
0.0
 10
-17.4407
 20
-34.1083
 30
0.0
 10
-17.3288
 20
-33.8995
 30
0.0
 10
-17.2102
 20
-33.7231
 30
0.0
 10
-17.0842
 20
-33.5801
 30
0.0
 10
-17.0842
 20
-33.5801
 30
0.0
 10
-17.0842
 20
-33.5801
 30
0.0
 10
-18.0738
 20
-33.5801
 30
0.0
 10
-18.0738
 20
-33.5801
 30
0.0
  0
SPLINE
  5
A6
330
1F
100
AcDbEntity
  8
ROUND
 62
   250
100
AcDbSpline
210
0.0
220
0.0
230
1.0
 70
    11
 71
     3
 72
    52
 73
    48
 74
     0
 42
0.0000000001
 43
0.0000000001
 40
0.0
 40
0.0
 40
0.0
 40
0.0
 40
0.0769230769230769
 40
0.0769230769230769
 40
0.0769230769230769
 40
0.0769230769230769
 40
0.1538461538461539
 40
0.1538461538461539
 40
0.1538461538461539
 40
0.1538461538461539
 40
0.2307692307692308
 40
0.2307692307692308
 40
0.2307692307692308
 40
0.2307692307692308
 40
0.3076923076923077
 40
0.3076923076923077
 40
0.3076923076923077
 40
0.3076923076923077
 40
0.3846153846153846
 40
0.3846153846153846
 40
0.3846153846153846
 40
0.3846153846153846
 40
0.4615384615384616
 40
0.4615384615384616
 40
0.4615384615384616
 40
0.4615384615384616
 40
0.5384615384615384
 40
0.5384615384615384
 40
0.5384615384615384
 40
0.5384615384615384
 40
0.6153846153846154
 40
0.6153846153846154
 40
0.6153846153846154
 40
0.6153846153846154
 40
0.6923076923076923
 40
0.6923076923076923
 40
0.6923076923076923
 40
0.6923076923076923
 40
0.7692307692307693
 40
0.7692307692307693
 40
0.7692307692307693
 40
0.7692307692307693
 40
0.8461538461538461
 40
0.8461538461538461
 40
0.8461538461538461
 40
0.8461538461538461
 40
1.0
 40
1.0
 40
1.0
 40
1.0
 10
-16.5207
 20
-34.3393
 30
0.0
 10
-16.5207
 20
-34.1003
 30
0.0
 10
-16.4962
 20
-33.9079
 30
0.0
 10
-16.4468
 20
-33.7626
 30
0.0
 10
-16.4468
 20
-33.7626
 30
0.0
 10
-16.3979
 20
-33.6168
 30
0.0
 10
-16.3245
 20
-33.5044
 30
0.0
 10
-16.2276
 20
-33.4253
 30
0.0
 10
-16.2276
 20
-33.4253
 30
0.0
 10
-16.1307
 20
-33.3463
 30
0.0
 10
-16.0089
 20
-33.3068
 30
0.0
 10
-15.8622
 20
-33.3068
 30
0.0
 10
-15.8622
 20
-33.3068
 30
0.0
 10
-15.7535
 20
-33.3068
 30
0.0
 10
-15.6585
 20
-33.3289
 30
0.0
 10
-15.5767
 20
-33.3727
 30
0.0
 10
-15.5767
 20
-33.3727
 30
0.0
 10
-15.4948
 20
-33.4159
 30
0.0
 10
-15.4275
 20
-33.479
 30
0.0
 10
-15.3739
 20
-33.5613
 30
0.0
 10
-15.3739
 20
-33.5613
 30
0.0
 10
-15.3208
 20
-33.6436
 30
0.0
 10
-15.2789
 20
-33.7438
 30
0.0
 10
-15.2488
 20
-33.8618
 30
0.0
 10
-15.2488
 20
-33.8618
 30
0.0
 10
-15.2182
 20
-33.9799
 30
0.0
 10
-15.2032
 20
-34.1389
 30
0.0
 10
-15.2032
 20
-34.3393
 30
0.0
 10
-15.2032
 20
-34.3393
 30
0.0
 10
-15.2032
 20
-34.5763
 30
0.0
 10
-15.2276
 20
-34.7673
 30
0.0
 10
-15.2761
 20
-34.9131
 30
0.0
 10
-15.2761
 20
-34.9131
 30
0.0
 10
-15.325
 20
-35.0589
 30
0.0
 10
-15.3979
 20
-35.1713
 30
0.0
 10
-15.4948
 20
-35.2508
 30
0.0
 10
-15.4948
 20
-35.2508
 30
0.0
 10
-15.5917
 20
-35.3303
 30
0.0
 10
-15.714
 20
-35.3698
 30
0.0
 10
-15.8622
 20
-35.3698
 30
0.0
 10
-15.8622
 20
-35.3698
 30
0.0
 10
-16.0569
 20
-35.3698
 30
0.0
 10
-16.2098
 20
-35.3002
 30
0.0
 10
-16.3208
 20
-35.1605
 30
0.0
 10
-16.3208
 20
-35.1605
 30
0.0
 10
-16.4539
 20
-34.9926
 30
0.0
 10
-16.5207
 20
-34.7184
 30
0.0
 10
-16.5207
 20
-34.3393
 30
0.0
  0
SPLINE
  5
A7
330
1F
100
AcDbEntity
  8
ROUND
 62
   250
100
AcDbSpline
210
0.0
220
0.0
230
1.0
 70
    11
 71
     3
 72
    36
 73
    32
 74
     0
 42
0.0000000001
 43
0.0000000001
 40
0.0
 40
0.0
 40
0.0
 40
0.0
 40
0.1111111111111111
 40
0.1111111111111111
 40
0.1111111111111111
 40
0.1111111111111111
 40
0.2222222222222222
 40
0.2222222222222222
 40
0.2222222222222222
 40
0.2222222222222222
 40
0.3333333333333333
 40
0.3333333333333333
 40
0.3333333333333333
 40
0.3333333333333333
 40
0.4444444444444444
 40
0.4444444444444444
 40
0.4444444444444444
 40
0.4444444444444444
 40
0.5555555555555556
 40
0.5555555555555556
 40
0.5555555555555556
 40
0.5555555555555556
 40
0.6666666666666666
 40
0.6666666666666666
 40
0.6666666666666666
 40
0.6666666666666666
 40
0.7777777777777778
 40
0.7777777777777778
 40
0.7777777777777778
 40
0.7777777777777778
 40
1.0
 40
1.0
 40
1.0
 40
1.0
 10
-16.2657
 20
-34.3393
 30
0.0
 10
-16.2657
 20
-34.6709
 30
0.0
 10
-16.2267
 20
-34.8915
 30
0.0
 10
-16.1491
 20
-35.0015
 30
0.0
 10
-16.1491
 20
-35.0015
 30
0.0
 10
-16.0715
 20
-35.1111
 30
0.0
 10
-15.976
 20
-35.1662
 30
0.0
 10
-15.8622
 20
-35.1662
 30
0.0
 10
-15.8622
 20
-35.1662
 30
0.0
 10
-15.7479
 20
-35.1662
 30
0.0
 10
-15.6524
 20
-35.1107
 30
0.0
 10
-15.5748
 20
-35.0006
 30
0.0
 10
-15.5748
 20
-35.0006
 30
0.0
 10
-15.4972
 20
-34.8905
 30
0.0
 10
-15.4581
 20
-34.6699
 30
0.0
 10
-15.4581
 20
-34.3393
 30
0.0
 10
-15.4581
 20
-34.3393
 30
0.0
 10
-15.4581
 20
-34.0067
 30
0.0
 10
-15.4972
 20
-33.7856
 30
0.0
 10
-15.5748
 20
-33.6765
 30
0.0
 10
-15.5748
 20
-33.6765
 30
0.0
 10
-15.6524
 20
-33.5669
 30
0.0
 10
-15.7488
 20
-33.5124
 30
0.0
 10
-15.8645
 20
-33.5124
 30
0.0
 10
-15.8645
 20
-33.5124
 30
0.0
 10
-15.9788
 20
-33.5124
 30
0.0
 10
-16.0696
 20
-33.5608
 30
0.0
 10
-16.1378
 20
-33.6572
 30
0.0
 10
-16.1378
 20
-33.6572
 30
0.0
 10
-16.2229
 20
-33.78
 30
0.0
 10
-16.2657
 20
-34.0077
 30
0.0
 10
-16.2657
 20
-34.3393
 30
0.0
  0
SPLINE
  5
A8
330
1F
100
AcDbEntity
  8
ROUND
 62
   250
100
AcDbSpline
210
0.0
220
0.0
230
1.0
 70
    11
 71
     3
 72
    20
 73
    16
 74
     0
 42
0.0000000001
 43
0.0000000001
 40
0.0
 40
0.0
 40
0.0
 40
0.0
 40
0.2
 40
0.2
 40
0.2
 40
0.2
 40
0.4
 40
0.4
 40
0.4
 40
0.4
 40
0.6
 40
0.6
 40
0.6
 40
0.6
 40
1.0
 40
1.0
 40
1.0
 40
1.0
 10
-13.3983
 20
-35.2923
 30
0.0
 10
-13.3983
 20
-35.2923
 30
0.0
 10
-9.8445
 20
-35.7939
 30
0.0
 10
-9.8445
 20
-35.7939
 30
0.0
 10
-9.8445
 20
-35.7939
 30
0.0
 10
-9.8445
 20
-35.7939
 30
0.0
 10
-9.8445
 20
-35.9053
 30
0.0
 10
-9.8445
 20
-35.9053
 30
0.0
 10
-9.8445
 20
-35.9053
 30
0.0
 10
-9.8445
 20
-35.9053
 30
0.0
 10
-13.3983
 20
-36.4401
 30
0.0
 10
-13.3983
 20
-36.4401
 30
0.0
 10
-13.3983
 20
-36.4401
 30
0.0
 10
-13.3983
 20
-36.4401
 30
0.0
 10
-13.3983
 20
-35.2923
 30
0.0
 10
-13.3983
 20
-35.2923
 30
0.0
  0
SPLINE
  5
A9
330
1F
100
AcDbEntity
  8
ROUND
 62
   250
100
AcDbSpline
210
0.0
220
0.0
230
1.0
 70
    11
 71
     3
 72
    20
 73
    16
 74
     0
 42
0.0000000001
 43
0.0000000001
 40
0.0
 40
0.0
 40
0.0
 40
0.0
 40
0.2
 40
0.2
 40
0.2
 40
0.2
 40
0.4
 40
0.4
 40
0.4
 40
0.4
 40
0.6
 40
0.6
 40
0.6
 40
0.6
 40
1.0
 40
1.0
 40
1.0
 40
1.0
 10
-20.4171
 20
-36.395
 30
0.0
 10
-20.4171
 20
-36.395
 30
0.0
 10
-23.9709
 20
-35.8934
 30
0.0
 10
-23.9709
 20
-35.8934
 30
0.0
 10
-23.9709
 20
-35.8934
 30
0.0
 10
-23.9709
 20
-35.8934
 30
0.0
 10
-23.9709
 20
-35.782
 30
0.0
 10
-23.9709
 20
-35.782
 30
0.0
 10
-23.9709
 20
-35.782
 30
0.0
 10
-23.9709
 20
-35.782
 30
0.0
 10
-20.4171
 20
-35.2471
 30
0.0
 10
-20.4171
 20
-35.2471
 30
0.0
 10
-20.4171
 20
-35.2471
 30
0.0
 10
-20.4171
 20
-35.2471
 30
0.0
 10
-20.4171
 20
-36.395
 30
0.0
 10
-20.4171
 20
-36.395
 30
0.0
  0
SPLINE
  5
AA
330
1F
100
AcDbEntity
  8
ROUND
 62
   250
100
AcDbSpline
210
0.0
220
0.0
230
1.0
 70
    24
 71
     3
 72
     8
 73
     4
 74
     0
 42
0.0000000001
 43
0.0000000001
 40
0.0
 40
0.0
 40
0.0
 40
0.0
 40
1.0
 40
1.0
 40
1.0
 40
1.0
 10
-23.5503
 20
-35.8504
 30
0.0
 10
-23.5503
 20
-35.8504
 30
0.0
 10
-10.6566
 20
-35.8504
 30
0.0
 10
-10.6566
 20
-35.8504
 30
0.0
  0
SPLINE
  5
AB
330
1F
100
AcDbEntity
  8
ROUND
 62
   250
100
AcDbSpline
210
0.0
220
0.0
230
1.0
 70
    11
 71
     3
 72
   124
 73
   120
 74
     0
 42
0.0000000001
 43
0.0000000001
 40
0.0
 40
0.0
 40
0.0
 40
0.0
 40
0.032258064516129
 40
0.032258064516129
 40
0.032258064516129
 40
0.032258064516129
 40
0.0645161290322581
 40
0.0645161290322581
 40
0.0645161290322581
 40
0.0645161290322581
 40
0.0967741935483871
 40
0.0967741935483871
 40
0.0967741935483871
 40
0.0967741935483871
 40
0.1290322580645161
 40
0.1290322580645161
 40
0.1290322580645161
 40
0.1290322580645161
 40
0.1612903225806452
 40
0.1612903225806452
 40
0.1612903225806452
 40
0.1612903225806452
 40
0.1935483870967742
 40
0.1935483870967742
 40
0.1935483870967742
 40
0.1935483870967742
 40
0.2258064516129032
 40
0.2258064516129032
 40
0.2258064516129032
 40
0.2258064516129032
 40
0.2580645161290323
 40
0.2580645161290323
 40
0.2580645161290323
 40
0.2580645161290323
 40
0.2903225806451613
 40
0.2903225806451613
 40
0.2903225806451613
 40
0.2903225806451613
 40
0.3225806451612903
 40
0.3225806451612903
 40
0.3225806451612903
 40
0.3225806451612903
 40
0.3548387096774194
 40
0.3548387096774194
 40
0.3548387096774194
 40
0.3548387096774194
 40
0.3870967741935484
 40
0.3870967741935484
 40
0.3870967741935484
 40
0.3870967741935484
 40
0.4193548387096774
 40
0.4193548387096774
 40
0.4193548387096774
 40
0.4193548387096774
 40
0.4516129032258064
 40
0.4516129032258064
 40
0.4516129032258064
 40
0.4516129032258064
 40
0.4838709677419355
 40
0.4838709677419355
 40
0.4838709677419355
 40
0.4838709677419355
 40
0.5161290322580645
 40
0.5161290322580645
 40
0.5161290322580645
 40
0.5161290322580645
 40
0.5483870967741935
 40
0.5483870967741935
 40
0.5483870967741935
 40
0.5483870967741935
 40
0.5806451612903226
 40
0.5806451612903226
 40
0.5806451612903226
 40
0.5806451612903226
 40
0.6129032258064516
 40
0.6129032258064516
 40
0.6129032258064516
 40
0.6129032258064516
 40
0.6451612903225806
 40
0.6451612903225806
 40
0.6451612903225806
 40
0.6451612903225806
 40
0.6774193548387096
 40
0.6774193548387096
 40
0.6774193548387096
 40
0.6774193548387096
 40
0.7096774193548387
 40
0.7096774193548387
 40
0.7096774193548387
 40
0.7096774193548387
 40
0.7419354838709677
 40
0.7419354838709677
 40
0.7419354838709677
 40
0.7419354838709677
 40
0.7741935483870968
 40
0.7741935483870968
 40
0.7741935483870968
 40
0.7741935483870968
 40
0.8064516129032258
 40
0.8064516129032258
 40
0.8064516129032258
 40
0.8064516129032258
 40
0.8387096774193549
 40
0.8387096774193549
 40
0.8387096774193549
 40
0.8387096774193549
 40
0.8709677419354839
 40
0.8709677419354839
 40
0.8709677419354839
 40
0.8709677419354839
 40
0.9032258064516129
 40
0.9032258064516129
 40
0.9032258064516129
 40
0.9032258064516129
 40
0.9354838709677419
 40
0.9354838709677419
 40
0.9354838709677419
 40
0.9354838709677419
 40
1.0
 40
1.0
 40
1.0
 40
1.0
 10
1.647
 20
-2.4637
 30
0.0
 10
1.647
 20
-2.4637
 30
0.0
 10
1.614
 20
-2.2159
 30
0.0
 10
1.614
 20
-2.2159
 30
0.0
 10
1.614
 20
-2.2159
 30
0.0
 10
1.7547
 20
-2.1871
 30
0.0
 10
1.8559
 20
-2.1387
 30
0.0
 10
1.9179
 20
-2.0706
 30
0.0
 10
1.9179
 20
-2.0706
 30
0.0
 10
1.98
 20
-2.0018
 30
0.0
 10
2.011
 20
-1.9186
 30
0.0
 10
2.011
 20
-1.8203
 30
0.0
 10
2.011
 20
-1.8203
 30
0.0
 10
2.011
 20
-1.7037
 30
0.0
 10
1.9706
 20
-1.6048
 30
0.0
 10
1.8897
 20
-1.5245
 30
0.0
 10
1.8897
 20
-1.5245
 30
0.0
 10
1.8088
 20
-1.4444
 30
0.0
 10
1.7087
 20
-1.4041
 30
0.0
 10
1.5891
 20
-1.4041
 30
0.0
 10
1.5891
 20
-1.4041
 30
0.0
 10
1.4753
 20
-1.4041
 30
0.0
 10
1.3812
 20
-1.4412
 30
0.0
 10
1.3074
 20
-1.5155
 30
0.0
 10
1.3074
 20
-1.5155
 30
0.0
 10
1.2335
 20
-1.5902
 30
0.0
 10
1.1964
 20
-1.6848
 30
0.0
 10
1.1964
 20
-1.7996
 30
0.0
 10
1.1964
 20
-1.7996
 30
0.0
 10
1.1964
 20
-1.8467
 30
0.0
 10
1.2058
 20
-1.9049
 30
0.0
 10
1.2241
 20
-1.9746
 30
0.0
 10
1.2241
 20
-1.9746
 30
0.0
 10
1.2241
 20
-1.9746
 30
0.0
 10
1.0064
 20
-1.9468
 30
0.0
 10
1.0064
 20
-1.9468
 30
0.0
 10
1.0064
 20
-1.9468
 30
0.0
 10
1.0083
 20
-1.9304
 30
0.0
 10
1.0091
 20
-1.9171
 30
0.0
 10
1.0091
 20
-1.9068
 30
0.0
 10
1.0091
 20
-1.9068
 30
0.0
 10
1.0091
 20
-1.8015
 30
0.0
 10
0.9814
 20
-1.7064
 30
0.0
 10
0.9264
 20
-1.6217
 30
0.0
 10
0.9264
 20
-1.6217
 30
0.0
 10
0.8714
 20
-1.5372
 30
0.0
 10
0.7862
 20
-1.4948
 30
0.0
 10
0.6714
 20
-1.4948
 30
0.0
 10
0.6714
 20
-1.4948
 30
0.0
 10
0.5806
 20
-1.4948
 30
0.0
 10
0.5049
 20
-1.5259
 30
0.0
 10
0.4456
 20
-1.5875
 30
0.0
 10
0.4456
 20
-1.5875
 30
0.0
 10
0.386
 20
-1.649
 30
0.0
 10
0.3558
 20
-1.7286
 30
0.0
 10
0.3558
 20
-1.826
 30
0.0
 10
0.3558
 20
-1.826
 30
0.0
 10
0.3558
 20
-1.9224
 30
0.0
 10
0.3864
 20
-2.0028
 30
0.0
 10
0.4466
 20
-2.0667
 30
0.0
 10
0.4466
 20
-2.0667
 30
0.0
 10
0.5072
 20
-2.1312
 30
0.0
 10
0.5985
 20
-2.1726
 30
0.0
 10
0.7198
 20
-2.191
 30
0.0
 10
0.7198
 20
-2.191
 30
0.0
 10
0.7198
 20
-2.191
 30
0.0
 10
0.6756
 20
-2.4388
 30
0.0
 10
0.6756
 20
-2.4388
 30
0.0
 10
0.6756
 20
-2.4388
 30
0.0
 10
0.5091
 20
-2.4087
 30
0.0
 10
0.3802
 20
-2.3396
 30
0.0
 10
0.2891
 20
-2.2324
 30
0.0
 10
0.2891
 20
-2.2324
 30
0.0
 10
0.1978
 20
-2.1246
 30
0.0
 10
0.1517
 20
-1.991
 30
0.0
 10
0.1517
 20
-1.8311
 30
0.0
 10
0.1517
 20
-1.8311
 30
0.0
 10
0.1517
 20
-1.721
 30
0.0
 10
0.1756
 20
-1.6194
 30
0.0
 10
0.2227
 20
-1.5267
 30
0.0
 10
0.2227
 20
-1.5267
 30
0.0
 10
0.2703
 20
-1.4341
 30
0.0
 10
0.3346
 20
-1.3631
 30
0.0
 10
0.4165
 20
-1.3136
 30
0.0
 10
0.4165
 20
-1.3136
 30
0.0
 10
0.4983
 20
-1.2648
 30
0.0
 10
0.5848
 20
-1.2398
 30
0.0
 10
0.6771
 20
-1.2398
 30
0.0
 10
0.6771
 20
-1.2398
 30
0.0
 10
0.764
 20
-1.2398
 30
0.0
 10
0.8436
 20
-1.2633
 30
0.0
 10
0.9156
 20
-1.3104
 30
0.0
 10
0.9156
 20
-1.3104
 30
0.0
 10
0.9871
 20
-1.3575
 30
0.0
 10
1.044
 20
-1.4266
 30
0.0
 10
1.0863
 20
-1.5183
 30
0.0
 10
1.0863
 20
-1.5183
 30
0.0
 10
1.1136
 20
-1.3988
 30
0.0
 10
1.171
 20
-1.3062
 30
0.0
 10
1.258
 20
-1.2398
 30
0.0
 10
1.258
 20
-1.2398
 30
0.0
 10
1.3445
 20
-1.174
 30
0.0
 10
1.4532
 20
-1.141
 30
0.0
 10
1.5835
 20
-1.141
 30
0.0
 10
1.5835
 20
-1.141
 30
0.0
 10
1.7598
 20
-1.141
 30
0.0
 10
1.9094
 20
-1.205
 30
0.0
 10
2.0322
 20
-1.3339
 30
0.0
 10
2.0322
 20
-1.3339
 30
0.0
 10
2.155
 20
-1.4623
 30
0.0
 10
2.2161
 20
-1.6251
 30
0.0
 10
2.2161
 20
-1.8218
 30
0.0
 10
2.2161
 20
-1.8218
 30
0.0
 10
2.2161
 20
-1.9991
 30
0.0
 10
2.1635
 20
-2.1463
 30
0.0
 10
2.0576
 20
-2.2634
 30
0.0
 10
2.0576
 20
-2.2634
 30
0.0
 10
1.9522
 20
-2.3806
 30
0.0
 10
1.8154
 20
-2.4473
 30
0.0
 10
1.647
 20
-2.4637
 30
0.0
  0
SPLINE
  5
AC
330
1F
100
AcDbEntity
  8
ROUND
 62
   250
100
AcDbSpline
210
0.0
220
0.0
230
1.0
 70
    11
 71
     3
 72
    52
 73
    48
 74
     0
 42
0.0000000001
 43
0.0000000001
 40
0.0
 40
0.0
 40
0.0
 40
0.0
 40
0.0769230769230769
 40
0.0769230769230769
 40
0.0769230769230769
 40
0.0769230769230769
 40
0.1538461538461539
 40
0.1538461538461539
 40
0.1538461538461539
 40
0.1538461538461539
 40
0.2307692307692308
 40
0.2307692307692308
 40
0.2307692307692308
 40
0.2307692307692308
 40
0.3076923076923077
 40
0.3076923076923077
 40
0.3076923076923077
 40
0.3076923076923077
 40
0.3846153846153846
 40
0.3846153846153846
 40
0.3846153846153846
 40
0.3846153846153846
 40
0.4615384615384616
 40
0.4615384615384616
 40
0.4615384615384616
 40
0.4615384615384616
 40
0.5384615384615384
 40
0.5384615384615384
 40
0.5384615384615384
 40
0.5384615384615384
 40
0.6153846153846154
 40
0.6153846153846154
 40
0.6153846153846154
 40
0.6153846153846154
 40
0.6923076923076923
 40
0.6923076923076923
 40
0.6923076923076923
 40
0.6923076923076923
 40
0.7692307692307693
 40
0.7692307692307693
 40
0.7692307692307693
 40
0.7692307692307693
 40
0.8461538461538461
 40
0.8461538461538461
 40
0.8461538461538461
 40
0.8461538461538461
 40
1.0
 40
1.0
 40
1.0
 40
1.0
 10
1.1841
 20
-0.8956
 30
0.0
 10
0.9452
 20
-0.8956
 30
0.0
 10
0.7528
 20
-0.871
 30
0.0
 10
0.6075
 20
-0.8217
 30
0.0
 10
0.6075
 20
-0.8217
 30
0.0
 10
0.4617
 20
-0.7728
 30
0.0
 10
0.3492
 20
-0.6994
 30
0.0
 10
0.2703
 20
-0.6024
 30
0.0
 10
0.2703
 20
-0.6024
 30
0.0
 10
0.1912
 20
-0.5055
 30
0.0
 10
0.1517
 20
-0.3837
 30
0.0
 10
0.1517
 20
-0.237
 30
0.0
 10
0.1517
 20
-0.237
 30
0.0
 10
0.1517
 20
-0.1283
 30
0.0
 10
0.1737
 20
-0.0333
 30
0.0
 10
0.2176
 20
0.0485
 30
0.0
 10
0.2176
 20
0.0485
 30
0.0
 10
0.2608
 20
0.1304
 30
0.0
 10
0.3238
 20
0.1976
 30
0.0
 10
0.4061
 20
0.2513
 30
0.0
 10
0.4061
 20
0.2513
 30
0.0
 10
0.4884
 20
0.3045
 30
0.0
 10
0.5887
 20
0.3463
 30
0.0
 10
0.7068
 20
0.3763
 30
0.0
 10
0.7068
 20
0.3763
 30
0.0
 10
0.8248
 20
0.407
 30
0.0
 10
0.9837
 20
0.422
 30
0.0
 10
1.1841
 20
0.422
 30
0.0
 10
1.1841
 20
0.422
 30
0.0
 10
1.4212
 20
0.422
 30
0.0
 10
1.6121
 20
0.3975
 30
0.0
 10
1.758
 20
0.349
 30
0.0
 10
1.758
 20
0.349
 30
0.0
 10
1.9038
 20
0.3002
 30
0.0
 10
2.0163
 20
0.2272
 30
0.0
 10
2.0957
 20
0.1304
 30
0.0
 10
2.0957
 20
0.1304
 30
0.0
 10
2.1752
 20
0.0335
 30
0.0
 10
2.2148
 20
-0.0888
 30
0.0
 10
2.2148
 20
-0.237
 30
0.0
 10
2.2148
 20
-0.237
 30
0.0
 10
2.2148
 20
-0.4317
 30
0.0
 10
2.1452
 20
-0.5846
 30
0.0
 10
2.0054
 20
-0.6956
 30
0.0
 10
2.0054
 20
-0.6956
 30
0.0
 10
1.8376
 20
-0.8287
 30
0.0
 10
1.5633
 20
-0.8956
 30
0.0
 10
1.1841
 20
-0.8956
 30
0.0
  0
SPLINE
  5
AD
330
1F
100
AcDbEntity
  8
ROUND
 62
   250
100
AcDbSpline
210
0.0
220
0.0
230
1.0
 70
    11
 71
     3
 72
    36
 73
    32
 74
     0
 42
0.0000000001
 43
0.0000000001
 40
0.0
 40
0.0
 40
0.0
 40
0.0
 40
0.1111111111111111
 40
0.1111111111111111
 40
0.1111111111111111
 40
0.1111111111111111
 40
0.2222222222222222
 40
0.2222222222222222
 40
0.2222222222222222
 40
0.2222222222222222
 40
0.3333333333333333
 40
0.3333333333333333
 40
0.3333333333333333
 40
0.3333333333333333
 40
0.4444444444444444
 40
0.4444444444444444
 40
0.4444444444444444
 40
0.4444444444444444
 40
0.5555555555555556
 40
0.5555555555555556
 40
0.5555555555555556
 40
0.5555555555555556
 40
0.6666666666666666
 40
0.6666666666666666
 40
0.6666666666666666
 40
0.6666666666666666
 40
0.7777777777777778
 40
0.7777777777777778
 40
0.7777777777777778
 40
0.7777777777777778
 40
1.0
 40
1.0
 40
1.0
 40
1.0
 10
1.1841
 20
-0.6405
 30
0.0
 10
1.5157
 20
-0.6405
 30
0.0
 10
1.7364
 20
-0.6015
 30
0.0
 10
1.8464
 20
-0.524
 30
0.0
 10
1.8464
 20
-0.524
 30
0.0
 10
1.956
 20
-0.4462
 30
0.0
 10
2.011
 20
-0.3509
 30
0.0
 10
2.011
 20
-0.237
 30
0.0
 10
2.011
 20
-0.237
 30
0.0
 10
2.011
 20
-0.1227
 30
0.0
 10
1.9556
 20
-0.0272
 30
0.0
 10
1.8455
 20
0.0504
 30
0.0
 10
1.8455
 20
0.0504
 30
0.0
 10
1.7354
 20
0.128
 30
0.0
 10
1.5149
 20
0.1671
 30
0.0
 10
1.1841
 20
0.1671
 30
0.0
 10
1.1841
 20
0.1671
 30
0.0
 10
0.8516
 20
0.1671
 30
0.0
 10
0.6305
 20
0.128
 30
0.0
 10
0.5214
 20
0.0504
 30
0.0
 10
0.5214
 20
0.0504
 30
0.0
 10
0.4117
 20
-0.0272
 30
0.0
 10
0.3572
 20
-0.1236
 30
0.0
 10
0.3572
 20
-0.2394
 30
0.0
 10
0.3572
 20
-0.2394
 30
0.0
 10
0.3572
 20
-0.3536
 30
0.0
 10
0.4056
 20
-0.4444
 30
0.0
 10
0.5021
 20
-0.5126
 30
0.0
 10
0.5021
 20
-0.5126
 30
0.0
 10
0.6248
 20
-0.5978
 30
0.0
 10
0.8526
 20
-0.6405
 30
0.0
 10
1.1841
 20
-0.6405
 30
0.0
  0
SPLINE
  5
AE
330
1F
100
AcDbEntity
  8
ROUND
 62
   250
100
AcDbSpline
210
0.0
220
0.0
230
1.0
 70
    11
 71
     3
 72
    52
 73
    48
 74
     0
 42
0.0000000001
 43
0.0000000001
 40
0.0
 40
0.0
 40
0.0
 40
0.0
 40
0.0769230769230769
 40
0.0769230769230769
 40
0.0769230769230769
 40
0.0769230769230769
 40
0.1538461538461539
 40
0.1538461538461539
 40
0.1538461538461539
 40
0.1538461538461539
 40
0.2307692307692308
 40
0.2307692307692308
 40
0.2307692307692308
 40
0.2307692307692308
 40
0.3076923076923077
 40
0.3076923076923077
 40
0.3076923076923077
 40
0.3076923076923077
 40
0.3846153846153846
 40
0.3846153846153846
 40
0.3846153846153846
 40
0.3846153846153846
 40
0.4615384615384616
 40
0.4615384615384616
 40
0.4615384615384616
 40
0.4615384615384616
 40
0.5384615384615384
 40
0.5384615384615384
 40
0.5384615384615384
 40
0.5384615384615384
 40
0.6153846153846154
 40
0.6153846153846154
 40
0.6153846153846154
 40
0.6153846153846154
 40
0.6923076923076923
 40
0.6923076923076923
 40
0.6923076923076923
 40
0.6923076923076923
 40
0.7692307692307693
 40
0.7692307692307693
 40
0.7692307692307693
 40
0.7692307692307693
 40
0.8461538461538461
 40
0.8461538461538461
 40
0.8461538461538461
 40
0.8461538461538461
 40
1.0
 40
1.0
 40
1.0
 40
1.0
 10
1.1841
 20
0.6741
 30
0.0
 10
0.9452
 20
0.6741
 30
0.0
 10
0.7528
 20
0.6986
 30
0.0
 10
0.6075
 20
0.7479
 30
0.0
 10
0.6075
 20
0.7479
 30
0.0
 10
0.4617
 20
0.7969
 30
0.0
 10
0.3492
 20
0.8702
 30
0.0
 10
0.2703
 20
0.9672
 30
0.0
 10
0.2703
 20
0.9672
 30
0.0
 10
0.1912
 20
1.0641
 30
0.0
 10
0.1517
 20
1.1859
 30
0.0
 10
0.1517
 20
1.3326
 30
0.0
 10
0.1517
 20
1.3326
 30
0.0
 10
0.1517
 20
1.4414
 30
0.0
 10
0.1737
 20
1.5364
 30
0.0
 10
0.2176
 20
1.6182
 30
0.0
 10
0.2176
 20
1.6182
 30
0.0
 10
0.2608
 20
1.7
 30
0.0
 10
0.3238
 20
1.7673
 30
0.0
 10
0.4061
 20
1.8209
 30
0.0
 10
0.4061
 20
1.8209
 30
0.0
 10
0.4884
 20
1.8741
 30
0.0
 10
0.5887
 20
1.916
 30
0.0
 10
0.7068
 20
1.946
 30
0.0
 10
0.7068
 20
1.946
 30
0.0
 10
0.8248
 20
1.9766
 30
0.0
 10
0.9837
 20
1.9917
 30
0.0
 10
1.1841
 20
1.9917
 30
0.0
 10
1.1841
 20
1.9917
 30
0.0
 10
1.4212
 20
1.9917
 30
0.0
 10
1.6121
 20
1.9672
 30
0.0
 10
1.758
 20
1.9187
 30
0.0
 10
1.758
 20
1.9187
 30
0.0
 10
1.9038
 20
1.8699
 30
0.0
 10
2.0163
 20
1.7969
 30
0.0
 10
2.0957
 20
1.7
 30
0.0
 10
2.0957
 20
1.7
 30
0.0
 10
2.1752
 20
1.6031
 30
0.0
 10
2.2148
 20
1.4808
 30
0.0
 10
2.2148
 20
1.3326
 30
0.0
 10
2.2148
 20
1.3326
 30
0.0
 10
2.2148
 20
1.138
 30
0.0
 10
2.1452
 20
0.9851
 30
0.0
 10
2.0054
 20
0.8741
 30
0.0
 10
2.0054
 20
0.8741
 30
0.0
 10
1.8376
 20
0.741
 30
0.0
 10
1.5633
 20
0.6741
 30
0.0
 10
1.1841
 20
0.6741
 30
0.0
  0
SPLINE
  5
AF
330
1F
100
AcDbEntity
  8
ROUND
 62
   250
100
AcDbSpline
210
0.0
220
0.0
230
1.0
 70
    11
 71
     3
 72
    36
 73
    32
 74
     0
 42
0.0000000001
 43
0.0000000001
 40
0.0
 40
0.0
 40
0.0
 40
0.0
 40
0.1111111111111111
 40
0.1111111111111111
 40
0.1111111111111111
 40
0.1111111111111111
 40
0.2222222222222222
 40
0.2222222222222222
 40
0.2222222222222222
 40
0.2222222222222222
 40
0.3333333333333333
 40
0.3333333333333333
 40
0.3333333333333333
 40
0.3333333333333333
 40
0.4444444444444444
 40
0.4444444444444444
 40
0.4444444444444444
 40
0.4444444444444444
 40
0.5555555555555556
 40
0.5555555555555556
 40
0.5555555555555556
 40
0.5555555555555556
 40
0.6666666666666666
 40
0.6666666666666666
 40
0.6666666666666666
 40
0.6666666666666666
 40
0.7777777777777778
 40
0.7777777777777778
 40
0.7777777777777778
 40
0.7777777777777778
 40
1.0
 40
1.0
 40
1.0
 40
1.0
 10
1.1841
 20
0.9291
 30
0.0
 10
1.5157
 20
0.9291
 30
0.0
 10
1.7364
 20
0.9681
 30
0.0
 10
1.8464
 20
1.0457
 30
0.0
 10
1.8464
 20
1.0457
 30
0.0
 10
1.956
 20
1.1234
 30
0.0
 10
2.011
 20
1.2188
 30
0.0
 10
2.011
 20
1.3326
 30
0.0
 10
2.011
 20
1.3326
 30
0.0
 10
2.011
 20
1.447
 30
0.0
 10
1.9556
 20
1.5425
 30
0.0
 10
1.8455
 20
1.6201
 30
0.0
 10
1.8455
 20
1.6201
 30
0.0
 10
1.7354
 20
1.6977
 30
0.0
 10
1.5149
 20
1.7368
 30
0.0
 10
1.1841
 20
1.7368
 30
0.0
 10
1.1841
 20
1.7368
 30
0.0
 10
0.8516
 20
1.7368
 30
0.0
 10
0.6305
 20
1.6977
 30
0.0
 10
0.5214
 20
1.6201
 30
0.0
 10
0.5214
 20
1.6201
 30
0.0
 10
0.4117
 20
1.5425
 30
0.0
 10
0.3572
 20
1.4461
 30
0.0
 10
0.3572
 20
1.3303
 30
0.0
 10
0.3572
 20
1.3303
 30
0.0
 10
0.3572
 20
1.2161
 30
0.0
 10
0.4056
 20
1.1253
 30
0.0
 10
0.5021
 20
1.057
 30
0.0
 10
0.5021
 20
1.057
 30
0.0
 10
0.6248
 20
0.9719
 30
0.0
 10
0.8526
 20
0.9291
 30
0.0
 10
1.1841
 20
0.9291
 30
0.0
  0
SPLINE
  5
B0
330
1F
100
AcDbEntity
  8
ROUND
 62
   250
100
AcDbSpline
210
0.0
220
0.0
230
1.0
 70
    24
 71
     3
 72
     8
 73
     4
 74
     0
 42
0.0000000001
 43
0.0000000001
 40
0.0
 40
0.0
 40
0.0
 40
0.0
 40
1.0
 40
1.0
 40
1.0
 40
1.0
 10
2.7106
 20
-31.6809
 30
0.0
 10
2.7106
 20
-31.6809
 30
0.0
 10
2.7106
 20
28.6361
 30
0.0
 10
2.7106
 20
28.6361
 30
0.0
  0
SPLINE
  5
B1
330
1F
100
AcDbEntity
  8
ROUND
 62
   250
100
AcDbSpline
210
0.0
220
0.0
230
1.0
 70
    11
 71
     3
 72
    20
 73
    16
 74
     0
 42
0.0000000001
 43
0.0000000001
 40
0.0
 40
0.0
 40
0.0
 40
0.0
 40
0.2
 40
0.2
 40
0.2
 40
0.2
 40
0.4
 40
0.4
 40
0.4
 40
0.4
 40
0.6
 40
0.6
 40
0.6
 40
0.6
 40
1.0
 40
1.0
 40
1.0
 40
1.0
 10
2.1546
 20
25.7582
 30
0.0
 10
2.1546
 20
25.7582
 30
0.0
 10
2.6562
 20
29.3121
 30
0.0
 10
2.6562
 20
29.3121
 30
0.0
 10
2.6562
 20
29.3121
 30
0.0
 10
2.6562
 20
29.3121
 30
0.0
 10
2.7676
 20
29.3121
 30
0.0
 10
2.7676
 20
29.3121
 30
0.0
 10
2.7676
 20
29.3121
 30
0.0
 10
2.7676
 20
29.3121
 30
0.0
 10
3.3025
 20
25.7582
 30
0.0
 10
3.3025
 20
25.7582
 30
0.0
 10
3.3025
 20
25.7582
 30
0.0
 10
3.3025
 20
25.7582
 30
0.0
 10
2.1546
 20
25.7582
 30
0.0
 10
2.1546
 20
25.7582
 30
0.0
  0
SPLINE
  5
B2
330
1F
100
AcDbEntity
  8
ROUND
 62
   250
100
AcDbSpline
210
0.0
220
0.0
230
1.0
 70
    11
 71
     3
 72
    20
 73
    16
 74
     0
 42
0.0000000001
 43
0.0000000001
 40
0.0
 40
0.0
 40
0.0
 40
0.0
 40
0.2
 40
0.2
 40
0.2
 40
0.2
 40
0.4
 40
0.4
 40
0.4
 40
0.4
 40
0.6
 40
0.6
 40
0.6
 40
0.6
 40
1.0
 40
1.0
 40
1.0
 40
1.0
 10
3.2729
 20
-28.2748
 30
0.0
 10
3.2729
 20
-28.2748
 30
0.0
 10
2.7714
 20
-31.8287
 30
0.0
 10
2.7714
 20
-31.8287
 30
0.0
 10
2.7714
 20
-31.8287
 30
0.0
 10
2.7714
 20
-31.8287
 30
0.0
 10
2.66
 20
-31.8287
 30
0.0
 10
2.66
 20
-31.8287
 30
0.0
 10
2.66
 20
-31.8287
 30
0.0
 10
2.66
 20
-31.8287
 30
0.0
 10
2.1251
 20
-28.2748
 30
0.0
 10
2.1251
 20
-28.2748
 30
0.0
 10
2.1251
 20
-28.2748
 30
0.0
 10
2.1251
 20
-28.2748
 30
0.0
 10
3.2729
 20
-28.2748
 30
0.0
 10
3.2729
 20
-28.2748
 30
0.0
  0
SPLINE
  5
B3
330
1F
100
AcDbEntity
  8
ROUND
 62
   250
100
AcDbSpline
210
0.0
220
0.0
230
1.0
 70
    11
 71
     3
 72
    40
 73
    36
 74
     0
 42
0.0000000001
 43
0.0000000001
 40
0.0
 40
0.0
 40
0.0
 40
0.0
 40
0.1
 40
0.1
 40
0.1
 40
0.1
 40
0.2
 40
0.2
 40
0.2
 40
0.2
 40
0.3
 40
0.3
 40
0.3
 40
0.3
 40
0.4
 40
0.4
 40
0.4
 40
0.4
 40
0.5
 40
0.5
 40
0.5
 40
0.5
 40
0.6
 40
0.6
 40
0.6
 40
0.6
 40
0.7
 40
0.7
 40
0.7
 40
0.7
 40
0.8
 40
0.8
 40
0.8
 40
0.8
 40
1.0
 40
1.0
 40
1.0
 40
1.0
 10
7.897
 20
-17.0617
 30
0.0
 10
7.897
 20
-17.0617
 30
0.0
 10
7.897
 20
-17.3096
 30
0.0
 10
7.897
 20
-17.3096
 30
0.0
 10
7.897
 20
-17.3096
 30
0.0
 10
7.897
 20
-17.3096
 30
0.0
 10
6.3165
 20
-17.3096
 30
0.0
 10
6.3165
 20
-17.3096
 30
0.0
 10
6.3165
 20
-17.3096
 30
0.0
 10
6.3734
 20
-17.3694
 30
0.0
 10
6.4303
 20
-17.4475
 30
0.0
 10
6.4872
 20
-17.5444
 30
0.0
 10
6.4872
 20
-17.5444
 30
0.0
 10
6.5442
 20
-17.6416
 30
0.0
 10
6.587
 20
-17.7287
 30
0.0
 10
6.6153
 20
-17.8059
 30
0.0
 10
6.6153
 20
-17.8059
 30
0.0
 10
6.6153
 20
-17.8059
 30
0.0
 10
6.3758
 20
-17.8059
 30
0.0
 10
6.3758
 20
-17.8059
 30
0.0
 10
6.3758
 20
-17.8059
 30
0.0
 10
6.3104
 20
-17.667
 30
0.0
 10
6.2314
 20
-17.5457
 30
0.0
 10
6.1388
 20
-17.4417
 30
0.0
 10
6.1388
 20
-17.4417
 30
0.0
 10
6.0456
 20
-17.3383
 30
0.0
 10
5.9557
 20
-17.2644
 30
0.0
 10
5.8683
 20
-17.2212
 30
0.0
 10
5.8683
 20
-17.2212
 30
0.0
 10
5.8683
 20
-17.2212
 30
0.0
 10
5.8683
 20
-17.0617
 30
0.0
 10
5.8683
 20
-17.0617
 30
0.0
 10
5.8683
 20
-17.0617
 30
0.0
 10
5.8683
 20
-17.0617
 30
0.0
 10
7.897
 20
-17.0617
 30
0.0
 10
7.897
 20
-17.0617
 30
0.0
  0
SPLINE
  5
B4
330
1F
100
AcDbEntity
  8
ROUND
 62
   250
100
AcDbSpline
210
0.0
220
0.0
230
1.0
 70
    11
 71
     3
 72
    92
 73
    88
 74
     0
 42
0.0000000001
 43
0.0000000001
 40
0.0
 40
0.0
 40
0.0
 40
0.0
 40
0.0434782608695652
 40
0.0434782608695652
 40
0.0434782608695652
 40
0.0434782608695652
 40
0.0869565217391304
 40
0.0869565217391304
 40
0.0869565217391304
 40
0.0869565217391304
 40
0.1304347826086956
 40
0.1304347826086956
 40
0.1304347826086956
 40
0.1304347826086956
 40
0.1739130434782609
 40
0.1739130434782609
 40
0.1739130434782609
 40
0.1739130434782609
 40
0.2173913043478261
 40
0.2173913043478261
 40
0.2173913043478261
 40
0.2173913043478261
 40
0.2608695652173913
 40
0.2608695652173913
 40
0.2608695652173913
 40
0.2608695652173913
 40
0.3043478260869565
 40
0.3043478260869565
 40
0.3043478260869565
 40
0.3043478260869565
 40
0.3478260869565217
 40
0.3478260869565217
 40
0.3478260869565217
 40
0.3478260869565217
 40
0.391304347826087
 40
0.391304347826087
 40
0.391304347826087
 40
0.391304347826087
 40
0.4347826086956522
 40
0.4347826086956522
 40
0.4347826086956522
 40
0.4347826086956522
 40
0.4782608695652174
 40
0.4782608695652174
 40
0.4782608695652174
 40
0.4782608695652174
 40
0.5217391304347826
 40
0.5217391304347826
 40
0.5217391304347826
 40
0.5217391304347826
 40
0.5652173913043478
 40
0.5652173913043478
 40
0.5652173913043478
 40
0.5652173913043478
 40
0.6086956521739131
 40
0.6086956521739131
 40
0.6086956521739131
 40
0.6086956521739131
 40
0.6521739130434783
 40
0.6521739130434783
 40
0.6521739130434783
 40
0.6521739130434783
 40
0.6956521739130435
 40
0.6956521739130435
 40
0.6956521739130435
 40
0.6956521739130435
 40
0.7391304347826086
 40
0.7391304347826086
 40
0.7391304347826086
 40
0.7391304347826086
 40
0.782608695652174
 40
0.782608695652174
 40
0.782608695652174
 40
0.782608695652174
 40
0.8260869565217391
 40
0.8260869565217391
 40
0.8260869565217391
 40
0.8260869565217391
 40
0.8695652173913043
 40
0.8695652173913043
 40
0.8695652173913043
 40
0.8695652173913043
 40
0.9130434782608695
 40
0.9130434782608695
 40
0.9130434782608695
 40
0.9130434782608695
 40
1.0
 40
1.0
 40
1.0
 40
1.0
 10
7.3678
 20
-16.4263
 30
0.0
 10
7.3678
 20
-16.4263
 30
0.0
 10
7.3457
 20
-16.1656
 30
0.0
 10
7.3457
 20
-16.1656
 30
0.0
 10
7.3457
 20
-16.1656
 30
0.0
 10
7.4727
 20
-16.1463
 30
0.0
 10
7.5677
 20
-16.1016
 30
0.0
 10
7.6317
 20
-16.0316
 30
0.0
 10
7.6317
 20
-16.0316
 30
0.0
 10
7.6956
 20
-15.961
 30
0.0
 10
7.7276
 20
-15.8763
 30
0.0
 10
7.7276
 20
-15.7771
 30
0.0
 10
7.7276
 20
-15.7771
 30
0.0
 10
7.7276
 20
-15.6576
 30
0.0
 10
7.6825
 20
-15.5565
 30
0.0
 10
7.5926
 20
-15.4742
 30
0.0
 10
7.5926
 20
-15.4742
 30
0.0
 10
7.5023
 20
-15.3914
 30
0.0
 10
7.3829
 20
-15.35
 30
0.0
 10
7.2342
 20
-15.35
 30
0.0
 10
7.2342
 20
-15.35
 30
0.0
 10
7.0926
 20
-15.35
 30
0.0
 10
6.9812
 20
-15.3895
 30
0.0
 10
6.8993
 20
-15.469
 30
0.0
 10
6.8993
 20
-15.469
 30
0.0
 10
6.8175
 20
-15.5485
 30
0.0
 10
6.7765
 20
-15.6524
 30
0.0
 10
6.7765
 20
-15.7813
 30
0.0
 10
6.7765
 20
-15.7813
 30
0.0
 10
6.7765
 20
-15.8613
 30
0.0
 10
6.7949
 20
-15.9332
 30
0.0
 10
6.8311
 20
-15.9977
 30
0.0
 10
6.8311
 20
-15.9977
 30
0.0
 10
6.8673
 20
-16.0621
 30
0.0
 10
6.9144
 20
-16.1124
 30
0.0
 10
6.9722
 20
-16.1492
 30
0.0
 10
6.9722
 20
-16.1492
 30
0.0
 10
6.9722
 20
-16.1492
 30
0.0
 10
6.9422
 20
-16.3819
 30
0.0
 10
6.9422
 20
-16.3819
 30
0.0
 10
6.9422
 20
-16.3819
 30
0.0
 10
6.9422
 20
-16.3819
 30
0.0
 10
5.9045
 20
-16.1863
 30
0.0
 10
5.9045
 20
-16.1863
 30
0.0
 10
5.9045
 20
-16.1863
 30
0.0
 10
5.9045
 20
-16.1863
 30
0.0
 10
5.9045
 20
-15.1817
 30
0.0
 10
5.9045
 20
-15.1817
 30
0.0
 10
5.9045
 20
-15.1817
 30
0.0
 10
5.9045
 20
-15.1817
 30
0.0
 10
6.1415
 20
-15.1817
 30
0.0
 10
6.1415
 20
-15.1817
 30
0.0
 10
6.1415
 20
-15.1817
 30
0.0
 10
6.1415
 20
-15.1817
 30
0.0
 10
6.1415
 20
-15.9878
 30
0.0
 10
6.1415
 20
-15.9878
 30
0.0
 10
6.1415
 20
-15.9878
 30
0.0
 10
6.1415
 20
-15.9878
 30
0.0
 10
6.6844
 20
-16.097
 30
0.0
 10
6.6844
 20
-16.097
 30
0.0
 10
6.6844
 20
-16.097
 30
0.0
 10
6.5997
 20
-15.9756
 30
0.0
 10
6.5574
 20
-15.8482
 30
0.0
 10
6.5574
 20
-15.715
 30
0.0
 10
6.5574
 20
-15.715
 30
0.0
 10
6.5574
 20
-15.5386
 30
0.0
 10
6.6185
 20
-15.39
 30
0.0
 10
6.7408
 20
-15.2686
 30
0.0
 10
6.7408
 20
-15.2686
 30
0.0
 10
6.8631
 20
-15.1473
 30
0.0
 10
7.0203
 20
-15.0866
 30
0.0
 10
7.2122
 20
-15.0866
 30
0.0
 10
7.2122
 20
-15.0866
 30
0.0
 10
7.3951
 20
-15.0866
 30
0.0
 10
7.5532
 20
-15.1402
 30
0.0
 10
7.6863
 20
-15.2465
 30
0.0
 10
7.6863
 20
-15.2465
 30
0.0
 10
7.8496
 20
-15.3763
 30
0.0
 10
7.9314
 20
-15.5531
 30
0.0
 10
7.9314
 20
-15.7771
 30
0.0
 10
7.9314
 20
-15.7771
 30
0.0
 10
7.9314
 20
-15.961
 30
0.0
 10
7.8801
 20
-16.1111
 30
0.0
 10
7.7771
 20
-16.2273
 30
0.0
 10
7.7771
 20
-16.2273
 30
0.0
 10
7.6741
 20
-16.3435
 30
0.0
 10
7.5376
 20
-16.4097
 30
0.0
 10
7.3678
 20
-16.4263
 30
0.0
  0
SPLINE
  5
B5
330
1F
100
AcDbEntity
  8
ROUND
 62
   250
100
AcDbSpline
210
0.0
220
0.0
230
1.0
 70
    11
 71
     3
 72
    52
 73
    48
 74
     0
 42
0.0000000001
 43
0.0000000001
 40
0.0
 40
0.0
 40
0.0
 40
0.0
 40
0.0769230769230769
 40
0.0769230769230769
 40
0.0769230769230769
 40
0.0769230769230769
 40
0.1538461538461539
 40
0.1538461538461539
 40
0.1538461538461539
 40
0.1538461538461539
 40
0.2307692307692308
 40
0.2307692307692308
 40
0.2307692307692308
 40
0.2307692307692308
 40
0.3076923076923077
 40
0.3076923076923077
 40
0.3076923076923077
 40
0.3076923076923077
 40
0.3846153846153846
 40
0.3846153846153846
 40
0.3846153846153846
 40
0.3846153846153846
 40
0.4615384615384616
 40
0.4615384615384616
 40
0.4615384615384616
 40
0.4615384615384616
 40
0.5384615384615384
 40
0.5384615384615384
 40
0.5384615384615384
 40
0.5384615384615384
 40
0.6153846153846154
 40
0.6153846153846154
 40
0.6153846153846154
 40
0.6153846153846154
 40
0.6923076923076923
 40
0.6923076923076923
 40
0.6923076923076923
 40
0.6923076923076923
 40
0.7692307692307693
 40
0.7692307692307693
 40
0.7692307692307693
 40
0.7692307692307693
 40
0.8461538461538461
 40
0.8461538461538461
 40
0.8461538461538461
 40
0.8461538461538461
 40
1.0
 40
1.0
 40
1.0
 40
1.0
 10
6.9007
 20
-14.8566
 30
0.0
 10
6.6618
 20
-14.8566
 30
0.0
 10
6.4694
 20
-14.8321
 30
0.0
 10
6.3241
 20
-14.7828
 30
0.0
 10
6.3241
 20
-14.7828
 30
0.0
 10
6.1783
 20
-14.7338
 30
0.0
 10
6.0658
 20
-14.6605
 30
0.0
 10
5.9869
 20
-14.5635
 30
0.0
 10
5.9869
 20
-14.5635
 30
0.0
 10
5.9078
 20
-14.4666
 30
0.0
 10
5.8683
 20
-14.3448
 30
0.0
 10
5.8683
 20
-14.1981
 30
0.0
 10
5.8683
 20
-14.1981
 30
0.0
 10
5.8683
 20
-14.0893
 30
0.0
 10
5.8903
 20
-13.9943
 30
0.0
 10
5.9342
 20
-13.9125
 30
0.0
 10
5.9342
 20
-13.9125
 30
0.0
 10
5.9774
 20
-13.8307
 30
0.0
 10
6.0404
 20
-13.7634
 30
0.0
 10
6.1227
 20
-13.7098
 30
0.0
 10
6.1227
 20
-13.7098
 30
0.0
 10
6.205
 20
-13.6566
 30
0.0
 10
6.3053
 20
-13.6147
 30
0.0
 10
6.4234
 20
-13.5847
 30
0.0
 10
6.4234
 20
-13.5847
 30
0.0
 10
6.5414
 20
-13.5541
 30
0.0
 10
6.7003
 20
-13.539
 30
0.0
 10
6.9007
 20
-13.539
 30
0.0
 10
6.9007
 20
-13.539
 30
0.0
 10
7.1378
 20
-13.539
 30
0.0
 10
7.3287
 20
-13.5635
 30
0.0
 10
7.4746
 20
-13.612
 30
0.0
 10
7.4746
 20
-13.612
 30
0.0
 10
7.6204
 20
-13.6608
 30
0.0
 10
7.7329
 20
-13.7338
 30
0.0
 10
7.8123
 20
-13.8307
 30
0.0
 10
7.8123
 20
-13.8307
 30
0.0
 10
7.8918
 20
-13.9276
 30
0.0
 10
7.9314
 20
-14.0499
 30
0.0
 10
7.9314
 20
-14.1981
 30
0.0
 10
7.9314
 20
-14.1981
 30
0.0
 10
7.9314
 20
-14.3927
 30
0.0
 10
7.8618
 20
-14.5456
 30
0.0
 10
7.722
 20
-14.6566
 30
0.0
 10
7.722
 20
-14.6566
 30
0.0
 10
7.5542
 20
-14.7897
 30
0.0
 10
7.2799
 20
-14.8566
 30
0.0
 10
6.9007
 20
-14.8566
 30
0.0
  0
SPLINE
  5
B6
330
1F
100
AcDbEntity
  8
ROUND
 62
   250
100
AcDbSpline
210
0.0
220
0.0
230
1.0
 70
    11
 71
     3
 72
    36
 73
    32
 74
     0
 42
0.0000000001
 43
0.0000000001
 40
0.0
 40
0.0
 40
0.0
 40
0.0
 40
0.1111111111111111
 40
0.1111111111111111
 40
0.1111111111111111
 40
0.1111111111111111
 40
0.2222222222222222
 40
0.2222222222222222
 40
0.2222222222222222
 40
0.2222222222222222
 40
0.3333333333333333
 40
0.3333333333333333
 40
0.3333333333333333
 40
0.3333333333333333
 40
0.4444444444444444
 40
0.4444444444444444
 40
0.4444444444444444
 40
0.4444444444444444
 40
0.5555555555555556
 40
0.5555555555555556
 40
0.5555555555555556
 40
0.5555555555555556
 40
0.6666666666666666
 40
0.6666666666666666
 40
0.6666666666666666
 40
0.6666666666666666
 40
0.7777777777777778
 40
0.7777777777777778
 40
0.7777777777777778
 40
0.7777777777777778
 40
1.0
 40
1.0
 40
1.0
 40
1.0
 10
6.9007
 20
-14.6016
 30
0.0
 10
7.2323
 20
-14.6016
 30
0.0
 10
7.453
 20
-14.5626
 30
0.0
 10
7.563
 20
-14.485
 30
0.0
 10
7.563
 20
-14.485
 30
0.0
 10
7.6726
 20
-14.4073
 30
0.0
 10
7.7276
 20
-14.3119
 30
0.0
 10
7.7276
 20
-14.1981
 30
0.0
 10
7.7276
 20
-14.1981
 30
0.0
 10
7.7276
 20
-14.0837
 30
0.0
 10
7.6722
 20
-13.9882
 30
0.0
 10
7.5621
 20
-13.9106
 30
0.0
 10
7.5621
 20
-13.9106
 30
0.0
 10
7.452
 20
-13.833
 30
0.0
 10
7.2315
 20
-13.7939
 30
0.0
 10
6.9007
 20
-13.7939
 30
0.0
 10
6.9007
 20
-13.7939
 30
0.0
 10
6.5682
 20
-13.7939
 30
0.0
 10
6.3471
 20
-13.833
 30
0.0
 10
6.238
 20
-13.9106
 30
0.0
 10
6.238
 20
-13.9106
 30
0.0
 10
6.1283
 20
-13.9882
 30
0.0
 10
6.0738
 20
-14.0846
 30
0.0
 10
6.0738
 20
-14.2004
 30
0.0
 10
6.0738
 20
-14.2004
 30
0.0
 10
6.0738
 20
-14.3146
 30
0.0
 10
6.1222
 20
-14.4054
 30
0.0
 10
6.2187
 20
-14.4737
 30
0.0
 10
6.2187
 20
-14.4737
 30
0.0
 10
6.3414
 20
-14.5588
 30
0.0
 10
6.5692
 20
-14.6016
 30
0.0
 10
6.9007
 20
-14.6016
 30
0.0
  0
SPLINE
  5
B7
330
1F
100
AcDbEntity
  8
ROUND
 62
   250
100
AcDbSpline
210
0.0
220
0.0
230
1.0
 70
    24
 71
     3
 72
     8
 73
     4
 74
     0
 42
0.0000000001
 43
0.0000000001
 40
0.0
 40
0.0
 40
0.0
 40
0.0
 40
1.0
 40
1.0
 40
1.0
 40
1.0
 10
8.4272
 20
-31.0377
 30
0.0
 10
8.4272
 20
-31.0377
 30
0.0
 10
8.4272
 20
-2.1347
 30
0.0
 10
8.4272
 20
-2.1347
 30
0.0
  0
SPLINE
  5
B8
330
1F
100
AcDbEntity
  8
ROUND
 62
   250
100
AcDbSpline
210
0.0
220
0.0
230
1.0
 70
    11
 71
     3
 72
    20
 73
    16
 74
     0
 42
0.0000000001
 43
0.0000000001
 40
0.0
 40
0.0
 40
0.0
 40
0.0
 40
0.2
 40
0.2
 40
0.2
 40
0.2
 40
0.4
 40
0.4
 40
0.4
 40
0.4
 40
0.6
 40
0.6
 40
0.6
 40
0.6
 40
1.0
 40
1.0
 40
1.0
 40
1.0
 10
7.8712
 20
-5.0125
 30
0.0
 10
7.8712
 20
-5.0125
 30
0.0
 10
8.3728
 20
-1.4586
 30
0.0
 10
8.3728
 20
-1.4586
 30
0.0
 10
8.3728
 20
-1.4586
 30
0.0
 10
8.3728
 20
-1.4586
 30
0.0
 10
8.4842
 20
-1.4586
 30
0.0
 10
8.4842
 20
-1.4586
 30
0.0
 10
8.4842
 20
-1.4586
 30
0.0
 10
8.4842
 20
-1.4586
 30
0.0
 10
9.0191
 20
-5.0125
 30
0.0
 10
9.0191
 20
-5.0125
 30
0.0
 10
9.0191
 20
-5.0125
 30
0.0
 10
9.0191
 20
-5.0125
 30
0.0
 10
7.8712
 20
-5.0125
 30
0.0
 10
7.8712
 20
-5.0125
 30
0.0
  0
SPLINE
  5
B9
330
1F
100
AcDbEntity
  8
ROUND
 62
   250
100
AcDbSpline
210
0.0
220
0.0
230
1.0
 70
    11
 71
     3
 72
    20
 73
    16
 74
     0
 42
0.0000000001
 43
0.0000000001
 40
0.0
 40
0.0
 40
0.0
 40
0.0
 40
0.2
 40
0.2
 40
0.2
 40
0.2
 40
0.4
 40
0.4
 40
0.4
 40
0.4
 40
0.6
 40
0.6
 40
0.6
 40
0.6
 40
1.0
 40
1.0
 40
1.0
 40
1.0
 10
8.9423
 20
-28.3001
 30
0.0
 10
8.9423
 20
-28.3001
 30
0.0
 10
8.4408
 20
-31.854
 30
0.0
 10
8.4408
 20
-31.854
 30
0.0
 10
8.4408
 20
-31.854
 30
0.0
 10
8.4408
 20
-31.854
 30
0.0
 10
8.3294
 20
-31.854
 30
0.0
 10
8.3294
 20
-31.854
 30
0.0
 10
8.3294
 20
-31.854
 30
0.0
 10
8.3294
 20
-31.854
 30
0.0
 10
7.7945
 20
-28.3001
 30
0.0
 10
7.7945
 20
-28.3001
 30
0.0
 10
7.7945
 20
-28.3001
 30
0.0
 10
7.7945
 20
-28.3001
 30
0.0
 10
8.9423
 20
-28.3001
 30
0.0
 10
8.9423
 20
-28.3001
 30
0.0
  0
SPLINE
  5
BA
330
1F
100
AcDbEntity
  8
ROUND
 62
   250
100
AcDbSpline
210
0.0
220
0.0
230
1.0
 70
    11
 71
     3
 72
    80
 73
    76
 74
     0
 42
0.0000000001
 43
0.0000000001
 40
0.0
 40
0.0
 40
0.0
 40
0.0
 40
0.05
 40
0.05
 40
0.05
 40
0.05
 40
0.1
 40
0.1
 40
0.1
 40
0.1
 40
0.15
 40
0.15
 40
0.15
 40
0.15
 40
0.2
 40
0.2
 40
0.2
 40
0.2
 40
0.25
 40
0.25
 40
0.25
 40
0.25
 40
0.3
 40
0.3
 40
0.3
 40
0.3
 40
0.35
 40
0.35
 40
0.35
 40
0.35
 40
0.4
 40
0.4
 40
0.4
 40
0.4
 40
0.45
 40
0.45
 40
0.45
 40
0.45
 40
0.5
 40
0.5
 40
0.5
 40
0.5
 40
0.55
 40
0.55
 40
0.55
 40
0.55
 40
0.6
 40
0.6
 40
0.6
 40
0.6
 40
0.65
 40
0.65
 40
0.65
 40
0.65
 40
0.7
 40
0.7
 40
0.7
 40
0.7
 40
0.75
 40
0.75
 40
0.75
 40
0.75
 40
0.8
 40
0.8
 40
0.8
 40
0.8
 40
0.85
 40
0.85
 40
0.85
 40
0.85
 40
0.9
 40
0.9
 40
0.9
 40
0.9
 40
1.0
 40
1.0
 40
1.0
 40
1.0
 10
6.2591
 20
22.9911
 30
0.0
 10
6.2591
 20
22.9911
 30
0.0
 10
6.2784
 20
22.7447
 30
0.0
 10
6.2784
 20
22.7447
 30
0.0
 10
6.2784
 20
22.7447
 30
0.0
 10
6.181
 20
22.7226
 30
0.0
 10
6.11
 20
22.6915
 30
0.0
 10
6.0663
 20
22.6511
 30
0.0
 10
6.0663
 20
22.6511
 30
0.0
 10
5.9952
 20
22.5838
 30
0.0
 10
5.9599
 20
22.5011
 30
0.0
 10
5.9599
 20
22.4027
 30
0.0
 10
5.9599
 20
22.4027
 30
0.0
 10
5.9599
 20
22.3237
 30
0.0
 10
5.9821
 20
22.2546
 30
0.0
 10
6.0263
 20
22.1948
 30
0.0
 10
6.0263
 20
22.1948
 30
0.0
 10
6.0832
 20
22.1168
 30
0.0
 10
6.1664
 20
22.0551
 30
0.0
 10
6.2755
 20
22.01
 30
0.0
 10
6.2755
 20
22.01
 30
0.0
 10
6.3847
 20
21.9653
 30
0.0
 10
6.5404
 20
21.9418
 30
0.0
 10
6.7426
 20
21.9399
 30
0.0
 10
6.7426
 20
21.9399
 30
0.0
 10
6.6518
 20
21.9996
 30
0.0
 10
6.5841
 20
22.0725
 30
0.0
 10
6.5399
 20
22.1591
 30
0.0
 10
6.5399
 20
22.1591
 30
0.0
 10
6.4962
 20
22.2452
 30
0.0
 10
6.474
 20
22.3359
 30
0.0
 10
6.474
 20
22.4305
 30
0.0
 10
6.474
 20
22.4305
 30
0.0
 10
6.474
 20
22.5961
 30
0.0
 10
6.5348
 20
22.7367
 30
0.0
 10
6.6566
 20
22.8529
 30
0.0
 10
6.6566
 20
22.8529
 30
0.0
 10
6.7784
 20
22.9691
 30
0.0
 10
6.9355
 20
23.0274
 30
0.0
 10
7.1283
 20
23.0274
 30
0.0
 10
7.1283
 20
23.0274
 30
0.0
 10
7.2553
 20
23.0274
 30
0.0
 10
7.3729
 20
22.9996
 30
0.0
 10
7.482
 20
22.945
 30
0.0
 10
7.482
 20
22.945
 30
0.0
 10
7.5907
 20
22.8905
 30
0.0
 10
7.6744
 20
22.8153
 30
0.0
 10
7.7323
 20
22.7198
 30
0.0
 10
7.7323
 20
22.7198
 30
0.0
 10
7.7901
 20
22.6242
 30
0.0
 10
7.8189
 20
22.5161
 30
0.0
 10
7.8189
 20
22.3947
 30
0.0
 10
7.8189
 20
22.3947
 30
0.0
 10
7.8189
 20
22.1877
 30
0.0
 10
7.7432
 20
22.0194
 30
0.0
 10
7.5907
 20
21.8891
 30
0.0
 10
7.5907
 20
21.8891
 30
0.0
 10
7.4388
 20
21.7583
 30
0.0
 10
7.1881
 20
21.6935
 30
0.0
 10
6.839
 20
21.6935
 30
0.0
 10
6.839
 20
21.6935
 30
0.0
 10
6.4486
 20
21.6935
 30
0.0
 10
6.165
 20
21.7653
 30
0.0
 10
5.9877
 20
21.9098
 30
0.0
 10
5.9877
 20
21.9098
 30
0.0
 10
5.8334
 20
22.0353
 30
0.0
 10
5.7558
 20
22.2047
 30
0.0
 10
5.7558
 20
22.4183
 30
0.0
 10
5.7558
 20
22.4183
 30
0.0
 10
5.7558
 20
22.5768
 30
0.0
 10
5.8005
 20
22.7071
 30
0.0
 10
5.8898
 20
22.8087
 30
0.0
 10
5.8898
 20
22.8087
 30
0.0
 10
5.9787
 20
22.9103
 30
0.0
 10
6.102
 20
22.971
 30
0.0
 10
6.2591
 20
22.9911
 30
0.0
  0
SPLINE
  5
BB
330
1F
100
AcDbEntity
  8
ROUND
 62
   250
100
AcDbSpline
210
0.0
220
0.0
230
1.0
 70
    11
 71
     3
 72
    40
 73
    36
 74
     0
 42
0.0000000001
 43
0.0000000001
 40
0.0
 40
0.0
 40
0.0
 40
0.0
 40
0.1
 40
0.1
 40
0.1
 40
0.1
 40
0.2
 40
0.2
 40
0.2
 40
0.2
 40
0.3
 40
0.3
 40
0.3
 40
0.3
 40
0.4
 40
0.4
 40
0.4
 40
0.4
 40
0.5
 40
0.5
 40
0.5
 40
0.5
 40
0.6
 40
0.6
 40
0.6
 40
0.6
 40
0.7
 40
0.7
 40
0.7
 40
0.7
 40
0.8
 40
0.8
 40
0.8
 40
0.8
 40
1.0
 40
1.0
 40
1.0
 40
1.0
 10
7.1297
 20
21.9784
 30
0.0
 10
7.2154
 20
21.9784
 30
0.0
 10
7.2972
 20
21.9968
 30
0.0
 10
7.3753
 20
22.0331
 30
0.0
 10
7.3753
 20
22.0331
 30
0.0
 10
7.4534
 20
22.0692
 30
0.0
 10
7.5126
 20
22.12
 30
0.0
 10
7.5535
 20
22.185
 30
0.0
 10
7.5535
 20
22.185
 30
0.0
 10
7.5945
 20
22.2504
 30
0.0
 10
7.6151
 20
22.319
 30
0.0
 10
7.6151
 20
22.3905
 30
0.0
 10
7.6151
 20
22.3905
 30
0.0
 10
7.6151
 20
22.4953
 30
0.0
 10
7.5728
 20
22.5853
 30
0.0
 10
7.4881
 20
22.6605
 30
0.0
 10
7.4881
 20
22.6605
 30
0.0
 10
7.4035
 20
22.7357
 30
0.0
 10
7.2887
 20
22.7734
 30
0.0
 10
7.1439
 20
22.7734
 30
0.0
 10
7.1439
 20
22.7734
 30
0.0
 10
7.0042
 20
22.7734
 30
0.0
 10
6.8941
 20
22.7362
 30
0.0
 10
6.8136
 20
22.6619
 30
0.0
 10
6.8136
 20
22.6619
 30
0.0
 10
6.7332
 20
22.5876
 30
0.0
 10
6.6932
 20
22.494
 30
0.0
 10
6.6932
 20
22.3811
 30
0.0
 10
6.6932
 20
22.3811
 30
0.0
 10
6.6932
 20
22.2687
 30
0.0
 10
6.7332
 20
22.1737
 30
0.0
 10
6.8136
 20
22.0956
 30
0.0
 10
6.8136
 20
22.0956
 30
0.0
 10
6.8941
 20
22.0175
 30
0.0
 10
6.9994
 20
21.9784
 30
0.0
 10
7.1297
 20
21.9784
 30
0.0
  0
SPLINE
  5
BC
330
1F
100
AcDbEntity
  8
ROUND
 62
   250
100
AcDbSpline
210
0.0
220
0.0
230
1.0
 70
    11
 71
     3
 72
    52
 73
    48
 74
     0
 42
0.0000000001
 43
0.0000000001
 40
0.0
 40
0.0
 40
0.0
 40
0.0
 40
0.0769230769230769
 40
0.0769230769230769
 40
0.0769230769230769
 40
0.0769230769230769
 40
0.1538461538461539
 40
0.1538461538461539
 40
0.1538461538461539
 40
0.1538461538461539
 40
0.2307692307692308
 40
0.2307692307692308
 40
0.2307692307692308
 40
0.2307692307692308
 40
0.3076923076923077
 40
0.3076923076923077
 40
0.3076923076923077
 40
0.3076923076923077
 40
0.3846153846153846
 40
0.3846153846153846
 40
0.3846153846153846
 40
0.3846153846153846
 40
0.4615384615384616
 40
0.4615384615384616
 40
0.4615384615384616
 40
0.4615384615384616
 40
0.5384615384615384
 40
0.5384615384615384
 40
0.5384615384615384
 40
0.5384615384615384
 40
0.6153846153846154
 40
0.6153846153846154
 40
0.6153846153846154
 40
0.6153846153846154
 40
0.6923076923076923
 40
0.6923076923076923
 40
0.6923076923076923
 40
0.6923076923076923
 40
0.7692307692307693
 40
0.7692307692307693
 40
0.7692307692307693
 40
0.7692307692307693
 40
0.8461538461538461
 40
0.8461538461538461
 40
0.8461538461538461
 40
0.8461538461538461
 40
1.0
 40
1.0
 40
1.0
 40
1.0
 10
6.7882
 20
23.2738
 30
0.0
 10
6.5493
 20
23.2738
 30
0.0
 10
6.3569
 20
23.2984
 30
0.0
 10
6.2116
 20
23.3477
 30
0.0
 10
6.2116
 20
23.3477
 30
0.0
 10
6.0658
 20
23.3966
 30
0.0
 10
5.9533
 20
23.47
 30
0.0
 10
5.8744
 20
23.567
 30
0.0
 10
5.8744
 20
23.567
 30
0.0
 10
5.7953
 20
23.6639
 30
0.0
 10
5.7558
 20
23.7857
 30
0.0
 10
5.7558
 20
23.9324
 30
0.0
 10
5.7558
 20
23.9324
 30
0.0
 10
5.7558
 20
24.0411
 30
0.0
 10
5.7778
 20
24.1361
 30
0.0
 10
5.8217
 20
24.2179
 30
0.0
 10
5.8217
 20
24.2179
 30
0.0
 10
5.8649
 20
24.2998
 30
0.0
 10
5.9279
 20
24.367
 30
0.0
 10
6.0102
 20
24.4207
 30
0.0
 10
6.0102
 20
24.4207
 30
0.0
 10
6.0925
 20
24.4739
 30
0.0
 10
6.1928
 20
24.5157
 30
0.0
 10
6.3109
 20
24.5457
 30
0.0
 10
6.3109
 20
24.5457
 30
0.0
 10
6.4289
 20
24.5764
 30
0.0
 10
6.5878
 20
24.5914
 30
0.0
 10
6.7882
 20
24.5914
 30
0.0
 10
6.7882
 20
24.5914
 30
0.0
 10
7.0253
 20
24.5914
 30
0.0
 10
7.2162
 20
24.5669
 30
0.0
 10
7.3621
 20
24.5184
 30
0.0
 10
7.3621
 20
24.5184
 30
0.0
 10
7.5079
 20
24.4696
 30
0.0
 10
7.6204
 20
24.3966
 30
0.0
 10
7.6998
 20
24.2998
 30
0.0
 10
7.6998
 20
24.2998
 30
0.0
 10
7.7793
 20
24.2029
 30
0.0
 10
7.8189
 20
24.0806
 30
0.0
 10
7.8189
 20
23.9324
 30
0.0
 10
7.8189
 20
23.9324
 30
0.0
 10
7.8189
 20
23.7377
 30
0.0
 10
7.7493
 20
23.5848
 30
0.0
 10
7.6095
 20
23.4738
 30
0.0
 10
7.6095
 20
23.4738
 30
0.0
 10
7.4417
 20
23.3407
 30
0.0
 10
7.1674
 20
23.2738
 30
0.0
 10
6.7882
 20
23.2738
 30
0.0
  0
SPLINE
  5
BD
330
1F
100
AcDbEntity
  8
ROUND
 62
   250
100
AcDbSpline
210
0.0
220
0.0
230
1.0
 70
    11
 71
     3
 72
    36
 73
    32
 74
     0
 42
0.0000000001
 43
0.0000000001
 40
0.0
 40
0.0
 40
0.0
 40
0.0
 40
0.1111111111111111
 40
0.1111111111111111
 40
0.1111111111111111
 40
0.1111111111111111
 40
0.2222222222222222
 40
0.2222222222222222
 40
0.2222222222222222
 40
0.2222222222222222
 40
0.3333333333333333
 40
0.3333333333333333
 40
0.3333333333333333
 40
0.3333333333333333
 40
0.4444444444444444
 40
0.4444444444444444
 40
0.4444444444444444
 40
0.4444444444444444
 40
0.5555555555555556
 40
0.5555555555555556
 40
0.5555555555555556
 40
0.5555555555555556
 40
0.6666666666666666
 40
0.6666666666666666
 40
0.6666666666666666
 40
0.6666666666666666
 40
0.7777777777777778
 40
0.7777777777777778
 40
0.7777777777777778
 40
0.7777777777777778
 40
1.0
 40
1.0
 40
1.0
 40
1.0
 10
6.7882
 20
23.5289
 30
0.0
 10
7.1198
 20
23.5289
 30
0.0
 10
7.3405
 20
23.5679
 30
0.0
 10
7.4505
 20
23.6454
 30
0.0
 10
7.4505
 20
23.6454
 30
0.0
 10
7.5601
 20
23.7232
 30
0.0
 10
7.6151
 20
23.8185
 30
0.0
 10
7.6151
 20
23.9324
 30
0.0
 10
7.6151
 20
23.9324
 30
0.0
 10
7.6151
 20
24.0467
 30
0.0
 10
7.5597
 20
24.1422
 30
0.0
 10
7.4496
 20
24.2198
 30
0.0
 10
7.4496
 20
24.2198
 30
0.0
 10
7.3395
 20
24.2974
 30
0.0
 10
7.119
 20
24.3365
 30
0.0
 10
6.7882
 20
24.3365
 30
0.0
 10
6.7882
 20
24.3365
 30
0.0
 10
6.4557
 20
24.3365
 30
0.0
 10
6.2346
 20
24.2974
 30
0.0
 10
6.1255
 20
24.2198
 30
0.0
 10
6.1255
 20
24.2198
 30
0.0
 10
6.0158
 20
24.1422
 30
0.0
 10
5.9613
 20
24.0458
 30
0.0
 10
5.9613
 20
23.93
 30
0.0
 10
5.9613
 20
23.93
 30
0.0
 10
5.9613
 20
23.8158
 30
0.0
 10
6.0097
 20
23.725
 30
0.0
 10
6.1062
 20
23.6568
 30
0.0
 10
6.1062
 20
23.6568
 30
0.0
 10
6.2289
 20
23.5716
 30
0.0
 10
6.4567
 20
23.5289
 30
0.0
 10
6.7882
 20
23.5289
 30
0.0
  0
SPLINE
  5
BE
330
1F
100
AcDbEntity
  8
ROUND
 62
   250
100
AcDbSpline
210
0.0
220
0.0
230
1.0
 70
    24
 71
     3
 72
     8
 73
     4
 74
     0
 42
0.0000000001
 43
0.0000000001
 40
0.0
 40
0.0
 40
0.0
 40
0.0
 40
1.0
 40
1.0
 40
1.0
 40
1.0
 10
8.4275
 20
17.6567
 30
0.0
 10
8.4275
 20
17.6567
 30
0.0
 10
8.4275
 20
28.9351
 30
0.0
 10
8.4275
 20
28.9351
 30
0.0
  0
SPLINE
  5
BF
330
1F
100
AcDbEntity
  8
ROUND
 62
   250
100
AcDbSpline
210
0.0
220
0.0
230
1.0
 70
    11
 71
     3
 72
    20
 73
    16
 74
     0
 42
0.0000000001
 43
0.0000000001
 40
0.0
 40
0.0
 40
0.0
 40
0.0
 40
0.2
 40
0.2
 40
0.2
 40
0.2
 40
0.4
 40
0.4
 40
0.4
 40
0.4
 40
0.6
 40
0.6
 40
0.6
 40
0.6
 40
1.0
 40
1.0
 40
1.0
 40
1.0
 10
7.8937
 20
25.7833
 30
0.0
 10
7.8937
 20
25.7833
 30
0.0
 10
8.3953
 20
29.3372
 30
0.0
 10
8.3953
 20
29.3372
 30
0.0
 10
8.3953
 20
29.3372
 30
0.0
 10
8.3953
 20
29.3372
 30
0.0
 10
8.5067
 20
29.3372
 30
0.0
 10
8.5067
 20
29.3372
 30
0.0
 10
8.5067
 20
29.3372
 30
0.0
 10
8.5067
 20
29.3372
 30
0.0
 10
9.0416
 20
25.7833
 30
0.0
 10
9.0416
 20
25.7833
 30
0.0
 10
9.0416
 20
25.7833
 30
0.0
 10
9.0416
 20
25.7833
 30
0.0
 10
7.8937
 20
25.7833
 30
0.0
 10
7.8937
 20
25.7833
 30
0.0
  0
SPLINE
  5
C0
330
1F
100
AcDbEntity
  8
ROUND
 62
   250
100
AcDbSpline
210
0.0
220
0.0
230
1.0
 70
    11
 71
     3
 72
    20
 73
    16
 74
     0
 42
0.0000000001
 43
0.0000000001
 40
0.0
 40
0.0
 40
0.0
 40
0.0
 40
0.2
 40
0.2
 40
0.2
 40
0.2
 40
0.4
 40
0.4
 40
0.4
 40
0.4
 40
0.6
 40
0.6
 40
0.6
 40
0.6
 40
1.0
 40
1.0
 40
1.0
 40
1.0
 10
8.9723
 20
20.8155
 30
0.0
 10
8.9723
 20
20.8155
 30
0.0
 10
8.4708
 20
17.2616
 30
0.0
 10
8.4708
 20
17.2616
 30
0.0
 10
8.4708
 20
17.2616
 30
0.0
 10
8.4708
 20
17.2616
 30
0.0
 10
8.3594
 20
17.2616
 30
0.0
 10
8.3594
 20
17.2616
 30
0.0
 10
8.3594
 20
17.2616
 30
0.0
 10
8.3594
 20
17.2616
 30
0.0
 10
7.8245
 20
20.8155
 30
0.0
 10
7.8245
 20
20.8155
 30
0.0
 10
7.8245
 20
20.8155
 30
0.0
 10
7.8245
 20
20.8155
 30
0.0
 10
8.9723
 20
20.8155
 30
0.0
 10
8.9723
 20
20.8155
 30
0.0
  0
SPLINE
  5
C1
330
1F
100
AcDbEntity
  8
ROUND
 62
   250
100
AcDbSpline
210
0.0
220
0.0
230
1.0
 70
    11
 71
     3
 72
    40
 73
    36
 74
     0
 42
0.0000000001
 43
0.0000000001
 40
0.0
 40
0.0
 40
0.0
 40
0.0
 40
0.1
 40
0.1
 40
0.1
 40
0.1
 40
0.2
 40
0.2
 40
0.2
 40
0.2
 40
0.3
 40
0.3
 40
0.3
 40
0.3
 40
0.4
 40
0.4
 40
0.4
 40
0.4
 40
0.5
 40
0.5
 40
0.5
 40
0.5
 40
0.6
 40
0.6
 40
0.6
 40
0.6
 40
0.7
 40
0.7
 40
0.7
 40
0.7
 40
0.8
 40
0.8
 40
0.8
 40
0.8
 40
1.0
 40
1.0
 40
1.0
 40
1.0
 10
19.2685
 20
34.2105
 30
0.0
 10
19.2685
 20
34.2105
 30
0.0
 10
19.0206
 20
34.2105
 30
0.0
 10
19.0206
 20
34.2105
 30
0.0
 10
19.0206
 20
34.2105
 30
0.0
 10
19.0206
 20
34.2105
 30
0.0
 10
19.0206
 20
35.7909
 30
0.0
 10
19.0206
 20
35.7909
 30
0.0
 10
19.0206
 20
35.7909
 30
0.0
 10
18.9608
 20
35.734
 30
0.0
 10
18.8828
 20
35.6771
 30
0.0
 10
18.7859
 20
35.6202
 30
0.0
 10
18.7859
 20
35.6202
 30
0.0
 10
18.6885
 20
35.5633
 30
0.0
 10
18.6015
 20
35.5205
 30
0.0
 10
18.5243
 20
35.4922
 30
0.0
 10
18.5243
 20
35.4922
 30
0.0
 10
18.5243
 20
35.4922
 30
0.0
 10
18.5243
 20
35.7317
 30
0.0
 10
18.5243
 20
35.7317
 30
0.0
 10
18.5243
 20
35.7317
 30
0.0
 10
18.6631
 20
35.797
 30
0.0
 10
18.7845
 20
35.8761
 30
0.0
 10
18.8884
 20
35.9687
 30
0.0
 10
18.8884
 20
35.9687
 30
0.0
 10
18.9919
 20
36.0619
 30
0.0
 10
19.0657
 20
36.1517
 30
0.0
 10
19.109
 20
36.2392
 30
0.0
 10
19.109
 20
36.2392
 30
0.0
 10
19.109
 20
36.2392
 30
0.0
 10
19.2685
 20
36.2392
 30
0.0
 10
19.2685
 20
36.2392
 30
0.0
 10
19.2685
 20
36.2392
 30
0.0
 10
19.2685
 20
36.2392
 30
0.0
 10
19.2685
 20
34.2105
 30
0.0
 10
19.2685
 20
34.2105
 30
0.0
  0
SPLINE
  5
C2
330
1F
100
AcDbEntity
  8
ROUND
 62
   250
100
AcDbSpline
210
0.0
220
0.0
230
1.0
 70
    11
 71
     3
 72
    52
 73
    48
 74
     0
 42
0.0000000001
 43
0.0000000001
 40
0.0
 40
0.0
 40
0.0
 40
0.0
 40
0.0769230769230769
 40
0.0769230769230769
 40
0.0769230769230769
 40
0.0769230769230769
 40
0.1538461538461539
 40
0.1538461538461539
 40
0.1538461538461539
 40
0.1538461538461539
 40
0.2307692307692308
 40
0.2307692307692308
 40
0.2307692307692308
 40
0.2307692307692308
 40
0.3076923076923077
 40
0.3076923076923077
 40
0.3076923076923077
 40
0.3076923076923077
 40
0.3846153846153846
 40
0.3846153846153846
 40
0.3846153846153846
 40
0.3846153846153846
 40
0.4615384615384616
 40
0.4615384615384616
 40
0.4615384615384616
 40
0.4615384615384616
 40
0.5384615384615384
 40
0.5384615384615384
 40
0.5384615384615384
 40
0.5384615384615384
 40
0.6153846153846154
 40
0.6153846153846154
 40
0.6153846153846154
 40
0.6153846153846154
 40
0.6923076923076923
 40
0.6923076923076923
 40
0.6923076923076923
 40
0.6923076923076923
 40
0.7692307692307693
 40
0.7692307692307693
 40
0.7692307692307693
 40
0.7692307692307693
 40
0.8461538461538461
 40
0.8461538461538461
 40
0.8461538461538461
 40
0.8461538461538461
 40
1.0
 40
1.0
 40
1.0
 40
1.0
 10
19.9039
 20
35.2067
 30
0.0
 10
19.9039
 20
35.4457
 30
0.0
 10
19.9284
 20
35.6381
 30
0.0
 10
19.9778
 20
35.7834
 30
0.0
 10
19.9778
 20
35.7834
 30
0.0
 10
20.0267
 20
35.9292
 30
0.0
 10
20.1001
 20
36.0416
 30
0.0
 10
20.197
 20
36.1207
 30
0.0
 10
20.197
 20
36.1207
 30
0.0
 10
20.2939
 20
36.1997
 30
0.0
 10
20.4157
 20
36.2392
 30
0.0
 10
20.5624
 20
36.2392
 30
0.0
 10
20.5624
 20
36.2392
 30
0.0
 10
20.6711
 20
36.2392
 30
0.0
 10
20.7661
 20
36.2171
 30
0.0
 10
20.8479
 20
36.1733
 30
0.0
 10
20.8479
 20
36.1733
 30
0.0
 10
20.9298
 20
36.1301
 30
0.0
 10
20.9971
 20
36.067
 30
0.0
 10
21.0507
 20
35.9847
 30
0.0
 10
21.0507
 20
35.9847
 30
0.0
 10
21.1038
 20
35.9024
 30
0.0
 10
21.1457
 20
35.8022
 30
0.0
 10
21.1758
 20
35.6842
 30
0.0
 10
21.1758
 20
35.6842
 30
0.0
 10
21.2064
 20
35.5661
 30
0.0
 10
21.2214
 20
35.4071
 30
0.0
 10
21.2214
 20
35.2067
 30
0.0
 10
21.2214
 20
35.2067
 30
0.0
 10
21.2214
 20
34.9697
 30
0.0
 10
21.197
 20
34.7787
 30
0.0
 10
21.1485
 20
34.6329
 30
0.0
 10
21.1485
 20
34.6329
 30
0.0
 10
21.0996
 20
34.4871
 30
0.0
 10
21.0267
 20
34.3747
 30
0.0
 10
20.9298
 20
34.2952
 30
0.0
 10
20.9298
 20
34.2952
 30
0.0
 10
20.8329
 20
34.2157
 30
0.0
 10
20.7106
 20
34.1762
 30
0.0
 10
20.5624
 20
34.1762
 30
0.0
 10
20.5624
 20
34.1762
 30
0.0
 10
20.3677
 20
34.1762
 30
0.0
 10
20.2148
 20
34.2458
 30
0.0
 10
20.1038
 20
34.3855
 30
0.0
 10
20.1038
 20
34.3855
 30
0.0
 10
19.9707
 20
34.5534
 30
0.0
 10
19.9039
 20
34.8276
 30
0.0
 10
19.9039
 20
35.2067
 30
0.0
  0
SPLINE
  5
C3
330
1F
100
AcDbEntity
  8
ROUND
 62
   250
100
AcDbSpline
210
0.0
220
0.0
230
1.0
 70
    11
 71
     3
 72
    36
 73
    32
 74
     0
 42
0.0000000001
 43
0.0000000001
 40
0.0
 40
0.0
 40
0.0
 40
0.0
 40
0.1111111111111111
 40
0.1111111111111111
 40
0.1111111111111111
 40
0.1111111111111111
 40
0.2222222222222222
 40
0.2222222222222222
 40
0.2222222222222222
 40
0.2222222222222222
 40
0.3333333333333333
 40
0.3333333333333333
 40
0.3333333333333333
 40
0.3333333333333333
 40
0.4444444444444444
 40
0.4444444444444444
 40
0.4444444444444444
 40
0.4444444444444444
 40
0.5555555555555556
 40
0.5555555555555556
 40
0.5555555555555556
 40
0.5555555555555556
 40
0.6666666666666666
 40
0.6666666666666666
 40
0.6666666666666666
 40
0.6666666666666666
 40
0.7777777777777778
 40
0.7777777777777778
 40
0.7777777777777778
 40
0.7777777777777778
 40
1.0
 40
1.0
 40
1.0
 40
1.0
 10
20.1589
 20
35.2067
 30
0.0
 10
20.1589
 20
34.8751
 30
0.0
 10
20.1979
 20
34.6545
 30
0.0
 10
20.2755
 20
34.5445
 30
0.0
 10
20.2755
 20
34.5445
 30
0.0
 10
20.3531
 20
34.4349
 30
0.0
 10
20.4486
 20
34.3798
 30
0.0
 10
20.5624
 20
34.3798
 30
0.0
 10
20.5624
 20
34.3798
 30
0.0
 10
20.6767
 20
34.3798
 30
0.0
 10
20.7722
 20
34.4353
 30
0.0
 10
20.8498
 20
34.5454
 30
0.0
 10
20.8498
 20
34.5454
 30
0.0
 10
20.9274
 20
34.6555
 30
0.0
 10
20.9665
 20
34.8761
 30
0.0
 10
20.9665
 20
35.2067
 30
0.0
 10
20.9665
 20
35.2067
 30
0.0
 10
20.9665
 20
35.5393
 30
0.0
 10
20.9274
 20
35.7604
 30
0.0
 10
20.8498
 20
35.8695
 30
0.0
 10
20.8498
 20
35.8695
 30
0.0
 10
20.7722
 20
35.9791
 30
0.0
 10
20.6758
 20
36.0336
 30
0.0
 10
20.5601
 20
36.0336
 30
0.0
 10
20.5601
 20
36.0336
 30
0.0
 10
20.4458
 20
36.0336
 30
0.0
 10
20.355
 20
35.9852
 30
0.0
 10
20.2868
 20
35.8888
 30
0.0
 10
20.2868
 20
35.8888
 30
0.0
 10
20.2017
 20
35.766
 30
0.0
 10
20.1589
 20
35.5383
 30
0.0
 10
20.1589
 20
35.2067
 30
0.0
  0
SPLINE
  5
C4
330
1F
100
AcDbEntity
  8
ROUND
 62
   250
100
AcDbSpline
210
0.0
220
0.0
230
1.0
 70
    11
 71
     3
 72
    52
 73
    48
 74
     0
 42
0.0000000001
 43
0.0000000001
 40
0.0
 40
0.0
 40
0.0
 40
0.0
 40
0.0769230769230769
 40
0.0769230769230769
 40
0.0769230769230769
 40
0.0769230769230769
 40
0.1538461538461539
 40
0.1538461538461539
 40
0.1538461538461539
 40
0.1538461538461539
 40
0.2307692307692308
 40
0.2307692307692308
 40
0.2307692307692308
 40
0.2307692307692308
 40
0.3076923076923077
 40
0.3076923076923077
 40
0.3076923076923077
 40
0.3076923076923077
 40
0.3846153846153846
 40
0.3846153846153846
 40
0.3846153846153846
 40
0.3846153846153846
 40
0.4615384615384616
 40
0.4615384615384616
 40
0.4615384615384616
 40
0.4615384615384616
 40
0.5384615384615384
 40
0.5384615384615384
 40
0.5384615384615384
 40
0.5384615384615384
 40
0.6153846153846154
 40
0.6153846153846154
 40
0.6153846153846154
 40
0.6153846153846154
 40
0.6923076923076923
 40
0.6923076923076923
 40
0.6923076923076923
 40
0.6923076923076923
 40
0.7692307692307693
 40
0.7692307692307693
 40
0.7692307692307693
 40
0.7692307692307693
 40
0.8461538461538461
 40
0.8461538461538461
 40
0.8461538461538461
 40
0.8461538461538461
 40
1.0
 40
1.0
 40
1.0
 40
1.0
 10
21.4735
 20
35.2067
 30
0.0
 10
21.4735
 20
35.4457
 30
0.0
 10
21.498
 20
35.6381
 30
0.0
 10
21.5474
 20
35.7834
 30
0.0
 10
21.5474
 20
35.7834
 30
0.0
 10
21.5963
 20
35.9292
 30
0.0
 10
21.6697
 20
36.0416
 30
0.0
 10
21.7666
 20
36.1207
 30
0.0
 10
21.7666
 20
36.1207
 30
0.0
 10
21.8635
 20
36.1997
 30
0.0
 10
21.9853
 20
36.2392
 30
0.0
 10
22.132
 20
36.2392
 30
0.0
 10
22.132
 20
36.2392
 30
0.0
 10
22.2407
 20
36.2392
 30
0.0
 10
22.3357
 20
36.2171
 30
0.0
 10
22.4175
 20
36.1733
 30
0.0
 10
22.4175
 20
36.1733
 30
0.0
 10
22.4994
 20
36.1301
 30
0.0
 10
22.5667
 20
36.067
 30
0.0
 10
22.6203
 20
35.9847
 30
0.0
 10
22.6203
 20
35.9847
 30
0.0
 10
22.6734
 20
35.9024
 30
0.0
 10
22.7153
 20
35.8022
 30
0.0
 10
22.7454
 20
35.6842
 30
0.0
 10
22.7454
 20
35.6842
 30
0.0
 10
22.776
 20
35.5661
 30
0.0
 10
22.791
 20
35.4071
 30
0.0
 10
22.791
 20
35.2067
 30
0.0
 10
22.791
 20
35.2067
 30
0.0
 10
22.791
 20
34.9697
 30
0.0
 10
22.7666
 20
34.7787
 30
0.0
 10
22.7181
 20
34.6329
 30
0.0
 10
22.7181
 20
34.6329
 30
0.0
 10
22.6692
 20
34.4871
 30
0.0
 10
22.5963
 20
34.3747
 30
0.0
 10
22.4994
 20
34.2952
 30
0.0
 10
22.4994
 20
34.2952
 30
0.0
 10
22.4025
 20
34.2157
 30
0.0
 10
22.2802
 20
34.1762
 30
0.0
 10
22.132
 20
34.1762
 30
0.0
 10
22.132
 20
34.1762
 30
0.0
 10
21.9373
 20
34.1762
 30
0.0
 10
21.7844
 20
34.2458
 30
0.0
 10
21.6734
 20
34.3855
 30
0.0
 10
21.6734
 20
34.3855
 30
0.0
 10
21.5403
 20
34.5534
 30
0.0
 10
21.4735
 20
34.8276
 30
0.0
 10
21.4735
 20
35.2067
 30
0.0
  0
SPLINE
  5
C5
330
1F
100
AcDbEntity
  8
ROUND
 62
   250
100
AcDbSpline
210
0.0
220
0.0
230
1.0
 70
    11
 71
     3
 72
    36
 73
    32
 74
     0
 42
0.0000000001
 43
0.0000000001
 40
0.0
 40
0.0
 40
0.0
 40
0.0
 40
0.1111111111111111
 40
0.1111111111111111
 40
0.1111111111111111
 40
0.1111111111111111
 40
0.2222222222222222
 40
0.2222222222222222
 40
0.2222222222222222
 40
0.2222222222222222
 40
0.3333333333333333
 40
0.3333333333333333
 40
0.3333333333333333
 40
0.3333333333333333
 40
0.4444444444444444
 40
0.4444444444444444
 40
0.4444444444444444
 40
0.4444444444444444
 40
0.5555555555555556
 40
0.5555555555555556
 40
0.5555555555555556
 40
0.5555555555555556
 40
0.6666666666666666
 40
0.6666666666666666
 40
0.6666666666666666
 40
0.6666666666666666
 40
0.7777777777777778
 40
0.7777777777777778
 40
0.7777777777777778
 40
0.7777777777777778
 40
1.0
 40
1.0
 40
1.0
 40
1.0
 10
21.7285
 20
35.2067
 30
0.0
 10
21.7285
 20
34.8751
 30
0.0
 10
21.7675
 20
34.6545
 30
0.0
 10
21.8451
 20
34.5445
 30
0.0
 10
21.8451
 20
34.5445
 30
0.0
 10
21.9227
 20
34.4349
 30
0.0
 10
22.0182
 20
34.3798
 30
0.0
 10
22.132
 20
34.3798
 30
0.0
 10
22.132
 20
34.3798
 30
0.0
 10
22.2463
 20
34.3798
 30
0.0
 10
22.3418
 20
34.4353
 30
0.0
 10
22.4194
 20
34.5454
 30
0.0
 10
22.4194
 20
34.5454
 30
0.0
 10
22.497
 20
34.6555
 30
0.0
 10
22.5361
 20
34.8761
 30
0.0
 10
22.5361
 20
35.2067
 30
0.0
 10
22.5361
 20
35.2067
 30
0.0
 10
22.5361
 20
35.5393
 30
0.0
 10
22.497
 20
35.7604
 30
0.0
 10
22.4194
 20
35.8695
 30
0.0
 10
22.4194
 20
35.8695
 30
0.0
 10
22.3418
 20
35.9791
 30
0.0
 10
22.2454
 20
36.0336
 30
0.0
 10
22.1297
 20
36.0336
 30
0.0
 10
22.1297
 20
36.0336
 30
0.0
 10
22.0154
 20
36.0336
 30
0.0
 10
21.9246
 20
35.9852
 30
0.0
 10
21.8564
 20
35.8888
 30
0.0
 10
21.8564
 20
35.8888
 30
0.0
 10
21.7713
 20
35.766
 30
0.0
 10
21.7285
 20
35.5383
 30
0.0
 10
21.7285
 20
35.2067
 30
0.0
  0
SPLINE
  5
C6
330
1F
100
AcDbEntity
  8
ROUND
 62
   250
100
AcDbSpline
210
0.0
220
0.0
230
1.0
 70
    11
 71
     3
 72
    20
 73
    16
 74
     0
 42
0.0000000001
 43
0.0000000001
 40
0.0
 40
0.0
 40
0.0
 40
0.0
 40
0.2
 40
0.2
 40
0.2
 40
0.2
 40
0.4
 40
0.4
 40
0.4
 40
0.4
 40
0.6
 40
0.6
 40
0.6
 40
0.6
 40
1.0
 40
1.0
 40
1.0
 40
1.0
 10
27.3825
 20
34.2313
 30
0.0
 10
27.3825
 20
34.2313
 30
0.0
 10
30.9363
 20
33.7297
 30
0.0
 10
30.9363
 20
33.7297
 30
0.0
 10
30.9363
 20
33.7297
 30
0.0
 10
30.9363
 20
33.7297
 30
0.0
 10
30.9363
 20
33.6183
 30
0.0
 10
30.9363
 20
33.6183
 30
0.0
 10
30.9363
 20
33.6183
 30
0.0
 10
30.9363
 20
33.6183
 30
0.0
 10
27.3825
 20
33.0835
 30
0.0
 10
27.3825
 20
33.0835
 30
0.0
 10
27.3825
 20
33.0835
 30
0.0
 10
27.3825
 20
33.0835
 30
0.0
 10
27.3825
 20
34.2313
 30
0.0
 10
27.3825
 20
34.2313
 30
0.0
  0
SPLINE
  5
C7
330
1F
100
AcDbEntity
  8
ROUND
 62
   250
100
AcDbSpline
210
0.0
220
0.0
230
1.0
 70
    11
 71
     3
 72
    20
 73
    16
 74
     0
 42
0.0000000001
 43
0.0000000001
 40
0.0
 40
0.0
 40
0.0
 40
0.0
 40
0.2
 40
0.2
 40
0.2
 40
0.2
 40
0.4
 40
0.4
 40
0.4
 40
0.4
 40
0.6
 40
0.6
 40
0.6
 40
0.6
 40
1.0
 40
1.0
 40
1.0
 40
1.0
 10
14.1909
 20
33.073
 30
0.0
 10
14.1909
 20
33.073
 30
0.0
 10
10.6371
 20
33.5746
 30
0.0
 10
10.6371
 20
33.5746
 30
0.0
 10
10.6371
 20
33.5746
 30
0.0
 10
10.6371
 20
33.5746
 30
0.0
 10
10.6371
 20
33.686
 30
0.0
 10
10.6371
 20
33.686
 30
0.0
 10
10.6371
 20
33.686
 30
0.0
 10
10.6371
 20
33.686
 30
0.0
 10
14.1909
 20
34.2209
 30
0.0
 10
14.1909
 20
34.2209
 30
0.0
 10
14.1909
 20
34.2209
 30
0.0
 10
14.1909
 20
34.2209
 30
0.0
 10
14.1909
 20
33.073
 30
0.0
 10
14.1909
 20
33.073
 30
0.0
  0
SPLINE
  5
C8
330
1F
100
AcDbEntity
  8
ROUND
 62
   250
100
AcDbSpline
210
0.0
220
0.0
230
1.0
 70
    24
 71
     3
 72
     8
 73
     4
 74
     0
 42
0.0000000001
 43
0.0000000001
 40
0.0
 40
0.0
 40
0.0
 40
0.0
 40
1.0
 40
1.0
 40
1.0
 40
1.0
 10
10.7898
 20
33.6496
 30
0.0
 10
10.7898
 20
33.6496
 30
0.0
 10
30.754
 20
33.6496
 30
0.0
 10
30.754
 20
33.6496
 30
0.0
  0
ENDSEC
  0
SECTION
  2
OBJECTS
  0
DICTIONARY
  5
C
330
0
100
AcDbDictionary
  3
ACAD_GROUP
350
D
  3
ACAD_LAYOUT
350
1A
  3
ACAD_MATERIAL
350
3B
  3
ACAD_MLEADERSTYLE
350
EB
  3
ACAD_MLINESTYLE
350
17
  3
ACAD_PLOTSETTINGS
350
19
  3
ACAD_VISUALSTYLE
350
2A
  3
ACDBHEADERROUNDTRIPXREC
350
C9
  3
ACDBVARIABLEDICTIONARY
350
E9
  0
DICTIONARY
  5
D
102
{ACAD_REACTORS
330
C
102
}
330
C
100
AcDbDictionary
  0
DICTIONARY
  5
1A
102
{ACAD_REACTORS
330
C
102
}
330
C
100
AcDbDictionary
  0
DICTIONARY
  5
3B
102
{ACAD_REACTORS
330
C
102
}
330
C
100
AcDbDictionary
  3
BYBLOCK
350
3D
  3
BYLAYER
350
3C
  3
GLOBAL
350
3E
  0
DICTIONARY
  5
EB
102
{ACAD_REACTORS
330
C
102
}
330
C
100
AcDbDictionary
  0
DICTIONARY
  5
17
102
{ACAD_REACTORS
330
C
102
}
330
C
100
AcDbDictionary
  3
STANDARD
350
18
  0
DICTIONARY
  5
19
102
{ACAD_REACTORS
330
C
102
}
330
C
100
AcDbDictionary
  0
DICTIONARY
  5
2A
102
{ACAD_REACTORS
330
C
102
}
330
C
100
AcDbDictionary
  3
2DWIREFRAME
350
2F
  3
3D_HIDDEN
350
31
  3
3DWIREFRAME
350
30
  3
BASIC
350
32
  3
BRIGHTEN
350
36
  3
COLORCHANGE
350
3A
  3
CONCEPTUAL
350
34
  3
DIM
350
35
  3
FACEPATTERN
350
39
  3
FLAT
350
2B
  3
FLATWITHEDGES
350
2C
  3
GOURAUD
350
2D
  3
GOURAUDWITHEDGES
350
2E
  3
LINEPATTERN
350
38
  3
REALISTIC
350
33
  3
THICKEN
350
37
  0
DICTIONARY
  5
C9
102
{ACAD_REACTORS
330
C
102
}
330
C
100
AcDbDictionary
  3
CEPSNTYPE
350
D2
  3
DIMSTYLEDATA
350
E8
  3
FINGERPRINTGUID
350
D3
  3
HYPERLINKBASE
350
CC
  3
INSUNITS
350
D1
  3
LAYOUTDICT
350
CE
  3
LWETCUNION
350
D0
  3
PLOTSETDICT
350
CF
  3
PSVPSCALE
350
D5
  3
PUCSBASE
350
D8
  3
PUCSORGBACK
350
DE
  3
PUCSORGBOTTOM
350
DA
  3
PUCSORGFRONT
350
DD
  3
PUCSORGLEFT
350
DB
  3
PUCSORGRIGHT
350
DC
  3
PUCSORGTOP
350
D9
  3
PUCSORTHOREF
350
D6
  3
PUCSORTHOVIEW
350
D7
  3
STYLESHEET
350
CD
  3
TSTACKALIGN
350
CA
  3
TSTACKSIZE
350
CB
  3
UCSBASE
350
E1
  3
UCSORGBACK
350
E7
  3
UCSORGBOTTOM
350
E3
  3
UCSORGFRONT
350
E6
  3
UCSORGLEFT
350
E4
  3
UCSORGRIGHT
350
E5
  3
UCSORGTOP
350
E2
  3
UCSORTHOREF
350
DF
  3
UCSORTHOVIEW
350
E0
  3
VERSIONGUID
350
D4
  0
DICTIONARY
  5
E9
102
{ACAD_REACTORS
330
C
102
}
330
C
100
AcDbDictionary
  3
DIMASSOC
350
EC
  3
HIDETEXT
350
ED
  0
MATERIAL
  5
3D
102
{ACAD_REACTORS
330
3B
102
}
102
{ACAD_XDICTIONARY
360
F0
102
}
330
3B
100
AcDbMaterial
  1
ByBlock
  0
MATERIAL
  5
3C
102
{ACAD_REACTORS
330
3B
102
}
102
{ACAD_XDICTIONARY
360
EE
102
}
330
3B
100
AcDbMaterial
  1
ByLayer
  0
MATERIAL
  5
3E
102
{ACAD_REACTORS
330
3B
102
}
102
{ACAD_XDICTIONARY
360
F2
102
}
330
3B
100
AcDbMaterial
  1
Global
  0
MLINESTYLE
  5
18
102
{ACAD_REACTORS
330
17
102
}
330
17
100
AcDbMlineStyle
  2
Standard
 70
     0
  3

 62
   256
 51
90.0
 52
90.0
 71
     2
 49
0.5
 62
   256
  6
BYLAYER
 49
-0.5
 62
   256
  6
BYLAYER
  0
ACAD_PROXY_OBJECT
  5
2F
102
{ACAD_REACTORS
330
2A
102
}
330
2A
100
AcDbProxyObject
 90
      499
 91
      501
 93
      436
310
42CC9915DA5C99599C985B595049028333333333333E3BF0000000000000FB0107901411070040501600405405064090741402480A0340
1001
ACAD
1000
AcDbSavedByObjectVersion
1070
     0
  0
ACAD_PROXY_OBJECT
  5
31
102
{ACAD_REACTORS
330
2A
102
}
330
2A
100
AcDbProxyObject
 90
      499
 91
      501
 93
      500
310
424CD108121A5919195B90640502408333333333333E3BF0000000000000FB01079024090700405020000000000001110200405405064090740C02480A0340
1001
ACAD
1000
AcDbSavedByObjectVersion
1070
     0
  0
ACAD_PROXY_OBJECT
  5
30
102
{ACAD_REACTORS
330
2A
102
}
330
2A
100
AcDbProxyObject
 90
      499
 91
      501
 93
      436
310
42CCD915DA5C99599C985B595059028333333333333E3BF0000000000000FB0107901411070040501600405405064090741402480A0340
1001
ACAD
1000
AcDbSavedByObjectVersion
1070
     0
  0
ACAD_PROXY_OBJECT
  5
32
102
{ACAD_REACTORS
330
2A
102
}
330
2A
100
AcDbProxyObject
 90
      499
 91
      501
 93
      388
310
4150985CDA58D07406404333333333333E3BF0000000000000FB0107A41107004050150841D405064090741402480A0350
1001
ACAD
1000
AcDbSavedByObjectVersion
1070
     0
  0
ACAD_PROXY_OBJECT
  5
36
102
{ACAD_REACTORS
330
2A
102
}
330
2A
100
AcDbProxyObject
 90
      499
 91
      501
 93
      428
310
42109C9A59DA1D195B90C409028333333333333E3BF0000000000000FB010790141107004050150841D405064090741402480A029950
1001
ACAD
1000
AcDbSavedByObjectVersion
1070
     0
  0
ACAD_PROXY_OBJECT
  5
3A
102
{ACAD_REACTORS
330
2A
102
}
330
2A
100
AcDbProxyObject
 90
      499
 91
      501
 93
      452
310
42D0DBDB1BDC90DA185B99D95104090240C333333333333E3BF0000000000000FB0108901411070040501508421405064090741402480A0350
1001
ACAD
1000
AcDbSavedByObjectVersion
1070
     0
  0
ACAD_PROXY_OBJECT
  5
34
102
{ACAD_REACTORS
330
2A
102
}
330
2A
100
AcDbProxyObject
 90
      499
 91
      501
 93
      500
310
4290DBDB98D95C1D1D585B10940D028333333333333E3BF0000000000000FB0107902409070040501000000000000111010841D405064090740C02480A0340
1001
ACAD
1000
AcDbSavedByObjectVersion
1070
     0
  0
ACAD_PROXY_OBJECT
  5
35
102
{ACAD_REACTORS
330
2A
102
}
330
2A
100
AcDbProxyObject
 90
      499
 91
      501
 93
      412
310
40D11A5B50B409028333333333333E3BF0000000000000FB010790141107004050150841D405064090741402480A02677FFFFFD0
1001
ACAD
1000
AcDbSavedByObjectVersion
1070
     0
  0
ACAD_PROXY_OBJECT
  5
39
102
{ACAD_REACTORS
330
2A
102
}
330
2A
100
AcDbProxyObject
 90
      499
 91
      501
 93
      444
310
42D19858D95C185D1D195C9B90F409028333333333333E3BF0000000000000FB010790141107004050150841D405064090741402480A0350
1001
ACAD
1000
AcDbSavedByObjectVersion
1070
     0
  0
ACAD_PROXY_OBJECT
  5
2B
102
{ACAD_REACTORS
330
2A
102
}
330
2A
100
AcDbProxyObject
 90
      499
 91
      501
 93
      388
310
41119B185D240901404333333333333E3BF0000000000000F9010740A41107004050150841D405064090741402480A1B50
1001
ACAD
1000
AcDbSavedByObjectVersion
1070
     0
  0
ACAD_PROXY_OBJECT
  5
2C
102
{ACAD_REACTORS
330
2A
102
}
330
2A
100
AcDbProxyObject
 90
      499
 91
      501
 93
      476
310
43519B185D15DA5D1A115919D95CD0140901404333333333333E3BF0000000000000F9010740901411070040501600405405064090741402480A1B50
1001
ACAD
1000
AcDbSavedByObjectVersion
1070
     0
  0
ACAD_PROXY_OBJECT
  5
2D
102
{ACAD_REACTORS
330
2A
102
}
330
2A
100
AcDbProxyObject
 90
      499
 91
      501
 93
      412
310
41D1DBDD5C985D5910240902404333333333333E3BF0000000000000F9010740A411070040501641D405064090741402480A1B50
1001
ACAD
1000
AcDbSavedByObjectVersion
1070
     0
  0
ACAD_PROXY_OBJECT
  5
2E
102
{ACAD_REACTORS
330
2A
102
}
330
2A
100
AcDbProxyObject
 90
      499
 91
      501
 93
      500
310
4411DBDD5C985D5915DA5D1A115919D95CD0340902404333333333333E3BF0000000000000F9010740901411070040501600405405064090741402480A1B50
1001
ACAD
1000
AcDbSavedByObjectVersion
1070
     0
  0
ACAD_PROXY_OBJECT
  5
38
102
{ACAD_REACTORS
330
2A
102
}
330
2A
100
AcDbProxyObject
 90
      499
 91
      501
 93
      444
310
42D31A5B995C185D1D195C9B90E409028333333333333E3BF0000000000000FB010790141107004050750841D405064090741402483A0350
1001
ACAD
1000
AcDbSavedByObjectVersion
1070
     0
  0
ACAD_PROXY_OBJECT
  5
33
102
{ACAD_REACTORS
330
2A
102
}
330
2A
100
AcDbProxyObject
 90
      499
 91
      501
 93
      420
310
425499585B1A5CDD1A58D08409028333333333333E3BF0000000000000FB01079019070040501508421405064090741402480A1B40
1001
ACAD
1000
AcDbSavedByObjectVersion
1070
     0
  0
ACAD_PROXY_OBJECT
  5
37
102
{ACAD_REACTORS
330
2A
102
}
330
2A
100
AcDbProxyObject
 90
      499
 91
      501
 93
      412
310
41D51A1A58DAD95B90D409028333333333333E3BF0000000000000FB010790141107004050150C41D405064090741402480A0350
1001
ACAD
1000
AcDbSavedByObjectVersion
1070
     0
  0
XRECORD
  5
D2
102
{ACAD_REACTORS
330
C9
102
}
330
C9
100
AcDbXrecord
 90
        0
  0
XRECORD
  5
E8
102
{ACAD_REACTORS
330
C9
102
}
330
C9
100
AcDbXrecord
1000
DSTYLE
1002
{
1070
   340
340
11
1002
}
  0
XRECORD
  5
D3
102
{ACAD_REACTORS
330
C9
102
}
330
C9
100
AcDbXrecord
  1
{4B15BC97-7895-4992-9A98-28BA221ED41E}
  0
XRECORD
  5
CC
102
{ACAD_REACTORS
330
C9
102
}
330
C9
100
AcDbXrecord
  1

  0
XRECORD
  5
D1
102
{ACAD_REACTORS
330
C9
102
}
330
C9
100
AcDbXrecord
 90
        4
  0
XRECORD
  5
CE
102
{ACAD_REACTORS
330
C9
102
}
330
C9
100
AcDbXrecord
340
1A
  0
XRECORD
  5
D0
102
{ACAD_REACTORS
330
C9
102
}
330
C9
100
AcDbXrecord
 90
    10781
  0
XRECORD
  5
CF
102
{ACAD_REACTORS
330
C9
102
}
330
C9
100
AcDbXrecord
340
19
  0
XRECORD
  5
D5
102
{ACAD_REACTORS
330
C9
102
}
330
C9
100
AcDbXrecord
 40
0.0
  0
XRECORD
  5
D8
102
{ACAD_REACTORS
330
C9
102
}
330
C9
100
AcDbXrecord
340
0
  0
XRECORD
  5
DE
102
{ACAD_REACTORS
330
C9
102
}
330
C9
100
AcDbXrecord
 10
0.0
 20
0.0
 30
0.0
  0
XRECORD
  5
DA
102
{ACAD_REACTORS
330
C9
102
}
330
C9
100
AcDbXrecord
 10
0.0
 20
0.0
 30
0.0
  0
XRECORD
  5
DD
102
{ACAD_REACTORS
330
C9
102
}
330
C9
100
AcDbXrecord
 10
0.0
 20
0.0
 30
0.0
  0
XRECORD
  5
DB
102
{ACAD_REACTORS
330
C9
102
}
330
C9
100
AcDbXrecord
 10
0.0
 20
0.0
 30
0.0
  0
XRECORD
  5
DC
102
{ACAD_REACTORS
330
C9
102
}
330
C9
100
AcDbXrecord
 10
0.0
 20
0.0
 30
0.0
  0
XRECORD
  5
D9
102
{ACAD_REACTORS
330
C9
102
}
330
C9
100
AcDbXrecord
 10
0.0
 20
0.0
 30
0.0
  0
XRECORD
  5
D6
102
{ACAD_REACTORS
330
C9
102
}
330
C9
100
AcDbXrecord
340
0
  0
XRECORD
  5
D7
102
{ACAD_REACTORS
330
C9
102
}
330
C9
100
AcDbXrecord
 70
     0
  0
XRECORD
  5
CD
102
{ACAD_REACTORS
330
C9
102
}
330
C9
100
AcDbXrecord
  1

  0
XRECORD
  5
CA
102
{ACAD_REACTORS
330
C9
102
}
330
C9
100
AcDbXrecord
 90
        1
  0
XRECORD
  5
CB
102
{ACAD_REACTORS
330
C9
102
}
330
C9
100
AcDbXrecord
 90
       70
  0
XRECORD
  5
E1
102
{ACAD_REACTORS
330
C9
102
}
330
C9
100
AcDbXrecord
340
0
  0
XRECORD
  5
E7
102
{ACAD_REACTORS
330
C9
102
}
330
C9
100
AcDbXrecord
 10
0.0
 20
0.0
 30
0.0
  0
XRECORD
  5
E3
102
{ACAD_REACTORS
330
C9
102
}
330
C9
100
AcDbXrecord
 10
0.0
 20
0.0
 30
0.0
  0
XRECORD
  5
E6
102
{ACAD_REACTORS
330
C9
102
}
330
C9
100
AcDbXrecord
 10
0.0
 20
0.0
 30
0.0
  0
XRECORD
  5
E4
102
{ACAD_REACTORS
330
C9
102
}
330
C9
100
AcDbXrecord
 10
0.0
 20
0.0
 30
0.0
  0
XRECORD
  5
E5
102
{ACAD_REACTORS
330
C9
102
}
330
C9
100
AcDbXrecord
 10
0.0
 20
0.0
 30
0.0
  0
XRECORD
  5
E2
102
{ACAD_REACTORS
330
C9
102
}
330
C9
100
AcDbXrecord
 10
0.0
 20
0.0
 30
0.0
  0
XRECORD
  5
DF
102
{ACAD_REACTORS
330
C9
102
}
330
C9
100
AcDbXrecord
340
0
  0
XRECORD
  5
E0
102
{ACAD_REACTORS
330
C9
102
}
330
C9
100
AcDbXrecord
 70
     0
  0
XRECORD
  5
D4
102
{ACAD_REACTORS
330
C9
102
}
330
C9
100
AcDbXrecord
  1
{FAEB1C32-E019-11D5-929B-00C0DF256EC4}
  0
DICTIONARYVAR
  5
EC
102
{ACAD_REACTORS
330
E9
102
}
330
E9
100
DictionaryVariables
280
     0
  1
2
  0
DICTIONARYVAR
  5
ED
102
{ACAD_REACTORS
330
E9
102
}
330
E9
100
DictionaryVariables
280
     0
  1
1
  0
DICTIONARY
  5
F0
330
3D
100
AcDbDictionary
280
     1
  3
ACAD_XREC_ROUNDTRIP
360
F1
  0
DICTIONARY
  5
EE
330
3C
100
AcDbDictionary
280
     1
  3
ACAD_XREC_ROUNDTRIP
360
EF
  0
DICTIONARY
  5
F2
330
3E
100
AcDbDictionary
280
     1
  3
ACAD_XREC_ROUNDTRIP
360
F3
  0
XRECORD
  5
F1
102
{ACAD_REACTORS
330
F0
102
}
330
F0
100
AcDbXrecord
102
MATERIAL
148
0.0
149
0.0
149
0.0
 93
        0
 94
      127
282
     0
 72
     1
 77
     1
171
     1
175
     1
179
     1
273
     0
  0
XRECORD
  5
EF
102
{ACAD_REACTORS
330
EE
102
}
330
EE
100
AcDbXrecord
102
MATERIAL
148
0.0
149
0.0
149
0.0
 93
        0
 94
      127
282
     0
 72
     1
 77
     1
171
     1
175
     1
179
     1
273
     0
  0
XRECORD
  5
F3
102
{ACAD_REACTORS
330
F2
102
}
330
F2
100
AcDbXrecord
102
MATERIAL
148
0.0
149
0.0
149
0.0
 93
        0
 94
      127
282
     0
 72
     1
 77
     1
171
     1
175
     1
179
     1
273
     0
  0
ENDSEC
  0
EOF
