  0
SECTION
  2
HEADER
  9
$ACADVER
  1
AC1014
  9
$ACADMAINTVER
 70
     9
  9
$DWGCODEPAGE
  3
ANSI_1250
  9
$INSBASE
 10
0.0
 20
0.0
 30
0.0
  9
$EXTMIN
 10
-45.0165
 20
-30.7846
 30
0.0
  9
$EXTMAX
 10
31.8966
 20
36.0156
 30
0.0
  9
$LIMMIN
 10
0.0
 20
0.0
  9
$LIMMAX
 10
12.0
 20
9.0
  9
$ORTHOMODE
 70
     0
  9
$REGENMODE
 70
     1
  9
$FILLMODE
 70
     1
  9
$QTEXTMODE
 70
     0
  9
$MIRRTEXT
 70
     1
  9
$DRAGMODE
 70
     2
  9
$LTSCALE
 40
1.0
  9
$OSMODE
 70
    37
  9
$ATTMODE
 70
     1
  9
$TEXTSIZE
 40
0.2
  9
$TRACEWID
 40
0.05
  9
$TEXTSTYLE
  7
STANDARD
  9
$CLAYER
  8
0
  9
$CELTYPE
  6
BYLAYER
  9
$CECOLOR
 62
   256
  9
$CELTSCALE
 40
1.0
  9
$DELOBJ
 70
     1
  9
$DISPSILH
 70
     0
  9
$DIMSCALE
 40
1.0
  9
$DIMASZ
 40
0.18
  9
$DIMEXO
 40
0.0625
  9
$DIMDLI
 40
0.38
  9
$DIMRND
 40
0.0
  9
$DIMDLE
 40
0.0
  9
$DIMEXE
 40
0.18
  9
$DIMTP
 40
0.0
  9
$DIMTM
 40
0.0
  9
$DIMTXT
 40
0.18
  9
$DIMCEN
 40
0.09
  9
$DIMTSZ
 40
0.0
  9
$DIMTOL
 70
     0
  9
$DIMLIM
 70
     0
  9
$DIMTIH
 70
     1
  9
$DIMTOH
 70
     1
  9
$DIMSE1
 70
     0
  9
$DIMSE2
 70
     0
  9
$DIMTAD
 70
     0
  9
$DIMZIN
 70
     0
  9
$DIMBLK
  1

  9
$DIMASO
 70
     1
  9
$DIMSHO
 70
     1
  9
$DIMPOST
  1

  9
$DIMAPOST
  1

  9
$DIMALT
 70
     0
  9
$DIMALTD
 70
     2
  9
$DIMALTF
 40
25.4
  9
$DIMLFAC
 40
1.0
  9
$DIMTOFL
 70
     0
  9
$DIMTVP
 40
0.0
  9
$DIMTIX
 70
     0
  9
$DIMSOXD
 70
     0
  9
$DIMSAH
 70
     0
  9
$DIMBLK1
  1

  9
$DIMBLK2
  1

  9
$DIMSTYLE
  2
STANDARD
  9
$DIMCLRD
 70
     0
  9
$DIMCLRE
 70
     0
  9
$DIMCLRT
 70
     0
  9
$DIMTFAC
 40
1.0
  9
$DIMGAP
 40
0.09
  9
$DIMJUST
 70
     0
  9
$DIMSD1
 70
     0
  9
$DIMSD2
 70
     0
  9
$DIMTOLJ
 70
     1
  9
$DIMTZIN
 70
     0
  9
$DIMALTZ
 70
     0
  9
$DIMALTTZ
 70
     0
  9
$DIMFIT
 70
     3
  9
$DIMUPT
 70
     0
  9
$DIMUNIT
 70
     2
  9
$DIMDEC
 70
     4
  9
$DIMTDEC
 70
     4
  9
$DIMALTU
 70
     2
  9
$DIMALTTD
 70
     2
  9
$DIMTXSTY
  7
STANDARD
  9
$DIMAUNIT
 70
     0
  9
$LUNITS
 70
     2
  9
$LUPREC
 70
     4
  9
$SKETCHINC
 40
0.1
  9
$FILLETRAD
 40
0.5
  9
$AUNITS
 70
     0
  9
$AUPREC
 70
     0
  9
$MENU
  1
.
  9
$ELEVATION
 40
0.0
  9
$PELEVATION
 40
0.0
  9
$THICKNESS
 40
0.0
  9
$LIMCHECK
 70
     0
  9
$CHAMFERA
 40
0.5
  9
$CHAMFERB
 40
0.5
  9
$CHAMFERC
 40
1.0
  9
$CHAMFERD
 40
0.0
  9
$SKPOLY
 70
     0
  9
$TDCREATE
 40
2456247.404149213
  9
$TDUPDATE
 40
2456247.404149225
  9
$TDINDWG
 40
0.0000000116
  9
$TDUSRTIMER
 40
0.0000000116
  9
$USRTIMER
 70
     1
  9
$ANGBASE
 50
0.0
  9
$ANGDIR
 70
     0
  9
$PDMODE
 70
     0
  9
$PDSIZE
 40
0.0
  9
$PLINEWID
 40
0.0
  9
$COORDS
 70
     1
  9
$SPLFRAME
 70
     0
  9
$SPLINETYPE
 70
     6
  9
$SPLINESEGS
 70
     8
  9
$ATTDIA
 70
     0
  9
$ATTREQ
 70
     1
  9
$HANDLING
 70
     1
  9
$HANDSEED
  5
C7
  9
$SURFTAB1
 70
     6
  9
$SURFTAB2
 70
     6
  9
$SURFTYPE
 70
     6
  9
$SURFU
 70
     6
  9
$SURFV
 70
     6
  9
$UCSNAME
  2

  9
$UCSORG
 10
0.0
 20
0.0
 30
0.0
  9
$UCSXDIR
 10
1.0
 20
0.0
 30
0.0
  9
$UCSYDIR
 10
0.0
 20
1.0
 30
0.0
  9
$PUCSNAME
  2

  9
$PUCSORG
 10
0.0
 20
0.0
 30
0.0
  9
$PUCSXDIR
 10
1.0
 20
0.0
 30
0.0
  9
$PUCSYDIR
 10
0.0
 20
1.0
 30
0.0
  9
$USERI1
 70
     0
  9
$USERI2
 70
     0
  9
$USERI3
 70
     0
  9
$USERI4
 70
     0
  9
$USERI5
 70
     0
  9
$USERR1
 40
0.0
  9
$USERR2
 40
0.0
  9
$USERR3
 40
0.0
  9
$USERR4
 40
0.0
  9
$USERR5
 40
0.0
  9
$WORLDVIEW
 70
     1
  9
$SHADEDGE
 70
     3
  9
$SHADEDIF
 70
    70
  9
$TILEMODE
 70
     1
  9
$MAXACTVP
 70
    64
  9
$PINSBASE
 10
0.0
 20
0.0
 30
0.0
  9
$PLIMCHECK
 70
     0
  9
$PEXTMIN
 10
1.000000000000000E+20
 20
1.000000000000000E+20
 30
1.000000000000000E+20
  9
$PEXTMAX
 10
-1.000000000000000E+20
 20
-1.000000000000000E+20
 30
-1.000000000000000E+20
  9
$PLIMMIN
 10
0.0
 20
0.0
  9
$PLIMMAX
 10
12.0
 20
9.0
  9
$UNITMODE
 70
     0
  9
$VISRETAIN
 70
     1
  9
$PLINEGEN
 70
     0
  9
$PSLTSCALE
 70
     1
  9
$TREEDEPTH
 70
  3020
  9
$PICKSTYLE
 70
     1
  9
$CMLSTYLE
  2
STANDARD
  9
$CMLJUST
 70
     0
  9
$CMLSCALE
 40
1.0
  9
$PROXYGRAPHICS
 70
     1
  9
$MEASUREMENT
 70
     0
  0
ENDSEC
  0
SECTION
  2
CLASSES
  0
CLASS
  1
ACDBDICTIONARYWDFLT
  2
AcDbDictionaryWithDefault
  3
ObjectDBX Classes
 90
        0
280
     0
281
     0
  0
CLASS
  1
VISUALSTYLE
  2
AcDbVisualStyle
  3
ObjectDBX Classes
 90
     4095
280
     0
281
     0
  0
CLASS
  1
MATERIAL
  2
AcDbMaterial
  3
ObjectDBX Classes
 90
     1153
280
     0
281
     0
  0
CLASS
  1
DICTIONARYVAR
  2
AcDbDictionaryVar
  3
ObjectDBX Classes
 90
        0
280
     0
281
     0
  0
CLASS
  1
XRECORD
  2
AcDbXrecord
  3
AutoCAD 2000
 90
        0
280
     0
281
     0
  0
CLASS
  1
LWPOLYLINE
  2
AcDbPolyline
  3
AutoCAD 2000
 90
        0
280
     0
281
     1
  0
CLASS
  1
HATCH
  2
AcDbHatch
  3
AutoCAD 2000
 90
        0
280
     0
281
     1
  0
CLASS
  1
ACDBPLACEHOLDER
  2
AcDbPlaceHolder
  3
ObjectDBX Classes
 90
        0
280
     0
281
     0
  0
CLASS
  1
LAYOUT
  2
AcDbLayout
  3
ObjectDBX Classes
 90
        0
280
     0
281
     0
  0
ENDSEC
  0
SECTION
  2
TABLES
  0
TABLE
  2
VPORT
  5
8
330
0
100
AcDbSymbolTable
 70
     1
  0
VPORT
  5
29
330
8
100
AcDbSymbolTableRecord
100
AcDbViewportTableRecord
  2
*ACTIVE
 70
     0
 10
0.0
 20
0.0
 11
1.0
 21
1.0
 12
10.42990654205607
 22
4.5
 13
0.0
 23
0.0
 14
0.5
 24
0.5
 15
0.5
 25
0.5
 16
0.0
 26
0.0
 36
1.0
 17
0.0
 27
0.0
 37
0.0
 40
9.0
 41
1.972972972850329
 42
50.0
 43
0.0
 44
0.0
 50
0.0
 51
0.0
 71
     0
 72
   100
 73
     1
 74
     3
 75
     0
 76
     0
 77
     0
 78
     0
  0
ENDTAB
  0
TABLE
  2
LTYPE
  5
5
330
0
100
AcDbSymbolTable
 70
     4
  0
LTYPE
  5
14
330
5
100
AcDbSymbolTableRecord
100
AcDbLinetypeTableRecord
  2
BYBLOCK
 70
     0
  3

 72
    65
 73
     0
 40
0.0
  0
LTYPE
  5
15
330
5
100
AcDbSymbolTableRecord
100
AcDbLinetypeTableRecord
  2
BYLAYER
 70
     0
  3

 72
    65
 73
     0
 40
0.0
  0
LTYPE
  5
16
330
5
100
AcDbSymbolTableRecord
100
AcDbLinetypeTableRecord
  2
CONTINUOUS
 70
     0
  3
Solid line
 72
    65
 73
     0
 40
0.0
  0
LTYPE
  5
4A
330
5
100
AcDbSymbolTableRecord
100
AcDbLinetypeTableRecord
  2
NEW_LINE1
 70
     0
  3

 72
    65
 73
     4
 40
1.2
 49
0.5
 74
     4
 75
     0
340
0
 46
1.0
 50
0.0
 44
0.0
 45
0.0
 49
-0.3
 74
     4
 75
     0
340
0
 46
1.0
 50
0.0
 44
0.0
 45
0.0
 49
0.1
 74
     4
 75
     0
340
0
 46
1.0
 50
0.0
 44
0.0
 45
0.0
 49
-0.3
 74
     4
 75
     0
340
0
 46
1.0
 50
0.0
 44
0.0
 45
0.0
  0
LTYPE
  5
4C
330
5
100
AcDbSymbolTableRecord
100
AcDbLinetypeTableRecord
  2
NEW_LINE2
 70
     0
  3

 72
    65
 73
     4
 40
1.2
 49
0.5
 74
     4
 75
     0
340
0
 46
1.0
 50
0.0
 44
0.0
 45
0.0
 49
-0.3
 74
     4
 75
     0
340
0
 46
1.0
 50
0.0
 44
0.0
 45
0.0
 49
0.1
 74
     4
 75
     0
340
0
 46
1.0
 50
0.0
 44
0.0
 45
0.0
 49
-0.3
 74
     4
 75
     0
340
0
 46
1.0
 50
0.0
 44
0.0
 45
0.0
  0
LTYPE
  5
4E
330
5
100
AcDbSymbolTableRecord
100
AcDbLinetypeTableRecord
  2
NEW_LINE3
 70
     0
  3

 72
    65
 73
     4
 40
1.2
 49
0.5
 74
     4
 75
     0
340
0
 46
1.0
 50
0.0
 44
0.0
 45
0.0
 49
-0.3
 74
     4
 75
     0
340
0
 46
1.0
 50
0.0
 44
0.0
 45
0.0
 49
0.1
 74
     4
 75
     0
340
0
 46
1.0
 50
0.0
 44
0.0
 45
0.0
 49
-0.3
 74
     4
 75
     0
340
0
 46
1.0
 50
0.0
 44
0.0
 45
0.0
  0
ENDTAB
  0
TABLE
  2
LAYER
  5
2
330
0
100
AcDbSymbolTable
 70
     2
  0
LAYER
  5
10
330
2
100
AcDbSymbolTableRecord
100
AcDbLayerTableRecord
  2
0
 70
     0
 62
     7
  6
CONTINUOUS
  0
LAYER
  5
40
330
2
100
AcDbSymbolTableRecord
100
AcDbLayerTableRecord
  2
VRSTVA_1
 70
     0
 62
     7
  6
CONTINUOUS
  0
ENDTAB
  0
TABLE
  2
STYLE
  5
3
330
0
100
AcDbSymbolTable
 70
     1
  0
STYLE
  5
11
330
3
100
AcDbSymbolTableRecord
100
AcDbTextStyleTableRecord
  2
STANDARD
 70
     0
 40
0.0
 41
1.0
 50
0.0
 71
     0
 42
0.2
  3
txt
  4

  0
ENDTAB
  0
TABLE
  2
VIEW
  5
6
330
0
100
AcDbSymbolTable
 70
     0
  0
ENDTAB
  0
TABLE
  2
UCS
  5
7
330
0
100
AcDbSymbolTable
 70
     0
  0
ENDTAB
  0
TABLE
  2
APPID
  5
9
330
0
100
AcDbSymbolTable
 70
     2
  0
APPID
  5
12
330
9
100
AcDbSymbolTableRecord
100
AcDbRegAppTableRecord
  2
ACAD
 70
     0
  0
APPID
  5
3F
330
9
100
AcDbSymbolTableRecord
100
AcDbRegAppTableRecord
  2
ODA
 70
     0
  0
ENDTAB
  0
TABLE
  2
DIMSTYLE
  5
A
330
0
100
AcDbSymbolTable
 70
     1
  0
DIMSTYLE
105
27
330
A
100
AcDbSymbolTableRecord
100
AcDbDimStyleTableRecord
  2
STANDARD
 70
     0
  3

  4

  5

  6

  7

 40
1.0
 41
0.18
 42
0.0625
 43
0.38
 44
0.18
 45
0.0
 46
0.0
 47
0.0
 48
0.0
140
0.18
141
0.09
142
0.0
143
25.4
144
1.0
145
0.0
146
1.0
147
0.09
 71
     0
 72
     0
 73
     1
 74
     1
 75
     0
 76
     0
 77
     0
 78
     0
170
     0
171
     2
172
     0
173
     0
174
     0
175
     0
176
     0
177
     0
178
     0
270
     2
271
     4
272
     4
273
     2
274
     2
340
11
275
     0
280
     0
281
     0
282
     0
283
     1
284
     0
285
     0
286
     0
287
     3
288
     0
  0
ENDTAB
  0
TABLE
  2
BLOCK_RECORD
  5
1
330
0
100
AcDbSymbolTable
 70
     1
  0
BLOCK_RECORD
  5
1F
330
1
100
AcDbSymbolTableRecord
100
AcDbBlockTableRecord
  2
*MODEL_SPACE
  0
BLOCK_RECORD
  5
1B
330
1
100
AcDbSymbolTableRecord
100
AcDbBlockTableRecord
  2
*PAPER_SPACE
  0
ENDTAB
  0
ENDSEC
  0
SECTION
  2
BLOCKS
  0
BLOCK
  5
20
330
1F
100
AcDbEntity
  8
0
100
AcDbBlockBegin
  2
*MODEL_SPACE
 70
     0
 10
0.0
 20
0.0
 30
0.0
  3
*MODEL_SPACE
  1

  0
ENDBLK
  5
21
330
1F
100
AcDbEntity
  8
0
100
AcDbBlockEnd
  0
BLOCK
  5
1C
330
1B
100
AcDbEntity
 67
     1
  8
0
100
AcDbBlockBegin
  2
*PAPER_SPACE
 70
     0
 10
0.0
 20
0.0
 30
0.0
  3
*PAPER_SPACE
  1

  0
ENDBLK
  5
1D
330
1B
100
AcDbEntity
 67
     1
  8
0
100
AcDbBlockEnd
  0
ENDSEC
  0
SECTION
  2
ENTITIES
  0
SPLINE
  5
41
330
1F
100
AcDbEntity
  8
VRSTVA_1
 62
   250
100
AcDbSpline
210
0.0
220
0.0
230
1.0
 70
    24
 71
     3
 72
     8
 73
     4
 74
     0
 42
0.0000000001
 43
0.0000000001
 40
0.0
 40
0.0
 40
0.0
 40
0.0
 40
1.0
 40
1.0
 40
1.0
 40
1.0
 10
14.0019
 20
12.489
 30
0.0
 10
14.0019
 20
12.489
 30
0.0
 10
14.0019
 20
-12.9057
 30
0.0
 10
14.0019
 20
-12.9057
 30
0.0
  0
SPLINE
  5
42
330
1F
100
AcDbEntity
  8
VRSTVA_1
 62
   250
100
AcDbSpline
210
0.0
220
0.0
230
1.0
 70
    24
 71
     3
 72
     8
 73
     4
 74
     0
 42
0.0000000001
 43
0.0000000001
 40
0.0
 40
0.0
 40
0.0
 40
0.0
 40
1.0
 40
1.0
 40
1.0
 40
1.0
 10
31.1784
 20
3.3714
 30
0.0
 10
31.1784
 20
3.3714
 30
0.0
 10
31.1784
 20
19.1878
 30
0.0
 10
31.1784
 20
19.1878
 30
0.0
  0
SPLINE
  5
43
330
1F
100
AcDbEntity
  8
VRSTVA_1
 62
   250
100
AcDbSpline
210
0.0
220
0.0
230
1.0
 70
    24
 71
     3
 72
     8
 73
     4
 74
     0
 42
0.0000000001
 43
0.0000000001
 40
0.0
 40
0.0
 40
0.0
 40
0.0
 40
1.0
 40
1.0
 40
1.0
 40
1.0
 10
31.1787
 20
17.8702
 30
0.0
 10
31.1787
 20
17.8702
 30
0.0
 10
-30.7085
 20
17.8702
 30
0.0
 10
-30.7085
 20
17.8702
 30
0.0
  0
SPLINE
  5
44
330
1F
100
AcDbEntity
  8
VRSTVA_1
 62
   250
100
AcDbSpline
210
0.0
220
0.0
230
1.0
 70
    24
 71
     3
 72
     8
 73
     4
 74
     0
 42
0.0000000001
 43
0.0000000001
 40
0.0
 40
0.0
 40
0.0
 40
0.0
 40
1.0
 40
1.0
 40
1.0
 40
1.0
 10
-36.4084
 20
30.1074
 30
0.0
 10
-36.4084
 20
30.1074
 30
0.0
 10
-36.4084
 20
33.1959
 30
0.0
 10
-36.4084
 20
33.1959
 30
0.0
  0
SPLINE
  5
45
330
1F
100
AcDbEntity
  8
VRSTVA_1
 62
   250
100
AcDbSpline
210
0.0
220
0.0
230
1.0
 70
    24
 71
     3
 72
     8
 73
     4
 74
     0
 42
0.0000000001
 43
0.0000000001
 40
0.0
 40
0.0
 40
0.0
 40
0.0
 40
1.0
 40
1.0
 40
1.0
 40
1.0
 10
-25.8831
 20
30.0204
 30
0.0
 10
-25.8831
 20
30.0204
 30
0.0
 10
-25.8831
 20
33.1524
 30
0.0
 10
-25.8831
 20
33.1524
 30
0.0
  0
SPLINE
  5
46
330
1F
100
AcDbEntity
  8
VRSTVA_1
 62
   250
100
AcDbSpline
210
0.0
220
0.0
230
1.0
 70
    24
 71
     3
 72
     8
 73
     4
 74
     0
 42
0.0000000001
 43
0.0000000001
 40
0.0
 40
0.0
 40
0.0
 40
0.0
 40
1.0
 40
1.0
 40
1.0
 40
1.0
 10
-20.2974
 20
32.5381
 30
0.0
 10
-20.2974
 20
32.5381
 30
0.0
 10
-41.2284
 20
32.5381
 30
0.0
 10
-41.2284
 20
32.5381
 30
0.0
  0
SPLINE
  5
47
330
1F
100
AcDbEntity
  8
VRSTVA_1
 62
   250
100
AcDbSpline
210
0.0
220
0.0
230
1.0
 70
    24
 71
     3
 72
     8
 73
     4
 74
     0
 42
0.0000000001
 43
0.0000000001
 40
0.0
 40
0.0
 40
0.0
 40
0.0
 40
1.0
 40
1.0
 40
1.0
 40
1.0
 10
-43.146
 20
29.7102
 30
0.0
 10
-43.146
 20
29.7102
 30
0.0
 10
-38.3159
 20
29.7102
 30
0.0
 10
-38.3159
 20
29.7102
 30
0.0
  0
SPLINE
  5
48
330
1F
100
AcDbEntity
  8
VRSTVA_1
 62
   250
100
AcDbSpline
210
0.0
220
0.0
230
1.0
 70
    24
 71
     3
 72
     8
 73
     4
 74
     0
 42
0.0000000001
 43
0.0000000001
 40
0.0
 40
0.0
 40
0.0
 40
0.0
 40
1.0
 40
1.0
 40
1.0
 40
1.0
 10
-42.0086
 20
-3.6014
 30
0.0
 10
-42.0086
 20
-3.6014
 30
0.0
 10
-42.0086
 20
-30.0627
 30
0.0
 10
-42.0086
 20
-30.0627
 30
0.0
  0
SPLINE
  5
49
330
1F
100
AcDbEntity
  8
VRSTVA_1
  6
NEW_LINE1
 62
   250
100
AcDbSpline
210
0.0
220
0.0
230
1.0
 70
    24
 71
     3
 72
     8
 73
     4
 74
     0
 42
0.0000000001
 43
0.0000000001
 40
0.0
 40
0.0
 40
0.0
 40
0.0
 40
1.0
 40
1.0
 40
1.0
 40
1.0
 10
-31.2535
 20
-3.7219
 30
0.0
 10
-31.2535
 20
-3.7219
 30
0.0
 10
-31.2535
 20
31.7931
 30
0.0
 10
-31.2535
 20
31.7931
 30
0.0
  0
SPLINE
  5
4B
330
1F
100
AcDbEntity
  8
VRSTVA_1
  6
NEW_LINE2
 62
   250
100
AcDbSpline
210
0.0
220
0.0
230
1.0
 70
    24
 71
     3
 72
     8
 73
     4
 74
     0
 42
0.0000000001
 43
0.0000000001
 40
0.0
 40
0.0
 40
0.0
 40
0.0
 40
1.0
 40
1.0
 40
1.0
 40
1.0
 10
-28.8667
 20
-1.5109
 30
0.0
 10
-28.8667
 20
-1.5109
 30
0.0
 10
-28.8667
 20
-30.7846
 30
0.0
 10
-28.8667
 20
-30.7846
 30
0.0
  0
SPLINE
  5
4D
330
1F
100
AcDbEntity
  8
VRSTVA_1
  6
NEW_LINE3
 62
   250
100
AcDbSpline
210
0.0
220
0.0
230
1.0
 70
    24
 71
     3
 72
     8
 73
     4
 74
     0
 42
0.0000000001
 43
0.0000000001
 40
0.0
 40
0.0
 40
0.0
 40
0.0
 40
1.0
 40
1.0
 40
1.0
 40
1.0
 10
-33.1431
 20
-2.682
 30
0.0
 10
-33.1431
 20
-2.682
 30
0.0
 10
31.8966
 20
-2.682
 30
0.0
 10
31.8966
 20
-2.682
 30
0.0
  0
SPLINE
  5
4F
330
1F
100
AcDbEntity
  8
VRSTVA_1
 62
   250
100
AcDbSpline
210
0.0
220
0.0
230
1.0
 70
    11
 71
     3
 72
   120
 73
   116
 74
     0
 42
0.0000000001
 43
0.0000000001
 40
0.0
 40
0.0
 40
0.0
 40
0.0
 40
0.0333333333333333
 40
0.0333333333333333
 40
0.0333333333333333
 40
0.0333333333333333
 40
0.0666666666666667
 40
0.0666666666666667
 40
0.0666666666666667
 40
0.0666666666666667
 40
0.1
 40
0.1
 40
0.1
 40
0.1
 40
0.1333333333333333
 40
0.1333333333333333
 40
0.1333333333333333
 40
0.1333333333333333
 40
0.1666666666666667
 40
0.1666666666666667
 40
0.1666666666666667
 40
0.1666666666666667
 40
0.2
 40
0.2
 40
0.2
 40
0.2
 40
0.2333333333333333
 40
0.2333333333333333
 40
0.2333333333333333
 40
0.2333333333333333
 40
0.2666666666666667
 40
0.2666666666666667
 40
0.2666666666666667
 40
0.2666666666666667
 40
0.3
 40
0.3
 40
0.3
 40
0.3
 40
0.3333333333333333
 40
0.3333333333333333
 40
0.3333333333333333
 40
0.3333333333333333
 40
0.3666666666666666
 40
0.3666666666666666
 40
0.3666666666666666
 40
0.3666666666666666
 40
0.4
 40
0.4
 40
0.4
 40
0.4
 40
0.4333333333333333
 40
0.4333333333333333
 40
0.4333333333333333
 40
0.4333333333333333
 40
0.4666666666666667
 40
0.4666666666666667
 40
0.4666666666666667
 40
0.4666666666666667
 40
0.5
 40
0.5
 40
0.5
 40
0.5
 40
0.5333333333333333
 40
0.5333333333333333
 40
0.5333333333333333
 40
0.5333333333333333
 40
0.5666666666666667
 40
0.5666666666666667
 40
0.5666666666666667
 40
0.5666666666666667
 40
0.6
 40
0.6
 40
0.6
 40
0.6
 40
0.6333333333333333
 40
0.6333333333333333
 40
0.6333333333333333
 40
0.6333333333333333
 40
0.6666666666666666
 40
0.6666666666666666
 40
0.6666666666666666
 40
0.6666666666666666
 40
0.7
 40
0.7
 40
0.7
 40
0.7
 40
0.7333333333333333
 40
0.7333333333333333
 40
0.7333333333333333
 40
0.7333333333333333
 40
0.7666666666666667
 40
0.7666666666666667
 40
0.7666666666666667
 40
0.7666666666666667
 40
0.8
 40
0.8
 40
0.8
 40
0.8
 40
0.8333333333333334
 40
0.8333333333333334
 40
0.8333333333333334
 40
0.8333333333333334
 40
0.8666666666666667
 40
0.8666666666666667
 40
0.8666666666666667
 40
0.8666666666666667
 40
0.9
 40
0.9
 40
0.9
 40
0.9
 40
0.9333333333333333
 40
0.9333333333333333
 40
0.9333333333333333
 40
0.9333333333333333
 40
1.0
 40
1.0
 40
1.0
 40
1.0
 10
-34.0725
 20
34.5958
 30
0.0
 10
-34.0725
 20
34.5958
 30
0.0
 10
-34.0725
 20
34.862
 30
0.0
 10
-34.0725
 20
34.862
 30
0.0
 10
-34.0725
 20
34.862
 30
0.0
 10
-34.0725
 20
34.862
 30
0.0
 10
-33.1099
 20
34.8636
 30
0.0
 10
-33.1099
 20
34.8636
 30
0.0
 10
-33.1099
 20
34.8636
 30
0.0
 10
-33.1099
 20
34.8636
 30
0.0
 10
-33.1099
 20
34.0206
 30
0.0
 10
-33.1099
 20
34.0206
 30
0.0
 10
-33.1099
 20
34.0206
 30
0.0
 10
-33.2576
 20
33.9026
 30
0.0
 10
-33.41
 20
33.8143
 30
0.0
 10
-33.5671
 20
33.7545
 30
0.0
 10
-33.5671
 20
33.7545
 30
0.0
 10
-33.7243
 20
33.6952
 30
0.0
 10
-33.8857
 20
33.6656
 30
0.0
 10
-34.0508
 20
33.6656
 30
0.0
 10
-34.0508
 20
33.6656
 30
0.0
 10
-34.2741
 20
33.6656
 30
0.0
 10
-34.4773
 20
33.7132
 30
0.0
 10
-34.6593
 20
33.809
 30
0.0
 10
-34.6593
 20
33.809
 30
0.0
 10
-34.8419
 20
33.9042
 30
0.0
 10
-34.9795
 20
34.0429
 30
0.0
 10
-35.0726
 20
34.2233
 30
0.0
 10
-35.0726
 20
34.2233
 30
0.0
 10
-35.1657
 20
34.4043
 30
0.0
 10
-35.2123
 20
34.6064
 30
0.0
 10
-35.2123
 20
34.8297
 30
0.0
 10
-35.2123
 20
34.8297
 30
0.0
 10
-35.2123
 20
35.0509
 30
0.0
 10
-35.1657
 20
35.2573
 30
0.0
 10
-35.0731
 20
35.4489
 30
0.0
 10
-35.0731
 20
35.4489
 30
0.0
 10
-34.981
 20
35.641
 30
0.0
 10
-34.8477
 20
35.7833
 30
0.0
 10
-34.6741
 20
35.8764
 30
0.0
 10
-34.6741
 20
35.8764
 30
0.0
 10
-34.5006
 20
35.969
 30
0.0
 10
-34.3005
 20
36.0156
 30
0.0
 10
-34.0741
 20
36.0156
 30
0.0
 10
-34.0741
 20
36.0156
 30
0.0
 10
-33.91
 20
36.0156
 30
0.0
 10
-33.7613
 20
35.9891
 30
0.0
 10
-33.6285
 20
35.9357
 30
0.0
 10
-33.6285
 20
35.9357
 30
0.0
 10
-33.4957
 20
35.8828
 30
0.0
 10
-33.3914
 20
35.8087
 30
0.0
 10
-33.3163
 20
35.7134
 30
0.0
 10
-33.3163
 20
35.7134
 30
0.0
 10
-33.2406
 20
35.6182
 30
0.0
 10
-33.1835
 20
35.4944
 30
0.0
 10
-33.1438
 20
35.3414
 30
0.0
 10
-33.1438
 20
35.3414
 30
0.0
 10
-33.1438
 20
35.3414
 30
0.0
 10
-33.4152
 20
35.2668
 30
0.0
 10
-33.4152
 20
35.2668
 30
0.0
 10
-33.4152
 20
35.2668
 30
0.0
 10
-33.4496
 20
35.3827
 30
0.0
 10
-33.492
 20
35.4737
 30
0.0
 10
-33.5422
 20
35.5399
 30
0.0
 10
-33.5422
 20
35.5399
 30
0.0
 10
-33.593
 20
35.606
 30
0.0
 10
-33.6655
 20
35.6589
 30
0.0
 10
-33.7597
 20
35.6986
 30
0.0
 10
-33.7597
 20
35.6986
 30
0.0
 10
-33.8534
 20
35.7383
 30
0.0
 10
-33.9582
 20
35.7584
 30
0.0
 10
-34.0725
 20
35.7584
 30
0.0
 10
-34.0725
 20
35.7584
 30
0.0
 10
-34.2101
 20
35.7584
 30
0.0
 10
-34.3291
 20
35.7373
 30
0.0
 10
-34.4291
 20
35.6955
 30
0.0
 10
-34.4291
 20
35.6955
 30
0.0
 10
-34.5297
 20
35.6537
 30
0.0
 10
-34.6101
 20
35.5986
 30
0.0
 10
-34.672
 20
35.5304
 30
0.0
 10
-34.672
 20
35.5304
 30
0.0
 10
-34.7334
 20
35.4621
 30
0.0
 10
-34.781
 20
35.3875
 30
0.0
 10
-34.8154
 20
35.3055
 30
0.0
 10
-34.8154
 20
35.3055
 30
0.0
 10
-34.8731
 20
35.1652
 30
0.0
 10
-34.9022
 20
35.0128
 30
0.0
 10
-34.9022
 20
34.8483
 30
0.0
 10
-34.9022
 20
34.8483
 30
0.0
 10
-34.9022
 20
34.6456
 30
0.0
 10
-34.8673
 20
34.4763
 30
0.0
 10
-34.7974
 20
34.3397
 30
0.0
 10
-34.7974
 20
34.3397
 30
0.0
 10
-34.7276
 20
34.2032
 30
0.0
 10
-34.626
 20
34.1021
 30
0.0
 10
-34.4926
 20
34.036
 30
0.0
 10
-34.4926
 20
34.036
 30
0.0
 10
-34.3593
 20
33.9698
 30
0.0
 10
-34.218
 20
33.9365
 30
0.0
 10
-34.0682
 20
33.9365
 30
0.0
 10
-34.0682
 20
33.9365
 30
0.0
 10
-33.9375
 20
33.9365
 30
0.0
 10
-33.8105
 20
33.9619
 30
0.0
 10
-33.6867
 20
34.0122
 30
0.0
 10
-33.6867
 20
34.0122
 30
0.0
 10
-33.5624
 20
34.0619
 30
0.0
 10
-33.4687
 20
34.1154
 30
0.0
 10
-33.4047
 20
34.1725
 30
0.0
 10
-33.4047
 20
34.1725
 30
0.0
 10
-33.4047
 20
34.1725
 30
0.0
 10
-33.4047
 20
34.5958
 30
0.0
 10
-33.4047
 20
34.5958
 30
0.0
 10
-33.4047
 20
34.5958
 30
0.0
 10
-33.4047
 20
34.5958
 30
0.0
 10
-34.0725
 20
34.5958
 30
0.0
 10
-34.0725
 20
34.5958
 30
0.0
  0
SPLINE
  5
50
330
1F
100
AcDbEntity
  8
VRSTVA_1
 62
   250
100
AcDbSpline
210
0.0
220
0.0
230
1.0
 70
    11
 71
     3
 72
    92
 73
    88
 74
     0
 42
0.0000000001
 43
0.0000000001
 40
0.0
 40
0.0
 40
0.0
 40
0.0
 40
0.0434782608695652
 40
0.0434782608695652
 40
0.0434782608695652
 40
0.0434782608695652
 40
0.0869565217391304
 40
0.0869565217391304
 40
0.0869565217391304
 40
0.0869565217391304
 40
0.1304347826086956
 40
0.1304347826086956
 40
0.1304347826086956
 40
0.1304347826086956
 40
0.1739130434782609
 40
0.1739130434782609
 40
0.1739130434782609
 40
0.1739130434782609
 40
0.2173913043478261
 40
0.2173913043478261
 40
0.2173913043478261
 40
0.2173913043478261
 40
0.2608695652173913
 40
0.2608695652173913
 40
0.2608695652173913
 40
0.2608695652173913
 40
0.3043478260869565
 40
0.3043478260869565
 40
0.3043478260869565
 40
0.3043478260869565
 40
0.3478260869565217
 40
0.3478260869565217
 40
0.3478260869565217
 40
0.3478260869565217
 40
0.391304347826087
 40
0.391304347826087
 40
0.391304347826087
 40
0.391304347826087
 40
0.4347826086956522
 40
0.4347826086956522
 40
0.4347826086956522
 40
0.4347826086956522
 40
0.4782608695652174
 40
0.4782608695652174
 40
0.4782608695652174
 40
0.4782608695652174
 40
0.5217391304347826
 40
0.5217391304347826
 40
0.5217391304347826
 40
0.5217391304347826
 40
0.5652173913043478
 40
0.5652173913043478
 40
0.5652173913043478
 40
0.5652173913043478
 40
0.6086956521739131
 40
0.6086956521739131
 40
0.6086956521739131
 40
0.6086956521739131
 40
0.6521739130434783
 40
0.6521739130434783
 40
0.6521739130434783
 40
0.6521739130434783
 40
0.6956521739130435
 40
0.6956521739130435
 40
0.6956521739130435
 40
0.6956521739130435
 40
0.7391304347826086
 40
0.7391304347826086
 40
0.7391304347826086
 40
0.7391304347826086
 40
0.782608695652174
 40
0.782608695652174
 40
0.782608695652174
 40
0.782608695652174
 40
0.8260869565217391
 40
0.8260869565217391
 40
0.8260869565217391
 40
0.8260869565217391
 40
0.8695652173913043
 40
0.8695652173913043
 40
0.8695652173913043
 40
0.8695652173913043
 40
0.9130434782608695
 40
0.9130434782608695
 40
0.9130434782608695
 40
0.9130434782608695
 40
1.0
 40
1.0
 40
1.0
 40
1.0
 10
-31.8976
 20
34.2995
 30
0.0
 10
-31.8976
 20
34.2995
 30
0.0
 10
-31.6045
 20
34.3244
 30
0.0
 10
-31.6045
 20
34.3244
 30
0.0
 10
-31.6045
 20
34.3244
 30
0.0
 10
-31.5828
 20
34.1815
 30
0.0
 10
-31.5325
 20
34.0746
 30
0.0
 10
-31.4537
 20
34.0027
 30
0.0
 10
-31.4537
 20
34.0027
 30
0.0
 10
-31.3743
 20
33.9307
 30
0.0
 10
-31.279
 20
33.8947
 30
0.0
 10
-31.1674
 20
33.8947
 30
0.0
 10
-31.1674
 20
33.8947
 30
0.0
 10
-31.033
 20
33.8947
 30
0.0
 10
-30.9192
 20
33.9455
 30
0.0
 10
-30.8266
 20
34.0466
 30
0.0
 10
-30.8266
 20
34.0466
 30
0.0
 10
-30.7335
 20
34.1482
 30
0.0
 10
-30.6869
 20
34.2826
 30
0.0
 10
-30.6869
 20
34.4498
 30
0.0
 10
-30.6869
 20
34.4498
 30
0.0
 10
-30.6869
 20
34.6091
 30
0.0
 10
-30.7314
 20
34.7345
 30
0.0
 10
-30.8208
 20
34.8266
 30
0.0
 10
-30.8208
 20
34.8266
 30
0.0
 10
-30.9102
 20
34.9186
 30
0.0
 10
-31.0272
 20
34.9647
 30
0.0
 10
-31.1721
 20
34.9647
 30
0.0
 10
-31.1721
 20
34.9647
 30
0.0
 10
-31.2621
 20
34.9647
 30
0.0
 10
-31.3431
 20
34.944
 30
0.0
 10
-31.4156
 20
34.9033
 30
0.0
 10
-31.4156
 20
34.9033
 30
0.0
 10
-31.4881
 20
34.8625
 30
0.0
 10
-31.5447
 20
34.8096
 30
0.0
 10
-31.586
 20
34.7445
 30
0.0
 10
-31.586
 20
34.7445
 30
0.0
 10
-31.586
 20
34.7445
 30
0.0
 10
-31.8479
 20
34.7784
 30
0.0
 10
-31.8479
 20
34.7784
 30
0.0
 10
-31.8479
 20
34.7784
 30
0.0
 10
-31.8479
 20
34.7784
 30
0.0
 10
-31.6278
 20
35.9458
 30
0.0
 10
-31.6278
 20
35.9458
 30
0.0
 10
-31.6278
 20
35.9458
 30
0.0
 10
-31.6278
 20
35.9458
 30
0.0
 10
-30.4975
 20
35.9458
 30
0.0
 10
-30.4975
 20
35.9458
 30
0.0
 10
-30.4975
 20
35.9458
 30
0.0
 10
-30.4975
 20
35.9458
 30
0.0
 10
-30.4975
 20
35.6791
 30
0.0
 10
-30.4975
 20
35.6791
 30
0.0
 10
-30.4975
 20
35.6791
 30
0.0
 10
-30.4975
 20
35.6791
 30
0.0
 10
-31.4045
 20
35.6791
 30
0.0
 10
-31.4045
 20
35.6791
 30
0.0
 10
-31.4045
 20
35.6791
 30
0.0
 10
-31.4045
 20
35.6791
 30
0.0
 10
-31.5272
 20
35.0684
 30
0.0
 10
-31.5272
 20
35.0684
 30
0.0
 10
-31.5272
 20
35.0684
 30
0.0
 10
-31.3907
 20
35.1636
 30
0.0
 10
-31.2473
 20
35.2113
 30
0.0
 10
-31.0975
 20
35.2113
 30
0.0
 10
-31.0975
 20
35.2113
 30
0.0
 10
-30.8991
 20
35.2113
 30
0.0
 10
-30.7319
 20
35.1425
 30
0.0
 10
-30.5954
 20
35.0049
 30
0.0
 10
-30.5954
 20
35.0049
 30
0.0
 10
-30.4588
 20
34.8673
 30
0.0
 10
-30.3906
 20
34.6906
 30
0.0
 10
-30.3906
 20
34.4747
 30
0.0
 10
-30.3906
 20
34.4747
 30
0.0
 10
-30.3906
 20
34.2688
 30
0.0
 10
-30.4509
 20
34.091
 30
0.0
 10
-30.5705
 20
33.9413
 30
0.0
 10
-30.5705
 20
33.9413
 30
0.0
 10
-30.7165
 20
33.7576
 30
0.0
 10
-30.9155
 20
33.6656
 30
0.0
 10
-31.1674
 20
33.6656
 30
0.0
 10
-31.1674
 20
33.6656
 30
0.0
 10
-31.3743
 20
33.6656
 30
0.0
 10
-31.5431
 20
33.7233
 30
0.0
 10
-31.6738
 20
33.8391
 30
0.0
 10
-31.6738
 20
33.8391
 30
0.0
 10
-31.8045
 20
33.955
 30
0.0
 10
-31.8791
 20
34.1085
 30
0.0
 10
-31.8976
 20
34.2995
 30
0.0
  0
SPLINE
  5
51
330
1F
100
AcDbEntity
  8
VRSTVA_1
 62
   250
100
AcDbSpline
210
0.0
220
0.0
230
1.0
 70
    11
 71
     3
 72
    20
 73
    16
 74
     0
 42
0.0000000001
 43
0.0000000001
 40
0.0
 40
0.0
 40
0.0
 40
0.0
 40
0.2
 40
0.2
 40
0.2
 40
0.2
 40
0.4
 40
0.4
 40
0.4
 40
0.4
 40
0.6
 40
0.6
 40
0.6
 40
0.6
 40
1.0
 40
1.0
 40
1.0
 40
1.0
 10
-30.2636
 20
33.6656
 30
0.0
 10
-30.2636
 20
33.6656
 30
0.0
 10
-29.6048
 20
36.0156
 30
0.0
 10
-29.6048
 20
36.0156
 30
0.0
 10
-29.6048
 20
36.0156
 30
0.0
 10
-29.6048
 20
36.0156
 30
0.0
 10
-29.3815
 20
36.0156
 30
0.0
 10
-29.3815
 20
36.0156
 30
0.0
 10
-29.3815
 20
36.0156
 30
0.0
 10
-29.3815
 20
36.0156
 30
0.0
 10
-30.0387
 20
33.6656
 30
0.0
 10
-30.0387
 20
33.6656
 30
0.0
 10
-30.0387
 20
33.6656
 30
0.0
 10
-30.0387
 20
33.6656
 30
0.0
 10
-30.2636
 20
33.6656
 30
0.0
 10
-30.2636
 20
33.6656
 30
0.0
  0
SPLINE
  5
52
330
1F
100
AcDbEntity
  8
VRSTVA_1
 62
   250
100
AcDbSpline
210
0.0
220
0.0
230
1.0
 70
    11
 71
     3
 72
    48
 73
    44
 74
     0
 42
0.0000000001
 43
0.0000000001
 40
0.0
 40
0.0
 40
0.0
 40
0.0
 40
0.0833333333333333
 40
0.0833333333333333
 40
0.0833333333333333
 40
0.0833333333333333
 40
0.1666666666666667
 40
0.1666666666666667
 40
0.1666666666666667
 40
0.1666666666666667
 40
0.25
 40
0.25
 40
0.25
 40
0.25
 40
0.3333333333333333
 40
0.3333333333333333
 40
0.3333333333333333
 40
0.3333333333333333
 40
0.4166666666666667
 40
0.4166666666666667
 40
0.4166666666666667
 40
0.4166666666666667
 40
0.5
 40
0.5
 40
0.5
 40
0.5
 40
0.5833333333333334
 40
0.5833333333333334
 40
0.5833333333333334
 40
0.5833333333333334
 40
0.6666666666666666
 40
0.6666666666666666
 40
0.6666666666666666
 40
0.6666666666666666
 40
0.75
 40
0.75
 40
0.75
 40
0.75
 40
0.8333333333333334
 40
0.8333333333333334
 40
0.8333333333333334
 40
0.8333333333333334
 40
1.0
 40
1.0
 40
1.0
 40
1.0
 10
-28.3554
 20
33.7042
 30
0.0
 10
-28.3554
 20
33.7042
 30
0.0
 10
-28.3554
 20
34.2482
 30
0.0
 10
-28.3554
 20
34.2482
 30
0.0
 10
-28.3554
 20
34.2482
 30
0.0
 10
-28.3554
 20
34.2482
 30
0.0
 10
-29.3413
 20
34.2482
 30
0.0
 10
-29.3413
 20
34.2482
 30
0.0
 10
-29.3413
 20
34.2482
 30
0.0
 10
-29.3413
 20
34.2482
 30
0.0
 10
-29.3413
 20
34.5043
 30
0.0
 10
-29.3413
 20
34.5043
 30
0.0
 10
-29.3413
 20
34.5043
 30
0.0
 10
-29.3413
 20
34.5043
 30
0.0
 10
-28.3041
 20
35.977
 30
0.0
 10
-28.3041
 20
35.977
 30
0.0
 10
-28.3041
 20
35.977
 30
0.0
 10
-28.3041
 20
35.977
 30
0.0
 10
-28.076
 20
35.977
 30
0.0
 10
-28.076
 20
35.977
 30
0.0
 10
-28.076
 20
35.977
 30
0.0
 10
-28.076
 20
35.977
 30
0.0
 10
-28.076
 20
34.5043
 30
0.0
 10
-28.076
 20
34.5043
 30
0.0
 10
-28.076
 20
34.5043
 30
0.0
 10
-28.076
 20
34.5043
 30
0.0
 10
-27.7691
 20
34.5043
 30
0.0
 10
-27.7691
 20
34.5043
 30
0.0
 10
-27.7691
 20
34.5043
 30
0.0
 10
-27.7691
 20
34.5043
 30
0.0
 10
-27.7691
 20
34.2482
 30
0.0
 10
-27.7691
 20
34.2482
 30
0.0
 10
-27.7691
 20
34.2482
 30
0.0
 10
-27.7691
 20
34.2482
 30
0.0
 10
-28.076
 20
34.2482
 30
0.0
 10
-28.076
 20
34.2482
 30
0.0
 10
-28.076
 20
34.2482
 30
0.0
 10
-28.076
 20
34.2482
 30
0.0
 10
-28.076
 20
33.7042
 30
0.0
 10
-28.076
 20
33.7042
 30
0.0
 10
-28.076
 20
33.7042
 30
0.0
 10
-28.076
 20
33.7042
 30
0.0
 10
-28.3554
 20
33.7042
 30
0.0
 10
-28.3554
 20
33.7042
 30
0.0
  0
SPLINE
  5
53
330
1F
100
AcDbEntity
  8
VRSTVA_1
 62
   250
100
AcDbSpline
210
0.0
220
0.0
230
1.0
 70
    11
 71
     3
 72
    16
 73
    12
 74
     0
 42
0.0000000001
 43
0.0000000001
 40
0.0
 40
0.0
 40
0.0
 40
0.0
 40
0.25
 40
0.25
 40
0.25
 40
0.25
 40
0.5
 40
0.5
 40
0.5
 40
0.5
 40
1.0
 40
1.0
 40
1.0
 40
1.0
 10
-28.3554
 20
34.5043
 30
0.0
 10
-28.3554
 20
34.5043
 30
0.0
 10
-28.3554
 20
35.5288
 30
0.0
 10
-28.3554
 20
35.5288
 30
0.0
 10
-28.3554
 20
35.5288
 30
0.0
 10
-28.3554
 20
35.5288
 30
0.0
 10
-29.0666
 20
34.5043
 30
0.0
 10
-29.0666
 20
34.5043
 30
0.0
 10
-29.0666
 20
34.5043
 30
0.0
 10
-29.0666
 20
34.5043
 30
0.0
 10
-28.3554
 20
34.5043
 30
0.0
 10
-28.3554
 20
34.5043
 30
0.0
  0
SPLINE
  5
54
330
1F
100
AcDbEntity
  8
VRSTVA_1
 62
   250
100
AcDbSpline
210
0.0
220
0.0
230
1.0
 70
    11
 71
     3
 72
    28
 73
    24
 74
     0
 42
0.0000000001
 43
0.0000000001
 40
0.0
 40
0.0
 40
0.0
 40
0.0
 40
0.1428571428571428
 40
0.1428571428571428
 40
0.1428571428571428
 40
0.1428571428571428
 40
0.2857142857142857
 40
0.2857142857142857
 40
0.2857142857142857
 40
0.2857142857142857
 40
0.4285714285714285
 40
0.4285714285714285
 40
0.4285714285714285
 40
0.4285714285714285
 40
0.5714285714285714
 40
0.5714285714285714
 40
0.5714285714285714
 40
0.5714285714285714
 40
0.7142857142857143
 40
0.7142857142857143
 40
0.7142857142857143
 40
0.7142857142857143
 40
1.0
 40
1.0
 40
1.0
 40
1.0
 10
-27.3924
 20
35.1721
 30
0.0
 10
-27.3924
 20
35.1721
 30
0.0
 10
-27.4702
 20
35.605
 30
0.0
 10
-27.4702
 20
35.605
 30
0.0
 10
-27.4702
 20
35.605
 30
0.0
 10
-27.4702
 20
35.605
 30
0.0
 10
-27.4702
 20
35.977
 30
0.0
 10
-27.4702
 20
35.977
 30
0.0
 10
-27.4702
 20
35.977
 30
0.0
 10
-27.4702
 20
35.977
 30
0.0
 10
-27.1521
 20
35.977
 30
0.0
 10
-27.1521
 20
35.977
 30
0.0
 10
-27.1521
 20
35.977
 30
0.0
 10
-27.1521
 20
35.977
 30
0.0
 10
-27.1521
 20
35.605
 30
0.0
 10
-27.1521
 20
35.605
 30
0.0
 10
-27.1521
 20
35.605
 30
0.0
 10
-27.1521
 20
35.605
 30
0.0
 10
-27.222
 20
35.1721
 30
0.0
 10
-27.222
 20
35.1721
 30
0.0
 10
-27.222
 20
35.1721
 30
0.0
 10
-27.222
 20
35.1721
 30
0.0
 10
-27.3924
 20
35.1721
 30
0.0
 10
-27.3924
 20
35.1721
 30
0.0
  0
SPLINE
  5
55
330
1F
100
AcDbEntity
  8
VRSTVA_1
 62
   250
100
AcDbSpline
210
0.0
220
0.0
230
1.0
 70
    11
 71
     3
 72
    28
 73
    24
 74
     0
 42
0.0000000001
 43
0.0000000001
 40
0.0
 40
0.0
 40
0.0
 40
0.0
 40
0.1428571428571428
 40
0.1428571428571428
 40
0.1428571428571428
 40
0.1428571428571428
 40
0.2857142857142857
 40
0.2857142857142857
 40
0.2857142857142857
 40
0.2857142857142857
 40
0.4285714285714285
 40
0.4285714285714285
 40
0.4285714285714285
 40
0.4285714285714285
 40
0.5714285714285714
 40
0.5714285714285714
 40
0.5714285714285714
 40
0.5714285714285714
 40
0.7142857142857143
 40
0.7142857142857143
 40
0.7142857142857143
 40
0.7142857142857143
 40
1.0
 40
1.0
 40
1.0
 40
1.0
 10
-26.8791
 20
35.1721
 30
0.0
 10
-26.8791
 20
35.1721
 30
0.0
 10
-26.9553
 20
35.605
 30
0.0
 10
-26.9553
 20
35.605
 30
0.0
 10
-26.9553
 20
35.605
 30
0.0
 10
-26.9553
 20
35.605
 30
0.0
 10
-26.9553
 20
35.977
 30
0.0
 10
-26.9553
 20
35.977
 30
0.0
 10
-26.9553
 20
35.977
 30
0.0
 10
-26.9553
 20
35.977
 30
0.0
 10
-26.6373
 20
35.977
 30
0.0
 10
-26.6373
 20
35.977
 30
0.0
 10
-26.6373
 20
35.977
 30
0.0
 10
-26.6373
 20
35.977
 30
0.0
 10
-26.6373
 20
35.605
 30
0.0
 10
-26.6373
 20
35.605
 30
0.0
 10
-26.6373
 20
35.605
 30
0.0
 10
-26.6373
 20
35.605
 30
0.0
 10
-26.7119
 20
35.1721
 30
0.0
 10
-26.7119
 20
35.1721
 30
0.0
 10
-26.7119
 20
35.1721
 30
0.0
 10
-26.7119
 20
35.1721
 30
0.0
 10
-26.8791
 20
35.1721
 30
0.0
 10
-26.8791
 20
35.1721
 30
0.0
  0
SPLINE
  5
56
330
1F
100
AcDbEntity
  8
VRSTVA_1
 62
   250
100
AcDbSpline
210
0.0
220
0.0
230
1.0
 70
    11
 71
     3
 72
   116
 73
   112
 74
     0
 42
0.0000000001
 43
0.0000000001
 40
0.0
 40
0.0
 40
0.0
 40
0.0
 40
0.0344827586206897
 40
0.0344827586206897
 40
0.0344827586206897
 40
0.0344827586206897
 40
0.0689655172413793
 40
0.0689655172413793
 40
0.0689655172413793
 40
0.0689655172413793
 40
0.103448275862069
 40
0.103448275862069
 40
0.103448275862069
 40
0.103448275862069
 40
0.1379310344827586
 40
0.1379310344827586
 40
0.1379310344827586
 40
0.1379310344827586
 40
0.1724137931034483
 40
0.1724137931034483
 40
0.1724137931034483
 40
0.1724137931034483
 40
0.2068965517241379
 40
0.2068965517241379
 40
0.2068965517241379
 40
0.2068965517241379
 40
0.2413793103448276
 40
0.2413793103448276
 40
0.2413793103448276
 40
0.2413793103448276
 40
0.2758620689655172
 40
0.2758620689655172
 40
0.2758620689655172
 40
0.2758620689655172
 40
0.3103448275862069
 40
0.3103448275862069
 40
0.3103448275862069
 40
0.3103448275862069
 40
0.3448275862068966
 40
0.3448275862068966
 40
0.3448275862068966
 40
0.3448275862068966
 40
0.3793103448275862
 40
0.3793103448275862
 40
0.3793103448275862
 40
0.3793103448275862
 40
0.4137931034482759
 40
0.4137931034482759
 40
0.4137931034482759
 40
0.4137931034482759
 40
0.4482758620689655
 40
0.4482758620689655
 40
0.4482758620689655
 40
0.4482758620689655
 40
0.4827586206896552
 40
0.4827586206896552
 40
0.4827586206896552
 40
0.4827586206896552
 40
0.5172413793103449
 40
0.5172413793103449
 40
0.5172413793103449
 40
0.5172413793103449
 40
0.5517241379310345
 40
0.5517241379310345
 40
0.5517241379310345
 40
0.5517241379310345
 40
0.5862068965517241
 40
0.5862068965517241
 40
0.5862068965517241
 40
0.5862068965517241
 40
0.6206896551724138
 40
0.6206896551724138
 40
0.6206896551724138
 40
0.6206896551724138
 40
0.6551724137931034
 40
0.6551724137931034
 40
0.6551724137931034
 40
0.6551724137931034
 40
0.6896551724137931
 40
0.6896551724137931
 40
0.6896551724137931
 40
0.6896551724137931
 40
0.7241379310344828
 40
0.7241379310344828
 40
0.7241379310344828
 40
0.7241379310344828
 40
0.7586206896551724
 40
0.7586206896551724
 40
0.7586206896551724
 40
0.7586206896551724
 40
0.7931034482758621
 40
0.7931034482758621
 40
0.7931034482758621
 40
0.7931034482758621
 40
0.8275862068965517
 40
0.8275862068965517
 40
0.8275862068965517
 40
0.8275862068965517
 40
0.8620689655172413
 40
0.8620689655172413
 40
0.8620689655172413
 40
0.8620689655172413
 40
0.896551724137931
 40
0.896551724137931
 40
0.896551724137931
 40
0.896551724137931
 40
0.9310344827586207
 40
0.9310344827586207
 40
0.9310344827586207
 40
0.9310344827586207
 40
1.0
 40
1.0
 40
1.0
 40
1.0
 10
-2.5003
 20
18.7182
 30
0.0
 10
-2.5003
 20
18.7182
 30
0.0
 10
-2.5003
 20
20.3644
 30
0.0
 10
-2.5003
 20
20.3644
 30
0.0
 10
-2.5003
 20
20.3644
 30
0.0
 10
-2.5003
 20
20.3644
 30
0.0
 10
-2.2511
 20
20.3644
 30
0.0
 10
-2.2511
 20
20.3644
 30
0.0
 10
-2.2511
 20
20.3644
 30
0.0
 10
-2.2511
 20
20.3644
 30
0.0
 10
-2.2511
 20
20.1337
 30
0.0
 10
-2.2511
 20
20.1337
 30
0.0
 10
-2.2511
 20
20.1337
 30
0.0
 10
-2.1993
 20
20.2142
 30
0.0
 10
-2.1305
 20
20.2792
 30
0.0
 10
-2.0447
 20
20.3279
 30
0.0
 10
-2.0447
 20
20.3279
 30
0.0
 10
-1.959
 20
20.3771
 30
0.0
 10
-1.8611
 20
20.402
 30
0.0
 10
-1.7516
 20
20.402
 30
0.0
 10
-1.7516
 20
20.402
 30
0.0
 10
-1.6299
 20
20.402
 30
0.0
 10
-1.5299
 20
20.3766
 30
0.0
 10
-1.4521
 20
20.3258
 30
0.0
 10
-1.4521
 20
20.3258
 30
0.0
 10
-1.3738
 20
20.275
 30
0.0
 10
-1.3187
 20
20.2046
 30
0.0
 10
-1.287
 20
20.1136
 30
0.0
 10
-1.287
 20
20.1136
 30
0.0
 10
-1.1563
 20
20.3057
 30
0.0
 10
-0.9869
 20
20.402
 30
0.0
 10
-0.7784
 20
20.402
 30
0.0
 10
-0.7784
 20
20.402
 30
0.0
 10
-0.6149
 20
20.402
 30
0.0
 10
-0.4895
 20
20.3565
 30
0.0
 10
-0.4017
 20
20.266
 30
0.0
 10
-0.4017
 20
20.266
 30
0.0
 10
-0.3138
 20
20.1755
 30
0.0
 10
-0.2699
 20
20.0364
 30
0.0
 10
-0.2699
 20
19.8485
 30
0.0
 10
-0.2699
 20
19.8485
 30
0.0
 10
-0.2699
 20
19.8485
 30
0.0
 10
-0.2699
 20
18.7182
 30
0.0
 10
-0.2699
 20
18.7182
 30
0.0
 10
-0.2699
 20
18.7182
 30
0.0
 10
-0.2699
 20
18.7182
 30
0.0
 10
-0.5472
 20
18.7182
 30
0.0
 10
-0.5472
 20
18.7182
 30
0.0
 10
-0.5472
 20
18.7182
 30
0.0
 10
-0.5472
 20
18.7182
 30
0.0
 10
-0.5472
 20
19.7554
 30
0.0
 10
-0.5472
 20
19.7554
 30
0.0
 10
-0.5472
 20
19.7554
 30
0.0
 10
-0.5472
 20
19.867
 30
0.0
 10
-0.5562
 20
19.9475
 30
0.0
 10
-0.5742
 20
19.9967
 30
0.0
 10
-0.5742
 20
19.9967
 30
0.0
 10
-0.5927
 20
20.0454
 30
0.0
 10
-0.6255
 20
20.085
 30
0.0
 10
-0.6726
 20
20.1152
 30
0.0
 10
-0.6726
 20
20.1152
 30
0.0
 10
-0.7202
 20
20.1448
 30
0.0
 10
-0.7763
 20
20.1602
 30
0.0
 10
-0.8404
 20
20.1602
 30
0.0
 10
-0.8404
 20
20.1602
 30
0.0
 10
-0.9562
 20
20.1602
 30
0.0
 10
-1.052
 20
20.1216
 30
0.0
 10
-1.1287
 20
20.0443
 30
0.0
 10
-1.1287
 20
20.0443
 30
0.0
 10
-1.2049
 20
19.9676
 30
0.0
 10
-1.2436
 20
19.8443
 30
0.0
 10
-1.2436
 20
19.6749
 30
0.0
 10
-1.2436
 20
19.6749
 30
0.0
 10
-1.2436
 20
19.6749
 30
0.0
 10
-1.2436
 20
18.7182
 30
0.0
 10
-1.2436
 20
18.7182
 30
0.0
 10
-1.2436
 20
18.7182
 30
0.0
 10
-1.2436
 20
18.7182
 30
0.0
 10
-1.5224
 20
18.7182
 30
0.0
 10
-1.5224
 20
18.7182
 30
0.0
 10
-1.5224
 20
18.7182
 30
0.0
 10
-1.5224
 20
18.7182
 30
0.0
 10
-1.5224
 20
19.7876
 30
0.0
 10
-1.5224
 20
19.7876
 30
0.0
 10
-1.5224
 20
19.7876
 30
0.0
 10
-1.5224
 20
19.912
 30
0.0
 10
-1.5452
 20
20.0051
 30
0.0
 10
-1.5907
 20
20.067
 30
0.0
 10
-1.5907
 20
20.067
 30
0.0
 10
-1.6362
 20
20.129
 30
0.0
 10
-1.7103
 20
20.1602
 30
0.0
 10
-1.814
 20
20.1602
 30
0.0
 10
-1.814
 20
20.1602
 30
0.0
 10
-1.8923
 20
20.1602
 30
0.0
 10
-1.9648
 20
20.1395
 30
0.0
 10
-2.0315
 20
20.0977
 30
0.0
 10
-2.0315
 20
20.0977
 30
0.0
 10
-2.0982
 20
20.0565
 30
0.0
 10
-2.1469
 20
19.9961
 30
0.0
 10
-2.1765
 20
19.9168
 30
0.0
 10
-2.1765
 20
19.9168
 30
0.0
 10
-2.2067
 20
19.8369
 30
0.0
 10
-2.2215
 20
19.722
 30
0.0
 10
-2.2215
 20
19.5723
 30
0.0
 10
-2.2215
 20
19.5723
 30
0.0
 10
-2.2215
 20
19.5723
 30
0.0
 10
-2.2215
 20
18.7182
 30
0.0
 10
-2.2215
 20
18.7182
 30
0.0
 10
-2.2215
 20
18.7182
 30
0.0
 10
-2.2215
 20
18.7182
 30
0.0
 10
-2.5003
 20
18.7182
 30
0.0
 10
-2.5003
 20
18.7182
 30
0.0
  0
SPLINE
  5
57
330
1F
100
AcDbEntity
  8
VRSTVA_1
 62
   250
100
AcDbSpline
210
0.0
220
0.0
230
1.0
 70
    11
 71
     3
 72
   112
 73
   108
 74
     0
 42
0.0000000001
 43
0.0000000001
 40
0.0
 40
0.0
 40
0.0
 40
0.0
 40
0.0357142857142857
 40
0.0357142857142857
 40
0.0357142857142857
 40
0.0357142857142857
 40
0.0714285714285714
 40
0.0714285714285714
 40
0.0714285714285714
 40
0.0714285714285714
 40
0.1071428571428571
 40
0.1071428571428571
 40
0.1071428571428571
 40
0.1071428571428571
 40
0.1428571428571428
 40
0.1428571428571428
 40
0.1428571428571428
 40
0.1428571428571428
 40
0.1785714285714286
 40
0.1785714285714286
 40
0.1785714285714286
 40
0.1785714285714286
 40
0.2142857142857143
 40
0.2142857142857143
 40
0.2142857142857143
 40
0.2142857142857143
 40
0.25
 40
0.25
 40
0.25
 40
0.25
 40
0.2857142857142857
 40
0.2857142857142857
 40
0.2857142857142857
 40
0.2857142857142857
 40
0.3214285714285715
 40
0.3214285714285715
 40
0.3214285714285715
 40
0.3214285714285715
 40
0.3571428571428572
 40
0.3571428571428572
 40
0.3571428571428572
 40
0.3571428571428572
 40
0.3928571428571428
 40
0.3928571428571428
 40
0.3928571428571428
 40
0.3928571428571428
 40
0.4285714285714285
 40
0.4285714285714285
 40
0.4285714285714285
 40
0.4285714285714285
 40
0.4642857142857143
 40
0.4642857142857143
 40
0.4642857142857143
 40
0.4642857142857143
 40
0.5
 40
0.5
 40
0.5
 40
0.5
 40
0.5357142857142857
 40
0.5357142857142857
 40
0.5357142857142857
 40
0.5357142857142857
 40
0.5714285714285714
 40
0.5714285714285714
 40
0.5714285714285714
 40
0.5714285714285714
 40
0.6071428571428571
 40
0.6071428571428571
 40
0.6071428571428571
 40
0.6071428571428571
 40
0.6428571428571429
 40
0.6428571428571429
 40
0.6428571428571429
 40
0.6428571428571429
 40
0.6785714285714286
 40
0.6785714285714286
 40
0.6785714285714286
 40
0.6785714285714286
 40
0.7142857142857143
 40
0.7142857142857143
 40
0.7142857142857143
 40
0.7142857142857143
 40
0.75
 40
0.75
 40
0.75
 40
0.75
 40
0.7857142857142857
 40
0.7857142857142857
 40
0.7857142857142857
 40
0.7857142857142857
 40
0.8214285714285714
 40
0.8214285714285714
 40
0.8214285714285714
 40
0.8214285714285714
 40
0.8571428571428571
 40
0.8571428571428571
 40
0.8571428571428571
 40
0.8571428571428571
 40
0.8928571428571429
 40
0.8928571428571429
 40
0.8928571428571429
 40
0.8928571428571429
 40
0.9285714285714286
 40
0.9285714285714286
 40
0.9285714285714286
 40
0.9285714285714286
 40
1.0
 40
1.0
 40
1.0
 40
1.0
 10
1.2187
 20
18.9214
 30
0.0
 10
1.1149
 20
18.8336
 30
0.0
 10
1.0155
 20
18.7716
 30
0.0
 10
0.9202
 20
18.7351
 30
0.0
 10
0.9202
 20
18.7351
 30
0.0
 10
0.8244
 20
18.6991
 30
0.0
 10
0.7218
 20
18.6812
 30
0.0
 10
0.6122
 20
18.6812
 30
0.0
 10
0.6122
 20
18.6812
 30
0.0
 10
0.4313
 20
18.6812
 30
0.0
 10
0.2926
 20
18.7251
 30
0.0
 10
0.1953
 20
18.8135
 30
0.0
 10
0.1953
 20
18.8135
 30
0.0
 10
0.0984
 20
18.9018
 30
0.0
 10
0.0497
 20
19.0151
 30
0.0
 10
0.0497
 20
19.1521
 30
0.0
 10
0.0497
 20
19.1521
 30
0.0
 10
0.0497
 20
19.2331
 30
0.0
 10
0.0677
 20
19.3066
 30
0.0
 10
0.1048
 20
19.3733
 30
0.0
 10
0.1048
 20
19.3733
 30
0.0
 10
0.1413
 20
19.44
 30
0.0
 10
0.1894
 20
19.4934
 30
0.0
 10
0.2487
 20
19.5336
 30
0.0
 10
0.2487
 20
19.5336
 30
0.0
 10
0.3085
 20
19.5739
 30
0.0
 10
0.3752
 20
19.6046
 30
0.0
 10
0.4498
 20
19.6252
 30
0.0
 10
0.4498
 20
19.6252
 30
0.0
 10
0.5043
 20
19.6395
 30
0.0
 10
0.5868
 20
19.6538
 30
0.0
 10
0.6974
 20
19.667
 30
0.0
 10
0.6974
 20
19.667
 30
0.0
 10
0.9229
 20
19.694
 30
0.0
 10
1.089
 20
19.7257
 30
0.0
 10
1.1954
 20
19.7633
 30
0.0
 10
1.1954
 20
19.7633
 30
0.0
 10
1.1964
 20
19.8014
 30
0.0
 10
1.197
 20
19.8257
 30
0.0
 10
1.197
 20
19.8358
 30
0.0
 10
1.197
 20
19.8358
 30
0.0
 10
1.197
 20
19.9496
 30
0.0
 10
1.1705
 20
20.03
 30
0.0
 10
1.1176
 20
20.076
 30
0.0
 10
1.1176
 20
20.076
 30
0.0
 10
1.0467
 20
20.1395
 30
0.0
 10
0.9403
 20
20.1708
 30
0.0
 10
0.8001
 20
20.1708
 30
0.0
 10
0.8001
 20
20.1708
 30
0.0
 10
0.6689
 20
20.1708
 30
0.0
 10
0.572
 20
20.148
 30
0.0
 10
0.509
 20
20.102
 30
0.0
 10
0.509
 20
20.102
 30
0.0
 10
0.4466
 20
20.0559
 30
0.0
 10
0.4006
 20
19.9744
 30
0.0
 10
0.3704
 20
19.8575
 30
0.0
 10
0.3704
 20
19.8575
 30
0.0
 10
0.3704
 20
19.8575
 30
0.0
 10
0.0979
 20
19.8951
 30
0.0
 10
0.0979
 20
19.8951
 30
0.0
 10
0.0979
 20
19.8951
 30
0.0
 10
0.1228
 20
20.0115
 30
0.0
 10
0.1635
 20
20.1062
 30
0.0
 10
0.2201
 20
20.1776
 30
0.0
 10
0.2201
 20
20.1776
 30
0.0
 10
0.2767
 20
20.2496
 30
0.0
 10
0.3593
 20
20.3052
 30
0.0
 10
0.4667
 20
20.3438
 30
0.0
 10
0.4667
 20
20.3438
 30
0.0
 10
0.5741
 20
20.3824
 30
0.0
 10
0.6985
 20
20.402
 30
0.0
 10
0.8403
 20
20.402
 30
0.0
 10
0.8403
 20
20.402
 30
0.0
 10
0.9811
 20
20.402
 30
0.0
 10
1.0948
 20
20.3851
 30
0.0
 10
1.1827
 20
20.3523
 30
0.0
 10
1.1827
 20
20.3523
 30
0.0
 10
1.2705
 20
20.3189
 30
0.0
 10
1.3351
 20
20.2777
 30
0.0
 10
1.3769
 20
20.2274
 30
0.0
 10
1.3769
 20
20.2274
 30
0.0
 10
1.4182
 20
20.1771
 30
0.0
 10
1.4467
 20
20.1141
 30
0.0
 10
1.4637
 20
20.0374
 30
0.0
 10
1.4637
 20
20.0374
 30
0.0
 10
1.4727
 20
19.9898
 30
0.0
 10
1.4774
 20
19.9041
 30
0.0
 10
1.4774
 20
19.7802
 30
0.0
 10
1.4774
 20
19.7802
 30
0.0
 10
1.4774
 20
19.7802
 30
0.0
 10
1.4774
 20
19.4082
 30
0.0
 10
1.4774
 20
19.4082
 30
0.0
 10
1.4774
 20
19.4082
 30
0.0
 10
1.4774
 20
19.1484
 30
0.0
 10
1.4832
 20
18.9844
 30
0.0
 10
1.4954
 20
18.9161
 30
0.0
 10
1.4954
 20
18.9161
 30
0.0
 10
1.5071
 20
18.8473
 30
0.0
 10
1.5309
 20
18.7812
 30
0.0
 10
1.5658
 20
18.7182
 30
0.0
 10
1.5658
 20
18.7182
 30
0.0
 10
1.5658
 20
18.7182
 30
0.0
 10
1.2742
 20
18.7182
 30
0.0
 10
1.2742
 20
18.7182
 30
0.0
 10
1.2742
 20
18.7182
 30
0.0
 10
1.2456
 20
18.7759
 30
0.0
 10
1.2266
 20
18.8436
 30
0.0
 10
1.2187
 20
18.9214
 30
0.0
  0
SPLINE
  5
58
330
1F
100
AcDbEntity
  8
VRSTVA_1
 62
   250
100
AcDbSpline
210
0.0
220
0.0
230
1.0
 70
    11
 71
     3
 72
    44
 73
    40
 74
     0
 42
0.0000000001
 43
0.0000000001
 40
0.0
 40
0.0
 40
0.0
 40
0.0
 40
0.0909090909090909
 40
0.0909090909090909
 40
0.0909090909090909
 40
0.0909090909090909
 40
0.1818181818181818
 40
0.1818181818181818
 40
0.1818181818181818
 40
0.1818181818181818
 40
0.2727272727272727
 40
0.2727272727272727
 40
0.2727272727272727
 40
0.2727272727272727
 40
0.3636363636363636
 40
0.3636363636363636
 40
0.3636363636363636
 40
0.3636363636363636
 40
0.4545454545454545
 40
0.4545454545454545
 40
0.4545454545454545
 40
0.4545454545454545
 40
0.5454545454545454
 40
0.5454545454545454
 40
0.5454545454545454
 40
0.5454545454545454
 40
0.6363636363636364
 40
0.6363636363636364
 40
0.6363636363636364
 40
0.6363636363636364
 40
0.7272727272727273
 40
0.7272727272727273
 40
0.7272727272727273
 40
0.7272727272727273
 40
0.8181818181818182
 40
0.8181818181818182
 40
0.8181818181818182
 40
0.8181818181818182
 40
1.0
 40
1.0
 40
1.0
 40
1.0
 10
1.1954
 20
19.5448
 30
0.0
 10
1.0938
 20
19.503
 30
0.0
 10
0.9419
 20
19.468
 30
0.0
 10
0.7398
 20
19.4389
 30
0.0
 10
0.7398
 20
19.4389
 30
0.0
 10
0.6249
 20
19.4225
 30
0.0
 10
0.5434
 20
19.404
 30
0.0
 10
0.4963
 20
19.3834
 30
0.0
 10
0.4963
 20
19.3834
 30
0.0
 10
0.4487
 20
19.3627
 30
0.0
 10
0.4117
 20
19.3326
 30
0.0
 10
0.3863
 20
19.2923
 30
0.0
 10
0.3863
 20
19.2923
 30
0.0
 10
0.3604
 20
19.2527
 30
0.0
 10
0.3471
 20
19.2087
 30
0.0
 10
0.3471
 20
19.1601
 30
0.0
 10
0.3471
 20
19.1601
 30
0.0
 10
0.3471
 20
19.0854
 30
0.0
 10
0.3757
 20
19.0235
 30
0.0
 10
0.4318
 20
18.9738
 30
0.0
 10
0.4318
 20
18.9738
 30
0.0
 10
0.4879
 20
18.9246
 30
0.0
 10
0.5704
 20
18.8997
 30
0.0
 10
0.6789
 20
18.8997
 30
0.0
 10
0.6789
 20
18.8997
 30
0.0
 10
0.7863
 20
18.8997
 30
0.0
 10
0.8821
 20
18.923
 30
0.0
 10
0.9657
 20
18.9701
 30
0.0
 10
0.9657
 20
18.9701
 30
0.0
 10
1.0493
 20
19.0172
 30
0.0
 10
1.1112
 20
19.0817
 30
0.0
 10
1.1504
 20
19.1632
 30
0.0
 10
1.1504
 20
19.1632
 30
0.0
 10
1.1806
 20
19.2262
 30
0.0
 10
1.1954
 20
19.3193
 30
0.0
 10
1.1954
 20
19.4421
 30
0.0
 10
1.1954
 20
19.4421
 30
0.0
 10
1.1954
 20
19.4421
 30
0.0
 10
1.1954
 20
19.5448
 30
0.0
 10
1.1954
 20
19.5448
 30
0.0
  0
SPLINE
  5
59
330
1F
100
AcDbEntity
  8
VRSTVA_1
 62
   250
100
AcDbSpline
210
0.0
220
0.0
230
1.0
 70
    11
 71
     3
 72
    64
 73
    60
 74
     0
 42
0.0000000001
 43
0.0000000001
 40
0.0
 40
0.0
 40
0.0
 40
0.0
 40
0.0625
 40
0.0625
 40
0.0625
 40
0.0625
 40
0.125
 40
0.125
 40
0.125
 40
0.125
 40
0.1875
 40
0.1875
 40
0.1875
 40
0.1875
 40
0.25
 40
0.25
 40
0.25
 40
0.25
 40
0.3125
 40
0.3125
 40
0.3125
 40
0.3125
 40
0.375
 40
0.375
 40
0.375
 40
0.375
 40
0.4375
 40
0.4375
 40
0.4375
 40
0.4375
 40
0.5
 40
0.5
 40
0.5
 40
0.5
 40
0.5625
 40
0.5625
 40
0.5625
 40
0.5625
 40
0.625
 40
0.625
 40
0.625
 40
0.625
 40
0.6875
 40
0.6875
 40
0.6875
 40
0.6875
 40
0.75
 40
0.75
 40
0.75
 40
0.75
 40
0.8125
 40
0.8125
 40
0.8125
 40
0.8125
 40
0.875
 40
0.875
 40
0.875
 40
0.875
 40
1.0
 40
1.0
 40
1.0
 40
1.0
 10
1.724
 20
18.7182
 30
0.0
 10
1.724
 20
18.7182
 30
0.0
 10
2.3256
 20
19.5739
 30
0.0
 10
2.3256
 20
19.5739
 30
0.0
 10
2.3256
 20
19.5739
 30
0.0
 10
2.3256
 20
19.5739
 30
0.0
 10
1.769
 20
20.3644
 30
0.0
 10
1.769
 20
20.3644
 30
0.0
 10
1.769
 20
20.3644
 30
0.0
 10
1.769
 20
20.3644
 30
0.0
 10
2.1177
 20
20.3644
 30
0.0
 10
2.1177
 20
20.3644
 30
0.0
 10
2.1177
 20
20.3644
 30
0.0
 10
2.1177
 20
20.3644
 30
0.0
 10
2.3706
 20
19.9787
 30
0.0
 10
2.3706
 20
19.9787
 30
0.0
 10
2.3706
 20
19.9787
 30
0.0
 10
2.4177
 20
19.9051
 30
0.0
 10
2.4564
 20
19.8437
 30
0.0
 10
2.4849
 20
19.794
 30
0.0
 10
2.4849
 20
19.794
 30
0.0
 10
2.5304
 20
19.8623
 30
0.0
 10
2.5722
 20
19.9226
 30
0.0
 10
2.6109
 20
19.9755
 30
0.0
 10
2.6109
 20
19.9755
 30
0.0
 10
2.6109
 20
19.9755
 30
0.0
 10
2.8882
 20
20.3644
 30
0.0
 10
2.8882
 20
20.3644
 30
0.0
 10
2.8882
 20
20.3644
 30
0.0
 10
2.8882
 20
20.3644
 30
0.0
 10
3.2215
 20
20.3644
 30
0.0
 10
3.2215
 20
20.3644
 30
0.0
 10
3.2215
 20
20.3644
 30
0.0
 10
3.2215
 20
20.3644
 30
0.0
 10
2.6527
 20
19.5892
 30
0.0
 10
2.6527
 20
19.5892
 30
0.0
 10
2.6527
 20
19.5892
 30
0.0
 10
2.6527
 20
19.5892
 30
0.0
 10
3.2649
 20
18.7182
 30
0.0
 10
3.2649
 20
18.7182
 30
0.0
 10
3.2649
 20
18.7182
 30
0.0
 10
3.2649
 20
18.7182
 30
0.0
 10
2.9225
 20
18.7182
 30
0.0
 10
2.9225
 20
18.7182
 30
0.0
 10
2.9225
 20
18.7182
 30
0.0
 10
2.9225
 20
18.7182
 30
0.0
 10
2.5844
 20
19.2299
 30
0.0
 10
2.5844
 20
19.2299
 30
0.0
 10
2.5844
 20
19.2299
 30
0.0
 10
2.5844
 20
19.2299
 30
0.0
 10
2.4945
 20
19.368
 30
0.0
 10
2.4945
 20
19.368
 30
0.0
 10
2.4945
 20
19.368
 30
0.0
 10
2.4945
 20
19.368
 30
0.0
 10
2.0621
 20
18.7182
 30
0.0
 10
2.0621
 20
18.7182
 30
0.0
 10
2.0621
 20
18.7182
 30
0.0
 10
2.0621
 20
18.7182
 30
0.0
 10
1.724
 20
18.7182
 30
0.0
 10
1.724
 20
18.7182
 30
0.0
  0
SPLINE
  5
5A
330
1F
100
AcDbEntity
  8
VRSTVA_1
 62
   250
100
AcDbSpline
210
0.0
220
0.0
230
1.0
 70
    11
 71
     3
 72
    92
 73
    88
 74
     0
 42
0.0000000001
 43
0.0000000001
 40
0.0
 40
0.0
 40
0.0
 40
0.0
 40
0.0434782608695652
 40
0.0434782608695652
 40
0.0434782608695652
 40
0.0434782608695652
 40
0.0869565217391304
 40
0.0869565217391304
 40
0.0869565217391304
 40
0.0869565217391304
 40
0.1304347826086956
 40
0.1304347826086956
 40
0.1304347826086956
 40
0.1304347826086956
 40
0.1739130434782609
 40
0.1739130434782609
 40
0.1739130434782609
 40
0.1739130434782609
 40
0.2173913043478261
 40
0.2173913043478261
 40
0.2173913043478261
 40
0.2173913043478261
 40
0.2608695652173913
 40
0.2608695652173913
 40
0.2608695652173913
 40
0.2608695652173913
 40
0.3043478260869565
 40
0.3043478260869565
 40
0.3043478260869565
 40
0.3043478260869565
 40
0.3478260869565217
 40
0.3478260869565217
 40
0.3478260869565217
 40
0.3478260869565217
 40
0.391304347826087
 40
0.391304347826087
 40
0.391304347826087
 40
0.391304347826087
 40
0.4347826086956522
 40
0.4347826086956522
 40
0.4347826086956522
 40
0.4347826086956522
 40
0.4782608695652174
 40
0.4782608695652174
 40
0.4782608695652174
 40
0.4782608695652174
 40
0.5217391304347826
 40
0.5217391304347826
 40
0.5217391304347826
 40
0.5217391304347826
 40
0.5652173913043478
 40
0.5652173913043478
 40
0.5652173913043478
 40
0.5652173913043478
 40
0.6086956521739131
 40
0.6086956521739131
 40
0.6086956521739131
 40
0.6086956521739131
 40
0.6521739130434783
 40
0.6521739130434783
 40
0.6521739130434783
 40
0.6521739130434783
 40
0.6956521739130435
 40
0.6956521739130435
 40
0.6956521739130435
 40
0.6956521739130435
 40
0.7391304347826086
 40
0.7391304347826086
 40
0.7391304347826086
 40
0.7391304347826086
 40
0.782608695652174
 40
0.782608695652174
 40
0.782608695652174
 40
0.782608695652174
 40
0.8260869565217391
 40
0.8260869565217391
 40
0.8260869565217391
 40
0.8260869565217391
 40
0.8695652173913043
 40
0.8695652173913043
 40
0.8695652173913043
 40
0.8695652173913043
 40
0.9130434782608695
 40
0.9130434782608695
 40
0.9130434782608695
 40
0.9130434782608695
 40
1.0
 40
1.0
 40
1.0
 40
1.0
 10
5.7689
 20
18.9865
 30
0.0
 10
5.7689
 20
18.9865
 30
0.0
 10
5.7689
 20
18.7182
 30
0.0
 10
5.7689
 20
18.7182
 30
0.0
 10
5.7689
 20
18.7182
 30
0.0
 10
5.7689
 20
18.7182
 30
0.0
 10
4.2666
 20
18.7182
 30
0.0
 10
4.2666
 20
18.7182
 30
0.0
 10
4.2666
 20
18.7182
 30
0.0
 10
4.2645
 20
18.7854
 30
0.0
 10
4.2751
 20
18.85
 30
0.0
 10
4.2989
 20
18.9119
 30
0.0
 10
4.2989
 20
18.9119
 30
0.0
 10
4.337
 20
19.0145
 30
0.0
 10
4.3984
 20
19.1151
 30
0.0
 10
4.4825
 20
19.2146
 30
0.0
 10
4.4825
 20
19.2146
 30
0.0
 10
4.5672
 20
19.3135
 30
0.0
 10
4.6889
 20
19.4283
 30
0.0
 10
4.8476
 20
19.5585
 30
0.0
 10
4.8476
 20
19.5585
 30
0.0
 10
5.0948
 20
19.7612
 30
0.0
 10
5.262
 20
19.9215
 30
0.0
 10
5.3488
 20
20.0401
 30
0.0
 10
5.3488
 20
20.0401
 30
0.0
 10
5.4355
 20
20.1581
 30
0.0
 10
5.4789
 20
20.2702
 30
0.0
 10
5.4789
 20
20.3756
 30
0.0
 10
5.4789
 20
20.3756
 30
0.0
 10
5.4789
 20
20.4861
 30
0.0
 10
5.4392
 20
20.5793
 30
0.0
 10
5.3604
 20
20.6555
 30
0.0
 10
5.3604
 20
20.6555
 30
0.0
 10
5.281
 20
20.7312
 30
0.0
 10
5.1778
 20
20.7693
 30
0.0
 10
5.0508
 20
20.7693
 30
0.0
 10
5.0508
 20
20.7693
 30
0.0
 10
4.9164
 20
20.7693
 30
0.0
 10
4.809
 20
20.729
 30
0.0
 10
4.7286
 20
20.6481
 30
0.0
 10
4.7286
 20
20.6481
 30
0.0
 10
4.6476
 20
20.5676
 30
0.0
 10
4.6069
 20
20.456
 30
0.0
 10
4.6058
 20
20.3136
 30
0.0
 10
4.6058
 20
20.3136
 30
0.0
 10
4.6058
 20
20.3136
 30
0.0
 10
4.319
 20
20.3427
 30
0.0
 10
4.319
 20
20.3427
 30
0.0
 10
4.319
 20
20.3427
 30
0.0
 10
4.3386
 20
20.5571
 30
0.0
 10
4.4127
 20
20.72
 30
0.0
 10
4.5407
 20
20.8322
 30
0.0
 10
4.5407
 20
20.8322
 30
0.0
 10
4.6688
 20
20.9444
 30
0.0
 10
4.8413
 20
21.0005
 30
0.0
 10
5.0572
 20
21.0005
 30
0.0
 10
5.0572
 20
21.0005
 30
0.0
 10
5.2752
 20
21.0005
 30
0.0
 10
5.4477
 20
20.9396
 30
0.0
 10
5.5747
 20
20.819
 30
0.0
 10
5.5747
 20
20.819
 30
0.0
 10
5.7022
 20
20.6978
 30
0.0
 10
5.7657
 20
20.5481
 30
0.0
 10
5.7657
 20
20.3692
 30
0.0
 10
5.7657
 20
20.3692
 30
0.0
 10
5.7657
 20
20.2782
 30
0.0
 10
5.7472
 20
20.1888
 30
0.0
 10
5.7096
 20
20.1009
 30
0.0
 10
5.7096
 20
20.1009
 30
0.0
 10
5.6726
 20
20.0131
 30
0.0
 10
5.6107
 20
19.9205
 30
0.0
 10
5.5244
 20
19.8236
 30
0.0
 10
5.5244
 20
19.8236
 30
0.0
 10
5.4382
 20
19.7263
 30
0.0
 10
5.2948
 20
19.5929
 30
0.0
 10
5.0942
 20
19.4236
 30
0.0
 10
5.0942
 20
19.4236
 30
0.0
 10
4.927
 20
19.2828
 30
0.0
 10
4.8196
 20
19.1876
 30
0.0
 10
4.772
 20
19.1373
 30
0.0
 10
4.772
 20
19.1373
 30
0.0
 10
4.7243
 20
19.0876
 30
0.0
 10
4.6852
 20
19.0373
 30
0.0
 10
4.654
 20
18.9865
 30
0.0
 10
4.654
 20
18.9865
 30
0.0
 10
4.654
 20
18.9865
 30
0.0
 10
5.7689
 20
18.9865
 30
0.0
 10
5.7689
 20
18.9865
 30
0.0
  0
SPLINE
  5
5B
330
1F
100
AcDbEntity
  8
VRSTVA_1
 62
   250
100
AcDbSpline
210
0.0
220
0.0
230
1.0
 70
    11
 71
     3
 72
    92
 73
    88
 74
     0
 42
0.0000000001
 43
0.0000000001
 40
0.0
 40
0.0
 40
0.0
 40
0.0
 40
0.0434782608695652
 40
0.0434782608695652
 40
0.0434782608695652
 40
0.0434782608695652
 40
0.0869565217391304
 40
0.0869565217391304
 40
0.0869565217391304
 40
0.0869565217391304
 40
0.1304347826086956
 40
0.1304347826086956
 40
0.1304347826086956
 40
0.1304347826086956
 40
0.1739130434782609
 40
0.1739130434782609
 40
0.1739130434782609
 40
0.1739130434782609
 40
0.2173913043478261
 40
0.2173913043478261
 40
0.2173913043478261
 40
0.2173913043478261
 40
0.2608695652173913
 40
0.2608695652173913
 40
0.2608695652173913
 40
0.2608695652173913
 40
0.3043478260869565
 40
0.3043478260869565
 40
0.3043478260869565
 40
0.3043478260869565
 40
0.3478260869565217
 40
0.3478260869565217
 40
0.3478260869565217
 40
0.3478260869565217
 40
0.391304347826087
 40
0.391304347826087
 40
0.391304347826087
 40
0.391304347826087
 40
0.4347826086956522
 40
0.4347826086956522
 40
0.4347826086956522
 40
0.4347826086956522
 40
0.4782608695652174
 40
0.4782608695652174
 40
0.4782608695652174
 40
0.4782608695652174
 40
0.5217391304347826
 40
0.5217391304347826
 40
0.5217391304347826
 40
0.5217391304347826
 40
0.5652173913043478
 40
0.5652173913043478
 40
0.5652173913043478
 40
0.5652173913043478
 40
0.6086956521739131
 40
0.6086956521739131
 40
0.6086956521739131
 40
0.6086956521739131
 40
0.6521739130434783
 40
0.6521739130434783
 40
0.6521739130434783
 40
0.6521739130434783
 40
0.6956521739130435
 40
0.6956521739130435
 40
0.6956521739130435
 40
0.6956521739130435
 40
0.7391304347826086
 40
0.7391304347826086
 40
0.7391304347826086
 40
0.7391304347826086
 40
0.782608695652174
 40
0.782608695652174
 40
0.782608695652174
 40
0.782608695652174
 40
0.8260869565217391
 40
0.8260869565217391
 40
0.8260869565217391
 40
0.8260869565217391
 40
0.8695652173913043
 40
0.8695652173913043
 40
0.8695652173913043
 40
0.8695652173913043
 40
0.9130434782608695
 40
0.9130434782608695
 40
0.9130434782608695
 40
0.9130434782608695
 40
1.0
 40
1.0
 40
1.0
 40
1.0
 10
6.0679
 20
19.3135
 30
0.0
 10
6.0679
 20
19.3135
 30
0.0
 10
6.361
 20
19.3384
 30
0.0
 10
6.361
 20
19.3384
 30
0.0
 10
6.361
 20
19.3384
 30
0.0
 10
6.3827
 20
19.1955
 30
0.0
 10
6.433
 20
19.0886
 30
0.0
 10
6.5118
 20
19.0167
 30
0.0
 10
6.5118
 20
19.0167
 30
0.0
 10
6.5912
 20
18.9447
 30
0.0
 10
6.6865
 20
18.9087
 30
0.0
 10
6.7981
 20
18.9087
 30
0.0
 10
6.7981
 20
18.9087
 30
0.0
 10
6.9325
 20
18.9087
 30
0.0
 10
7.0463
 20
18.9595
 30
0.0
 10
7.1389
 20
19.0606
 30
0.0
 10
7.1389
 20
19.0606
 30
0.0
 10
7.232
 20
19.1622
 30
0.0
 10
7.2786
 20
19.2966
 30
0.0
 10
7.2786
 20
19.4638
 30
0.0
 10
7.2786
 20
19.4638
 30
0.0
 10
7.2786
 20
19.6231
 30
0.0
 10
7.2341
 20
19.7485
 30
0.0
 10
7.1447
 20
19.8406
 30
0.0
 10
7.1447
 20
19.8406
 30
0.0
 10
7.0553
 20
19.9326
 30
0.0
 10
6.9383
 20
19.9787
 30
0.0
 10
6.7934
 20
19.9787
 30
0.0
 10
6.7934
 20
19.9787
 30
0.0
 10
6.7034
 20
19.9787
 30
0.0
 10
6.6224
 20
19.958
 30
0.0
 10
6.5499
 20
19.9173
 30
0.0
 10
6.5499
 20
19.9173
 30
0.0
 10
6.4774
 20
19.8765
 30
0.0
 10
6.4208
 20
19.8236
 30
0.0
 10
6.3795
 20
19.7585
 30
0.0
 10
6.3795
 20
19.7585
 30
0.0
 10
6.3795
 20
19.7585
 30
0.0
 10
6.1176
 20
19.7924
 30
0.0
 10
6.1176
 20
19.7924
 30
0.0
 10
6.1176
 20
19.7924
 30
0.0
 10
6.1176
 20
19.7924
 30
0.0
 10
6.3377
 20
20.9598
 30
0.0
 10
6.3377
 20
20.9598
 30
0.0
 10
6.3377
 20
20.9598
 30
0.0
 10
6.3377
 20
20.9598
 30
0.0
 10
7.468
 20
20.9598
 30
0.0
 10
7.468
 20
20.9598
 30
0.0
 10
7.468
 20
20.9598
 30
0.0
 10
7.468
 20
20.9598
 30
0.0
 10
7.468
 20
20.6931
 30
0.0
 10
7.468
 20
20.6931
 30
0.0
 10
7.468
 20
20.6931
 30
0.0
 10
7.468
 20
20.6931
 30
0.0
 10
6.561
 20
20.6931
 30
0.0
 10
6.561
 20
20.6931
 30
0.0
 10
6.561
 20
20.6931
 30
0.0
 10
6.561
 20
20.6931
 30
0.0
 10
6.4383
 20
20.0824
 30
0.0
 10
6.4383
 20
20.0824
 30
0.0
 10
6.4383
 20
20.0824
 30
0.0
 10
6.5748
 20
20.1776
 30
0.0
 10
6.7182
 20
20.2253
 30
0.0
 10
6.868
 20
20.2253
 30
0.0
 10
6.868
 20
20.2253
 30
0.0
 10
7.0664
 20
20.2253
 30
0.0
 10
7.2336
 20
20.1565
 30
0.0
 10
7.3701
 20
20.0189
 30
0.0
 10
7.3701
 20
20.0189
 30
0.0
 10
7.5067
 20
19.8813
 30
0.0
 10
7.5749
 20
19.7046
 30
0.0
 10
7.5749
 20
19.4887
 30
0.0
 10
7.5749
 20
19.4887
 30
0.0
 10
7.5749
 20
19.2828
 30
0.0
 10
7.5146
 20
19.105
 30
0.0
 10
7.395
 20
18.9553
 30
0.0
 10
7.395
 20
18.9553
 30
0.0
 10
7.249
 20
18.7716
 30
0.0
 10
7.05
 20
18.6796
 30
0.0
 10
6.7981
 20
18.6796
 30
0.0
 10
6.7981
 20
18.6796
 30
0.0
 10
6.5912
 20
18.6796
 30
0.0
 10
6.4224
 20
18.7373
 30
0.0
 10
6.2917
 20
18.8531
 30
0.0
 10
6.2917
 20
18.8531
 30
0.0
 10
6.161
 20
18.969
 30
0.0
 10
6.0864
 20
19.1225
 30
0.0
 10
6.0679
 20
19.3135
 30
0.0
  0
SPLINE
  5
5C
330
1F
100
AcDbEntity
  8
VRSTVA_1
 62
   250
100
AcDbSpline
210
0.0
220
0.0
230
1.0
 70
    11
 71
     3
 72
    52
 73
    48
 74
     0
 42
0.0000000001
 43
0.0000000001
 40
0.0
 40
0.0
 40
0.0
 40
0.0
 40
0.0769230769230769
 40
0.0769230769230769
 40
0.0769230769230769
 40
0.0769230769230769
 40
0.1538461538461539
 40
0.1538461538461539
 40
0.1538461538461539
 40
0.1538461538461539
 40
0.2307692307692308
 40
0.2307692307692308
 40
0.2307692307692308
 40
0.2307692307692308
 40
0.3076923076923077
 40
0.3076923076923077
 40
0.3076923076923077
 40
0.3076923076923077
 40
0.3846153846153846
 40
0.3846153846153846
 40
0.3846153846153846
 40
0.3846153846153846
 40
0.4615384615384616
 40
0.4615384615384616
 40
0.4615384615384616
 40
0.4615384615384616
 40
0.5384615384615384
 40
0.5384615384615384
 40
0.5384615384615384
 40
0.5384615384615384
 40
0.6153846153846154
 40
0.6153846153846154
 40
0.6153846153846154
 40
0.6153846153846154
 40
0.6923076923076923
 40
0.6923076923076923
 40
0.6923076923076923
 40
0.6923076923076923
 40
0.7692307692307693
 40
0.7692307692307693
 40
0.7692307692307693
 40
0.7692307692307693
 40
0.8461538461538461
 40
0.8461538461538461
 40
0.8461538461538461
 40
0.8461538461538461
 40
1.0
 40
1.0
 40
1.0
 40
1.0
 10
7.8337
 20
19.839
 30
0.0
 10
7.8337
 20
20.1078
 30
0.0
 10
7.8612
 20
20.3242
 30
0.0
 10
7.9167
 20
20.4877
 30
0.0
 10
7.9167
 20
20.4877
 30
0.0
 10
7.9718
 20
20.6518
 30
0.0
 10
8.0543
 20
20.7782
 30
0.0
 10
8.1633
 20
20.8671
 30
0.0
 10
8.1633
 20
20.8671
 30
0.0
 10
8.2723
 20
20.956
 30
0.0
 10
8.4094
 20
21.0005
 30
0.0
 10
8.5745
 20
21.0005
 30
0.0
 10
8.5745
 20
21.0005
 30
0.0
 10
8.6967
 20
21.0005
 30
0.0
 10
8.8036
 20
20.9756
 30
0.0
 10
8.8957
 20
20.9264
 30
0.0
 10
8.8957
 20
20.9264
 30
0.0
 10
8.9878
 20
20.8777
 30
0.0
 10
9.0634
 20
20.8068
 30
0.0
 10
9.1238
 20
20.7142
 30
0.0
 10
9.1238
 20
20.7142
 30
0.0
 10
9.1836
 20
20.6216
 30
0.0
 10
9.2307
 20
20.5089
 30
0.0
 10
9.2645
 20
20.3761
 30
0.0
 10
9.2645
 20
20.3761
 30
0.0
 10
9.2989
 20
20.2433
 30
0.0
 10
9.3159
 20
20.0644
 30
0.0
 10
9.3159
 20
19.839
 30
0.0
 10
9.3159
 20
19.839
 30
0.0
 10
9.3159
 20
19.5723
 30
0.0
 10
9.2883
 20
19.3574
 30
0.0
 10
9.2338
 20
19.1934
 30
0.0
 10
9.2338
 20
19.1934
 30
0.0
 10
9.1788
 20
19.0294
 30
0.0
 10
9.0968
 20
18.9029
 30
0.0
 10
8.9878
 20
18.8135
 30
0.0
 10
8.9878
 20
18.8135
 30
0.0
 10
8.8788
 20
18.724
 30
0.0
 10
8.7412
 20
18.6796
 30
0.0
 10
8.5745
 20
18.6796
 30
0.0
 10
8.5745
 20
18.6796
 30
0.0
 10
8.3554
 20
18.6796
 30
0.0
 10
8.1834
 20
18.7579
 30
0.0
 10
8.0586
 20
18.9151
 30
0.0
 10
8.0586
 20
18.9151
 30
0.0
 10
7.9088
 20
19.104
 30
0.0
 10
7.8337
 20
19.4125
 30
0.0
 10
7.8337
 20
19.839
 30
0.0
  0
SPLINE
  5
5D
330
1F
100
AcDbEntity
  8
VRSTVA_1
 62
   250
100
AcDbSpline
210
0.0
220
0.0
230
1.0
 70
    11
 71
     3
 72
    36
 73
    32
 74
     0
 42
0.0000000001
 43
0.0000000001
 40
0.0
 40
0.0
 40
0.0
 40
0.0
 40
0.1111111111111111
 40
0.1111111111111111
 40
0.1111111111111111
 40
0.1111111111111111
 40
0.2222222222222222
 40
0.2222222222222222
 40
0.2222222222222222
 40
0.2222222222222222
 40
0.3333333333333333
 40
0.3333333333333333
 40
0.3333333333333333
 40
0.3333333333333333
 40
0.4444444444444444
 40
0.4444444444444444
 40
0.4444444444444444
 40
0.4444444444444444
 40
0.5555555555555556
 40
0.5555555555555556
 40
0.5555555555555556
 40
0.5555555555555556
 40
0.6666666666666666
 40
0.6666666666666666
 40
0.6666666666666666
 40
0.6666666666666666
 40
0.7777777777777778
 40
0.7777777777777778
 40
0.7777777777777778
 40
0.7777777777777778
 40
1.0
 40
1.0
 40
1.0
 40
1.0
 10
8.1205
 20
19.839
 30
0.0
 10
8.1205
 20
19.4659
 30
0.0
 10
8.1644
 20
19.2177
 30
0.0
 10
8.2517
 20
19.0939
 30
0.0
 10
8.2517
 20
19.0939
 30
0.0
 10
8.339
 20
18.9706
 30
0.0
 10
8.4464
 20
18.9087
 30
0.0
 10
8.5745
 20
18.9087
 30
0.0
 10
8.5745
 20
18.9087
 30
0.0
 10
8.7031
 20
18.9087
 30
0.0
 10
8.8105
 20
18.9711
 30
0.0
 10
8.8978
 20
19.095
 30
0.0
 10
8.8978
 20
19.095
 30
0.0
 10
8.9851
 20
19.2188
 30
0.0
 10
9.0291
 20
19.467
 30
0.0
 10
9.0291
 20
19.839
 30
0.0
 10
9.0291
 20
19.839
 30
0.0
 10
9.0291
 20
20.2131
 30
0.0
 10
8.9851
 20
20.4618
 30
0.0
 10
8.8978
 20
20.5846
 30
0.0
 10
8.8978
 20
20.5846
 30
0.0
 10
8.8105
 20
20.7079
 30
0.0
 10
8.702
 20
20.7693
 30
0.0
 10
8.5719
 20
20.7693
 30
0.0
 10
8.5719
 20
20.7693
 30
0.0
 10
8.4433
 20
20.7693
 30
0.0
 10
8.3411
 20
20.7147
 30
0.0
 10
8.2644
 20
20.6063
 30
0.0
 10
8.2644
 20
20.6063
 30
0.0
 10
8.1686
 20
20.4682
 30
0.0
 10
8.1205
 20
20.212
 30
0.0
 10
8.1205
 20
19.839
 30
0.0
  0
SPLINE
  5
5E
330
1F
100
AcDbEntity
  8
VRSTVA_1
 62
   250
100
AcDbSpline
210
0.0
220
0.0
230
1.0
 70
    11
 71
     3
 72
    84
 73
    80
 74
     0
 42
0.0000000001
 43
0.0000000001
 40
0.0
 40
0.0
 40
0.0
 40
0.0
 40
0.0476190476190476
 40
0.0476190476190476
 40
0.0476190476190476
 40
0.0476190476190476
 40
0.0952380952380952
 40
0.0952380952380952
 40
0.0952380952380952
 40
0.0952380952380952
 40
0.1428571428571428
 40
0.1428571428571428
 40
0.1428571428571428
 40
0.1428571428571428
 40
0.1904761904761905
 40
0.1904761904761905
 40
0.1904761904761905
 40
0.1904761904761905
 40
0.2380952380952381
 40
0.2380952380952381
 40
0.2380952380952381
 40
0.2380952380952381
 40
0.2857142857142857
 40
0.2857142857142857
 40
0.2857142857142857
 40
0.2857142857142857
 40
0.3333333333333333
 40
0.3333333333333333
 40
0.3333333333333333
 40
0.3333333333333333
 40
0.3809523809523809
 40
0.3809523809523809
 40
0.3809523809523809
 40
0.3809523809523809
 40
0.4285714285714285
 40
0.4285714285714285
 40
0.4285714285714285
 40
0.4285714285714285
 40
0.4761904761904762
 40
0.4761904761904762
 40
0.4761904761904762
 40
0.4761904761904762
 40
0.5238095238095238
 40
0.5238095238095238
 40
0.5238095238095238
 40
0.5238095238095238
 40
0.5714285714285714
 40
0.5714285714285714
 40
0.5714285714285714
 40
0.5714285714285714
 40
0.6190476190476191
 40
0.6190476190476191
 40
0.6190476190476191
 40
0.6190476190476191
 40
0.6666666666666666
 40
0.6666666666666666
 40
0.6666666666666666
 40
0.6666666666666666
 40
0.7142857142857143
 40
0.7142857142857143
 40
0.7142857142857143
 40
0.7142857142857143
 40
0.7619047619047619
 40
0.7619047619047619
 40
0.7619047619047619
 40
0.7619047619047619
 40
0.8095238095238095
 40
0.8095238095238095
 40
0.8095238095238095
 40
0.8095238095238095
 40
0.8571428571428571
 40
0.8571428571428571
 40
0.8571428571428571
 40
0.8571428571428571
 40
0.9047619047619048
 40
0.9047619047619048
 40
0.9047619047619048
 40
0.9047619047619048
 40
1.0
 40
1.0
 40
1.0
 40
1.0
 10
11.1825
 20
8.5746
 30
0.0
 10
11.1825
 20
8.5746
 30
0.0
 10
10.8912
 20
8.8353
 30
0.0
 10
10.8912
 20
8.8353
 30
0.0
 10
10.8912
 20
8.8353
 30
0.0
 10
10.8912
 20
8.8353
 30
0.0
 10
11.0215
 20
8.9886
 30
0.0
 10
11.0215
 20
8.9886
 30
0.0
 10
11.0215
 20
8.9886
 30
0.0
 10
11.0215
 20
8.9886
 30
0.0
 10
11.3281
 20
8.7158
 30
0.0
 10
11.3281
 20
8.7158
 30
0.0
 10
11.3281
 20
8.7158
 30
0.0
 10
11.4605
 20
8.8045
 30
0.0
 10
11.5765
 20
8.8642
 30
0.0
 10
11.6754
 20
8.8953
 30
0.0
 10
11.6754
 20
8.8953
 30
0.0
 10
11.8057
 20
8.9365
 30
0.0
 10
11.9518
 20
8.9569
 30
0.0
 10
12.1126
 20
8.9568
 30
0.0
 10
12.1126
 20
8.9568
 30
0.0
 10
12.3455
 20
8.9565
 30
0.0
 10
12.5528
 20
8.9092
 30
0.0
 10
12.7342
 20
8.8148
 30
0.0
 10
12.7342
 20
8.8148
 30
0.0
 10
12.9162
 20
8.7204
 30
0.0
 10
13.0536
 20
8.5886
 30
0.0
 10
13.1466
 20
8.4186
 30
0.0
 10
13.1466
 20
8.4186
 30
0.0
 10
13.2391
 20
8.2481
 30
0.0
 10
13.2854
 20
8.0677
 30
0.0
 10
13.2852
 20
7.8767
 30
0.0
 10
13.2852
 20
7.8767
 30
0.0
 10
13.285
 20
7.7338
 30
0.0
 10
13.2648
 20
7.6047
 30
0.0
 10
13.2245
 20
7.4888
 30
0.0
 10
13.2245
 20
7.4888
 30
0.0
 10
13.1932
 20
7.4
 30
0.0
 10
13.1338
 20
7.2963
 30
0.0
 10
13.0459
 20
7.1773
 30
0.0
 10
13.0459
 20
7.1773
 30
0.0
 10
13.0459
 20
7.1773
 30
0.0
 10
13.3371
 20
6.9166
 30
0.0
 10
13.3371
 20
6.9166
 30
0.0
 10
13.3371
 20
6.9166
 30
0.0
 10
13.3371
 20
6.9166
 30
0.0
 10
13.2068
 20
6.7633
 30
0.0
 10
13.2068
 20
6.7633
 30
0.0
 10
13.2068
 20
6.7633
 30
0.0
 10
13.2068
 20
6.7633
 30
0.0
 10
12.9017
 20
7.0367
 30
0.0
 10
12.9017
 20
7.0367
 30
0.0
 10
12.9017
 20
7.0367
 30
0.0
 10
12.7477
 20
6.9352
 30
0.0
 10
12.6158
 20
6.8676
 30
0.0
 10
12.5068
 20
6.8339
 30
0.0
 10
12.5068
 20
6.8339
 30
0.0
 10
12.3978
 20
6.8002
 30
0.0
 10
12.2665
 20
6.7828
 30
0.0
 10
12.1136
 20
6.783
 30
0.0
 10
12.1136
 20
6.783
 30
0.0
 10
11.8802
 20
6.7832
 30
0.0
 10
11.6723
 20
6.83
 30
0.0
 10
11.4898
 20
6.9233
 30
0.0
 10
11.4898
 20
6.9233
 30
0.0
 10
11.3074
 20
7.0166
 30
0.0
 10
11.1693
 20
7.1469
 30
0.0
 10
11.0754
 20
7.3153
 30
0.0
 10
11.0754
 20
7.3153
 30
0.0
 10
10.9819
 20
7.4831
 30
0.0
 10
10.935
 20
7.67
 30
0.0
 10
10.9352
 20
7.8759
 30
0.0
 10
10.9352
 20
7.8759
 30
0.0
 10
10.9353
 20
8.0145
 30
0.0
 10
10.9534
 20
8.1357
 30
0.0
 10
10.9906
 20
8.2393
 30
0.0
 10
10.9906
 20
8.2393
 30
0.0
 10
11.0272
 20
8.343
 30
0.0
 10
11.0914
 20
8.4551
 30
0.0
 10
11.1825
 20
8.5746
 30
0.0
  0
SPLINE
  5
5F
330
1F
100
AcDbEntity
  8
VRSTVA_1
 62
   250
100
AcDbSpline
210
0.0
220
0.0
230
1.0
 70
    11
 71
     3
 72
    32
 73
    28
 74
     0
 42
0.0000000001
 43
0.0000000001
 40
0.0
 40
0.0
 40
0.0
 40
0.0
 40
0.125
 40
0.125
 40
0.125
 40
0.125
 40
0.25
 40
0.25
 40
0.25
 40
0.25
 40
0.375
 40
0.375
 40
0.375
 40
0.375
 40
0.5
 40
0.5
 40
0.5
 40
0.5
 40
0.625
 40
0.625
 40
0.625
 40
0.625
 40
0.75
 40
0.75
 40
0.75
 40
0.75
 40
1.0
 40
1.0
 40
1.0
 40
1.0
 10
11.3913
 20
8.3887
 30
0.0
 10
11.315
 20
8.2914
 30
0.0
 10
11.2625
 20
8.2062
 30
0.0
 10
11.2344
 20
8.1338
 30
0.0
 10
11.2344
 20
8.1338
 30
0.0
 10
11.2069
 20
8.0608
 30
0.0
 10
11.1925
 20
7.9751
 30
0.0
 10
11.1924
 20
7.8772
 30
0.0
 10
11.1924
 20
7.8772
 30
0.0
 10
11.1921
 20
7.6507
 30
0.0
 10
11.2687
 20
7.4638
 30
0.0
 10
11.422
 20
7.3155
 30
0.0
 10
11.422
 20
7.3155
 30
0.0
 10
11.5753
 20
7.1677
 30
0.0
 10
11.8043
 20
7.0934
 30
0.0
 10
12.1097
 20
7.0931
 30
0.0
 10
12.1097
 20
7.0931
 30
0.0
 10
12.2293
 20
7.0929
 30
0.0
 10
12.3356
 20
7.1044
 30
0.0
 10
12.4288
 20
7.1271
 30
0.0
 10
12.4288
 20
7.1271
 30
0.0
 10
12.4981
 20
7.1435
 30
0.0
 10
12.5834
 20
7.1778
 30
0.0
 10
12.6845
 20
7.2306
 30
0.0
 10
12.6845
 20
7.2306
 30
0.0
 10
12.6845
 20
7.2306
 30
0.0
 10
11.3913
 20
8.3887
 30
0.0
 10
11.3913
 20
8.3887
 30
0.0
  0
SPLINE
  5
60
330
1F
100
AcDbEntity
  8
VRSTVA_1
 62
   250
100
AcDbSpline
210
0.0
220
0.0
230
1.0
 70
    11
 71
     3
 72
    28
 73
    24
 74
     0
 42
0.0000000001
 43
0.0000000001
 40
0.0
 40
0.0
 40
0.0
 40
0.0
 40
0.1428571428571428
 40
0.1428571428571428
 40
0.1428571428571428
 40
0.1428571428571428
 40
0.2857142857142857
 40
0.2857142857142857
 40
0.2857142857142857
 40
0.2857142857142857
 40
0.4285714285714285
 40
0.4285714285714285
 40
0.4285714285714285
 40
0.4285714285714285
 40
0.5714285714285714
 40
0.5714285714285714
 40
0.5714285714285714
 40
0.5714285714285714
 40
0.7142857142857143
 40
0.7142857142857143
 40
0.7142857142857143
 40
0.7142857142857143
 40
1.0
 40
1.0
 40
1.0
 40
1.0
 10
11.5512
 20
8.5155
 30
0.0
 10
11.5512
 20
8.5155
 30
0.0
 10
12.8397
 20
7.3622
 30
0.0
 10
12.8397
 20
7.3622
 30
0.0
 10
12.8397
 20
7.3622
 30
0.0
 10
12.9048
 20
7.4416
 30
0.0
 10
12.9504
 20
7.515
 30
0.0
 10
12.9764
 20
7.5822
 30
0.0
 10
12.9764
 20
7.5822
 30
0.0
 10
13.0109
 20
7.67
 30
0.0
 10
13.028
 20
7.7652
 30
0.0
 10
13.0281
 20
7.8673
 30
0.0
 10
13.0281
 20
7.8673
 30
0.0
 10
13.0283
 20
8.0928
 30
0.0
 10
12.9491
 20
8.2786
 30
0.0
 10
12.7899
 20
8.4259
 30
0.0
 10
12.7899
 20
8.4259
 30
0.0
 10
12.6308
 20
8.5726
 30
0.0
 10
12.4076
 20
8.6464
 30
0.0
 10
12.1203
 20
8.6467
 30
0.0
 10
12.1203
 20
8.6467
 30
0.0
 10
11.9054
 20
8.6469
 30
0.0
 10
11.7154
 20
8.6032
 30
0.0
 10
11.5512
 20
8.5155
 30
0.0
  0
SPLINE
  5
61
330
1F
100
AcDbEntity
  8
VRSTVA_1
 62
   250
100
AcDbSpline
210
0.0
220
0.0
230
1.0
 70
    11
 71
     3
 72
    48
 73
    44
 74
     0
 42
0.0000000001
 43
0.0000000001
 40
0.0
 40
0.0
 40
0.0
 40
0.0
 40
0.0833333333333333
 40
0.0833333333333333
 40
0.0833333333333333
 40
0.0833333333333333
 40
0.1666666666666667
 40
0.1666666666666667
 40
0.1666666666666667
 40
0.1666666666666667
 40
0.25
 40
0.25
 40
0.25
 40
0.25
 40
0.3333333333333333
 40
0.3333333333333333
 40
0.3333333333333333
 40
0.3333333333333333
 40
0.4166666666666667
 40
0.4166666666666667
 40
0.4166666666666667
 40
0.4166666666666667
 40
0.5
 40
0.5
 40
0.5
 40
0.5
 40
0.5833333333333334
 40
0.5833333333333334
 40
0.5833333333333334
 40
0.5833333333333334
 40
0.6666666666666666
 40
0.6666666666666666
 40
0.6666666666666666
 40
0.6666666666666666
 40
0.75
 40
0.75
 40
0.75
 40
0.75
 40
0.8333333333333334
 40
0.8333333333333334
 40
0.8333333333333334
 40
0.8333333333333334
 40
1.0
 40
1.0
 40
1.0
 40
1.0
 10
13.2489
 20
10.1304
 30
0.0
 10
13.2489
 20
10.1304
 30
0.0
 10
12.7049
 20
10.131
 30
0.0
 10
12.7049
 20
10.131
 30
0.0
 10
12.7049
 20
10.131
 30
0.0
 10
12.7049
 20
10.131
 30
0.0
 10
12.7039
 20
9.1451
 30
0.0
 10
12.7039
 20
9.1451
 30
0.0
 10
12.7039
 20
9.1451
 30
0.0
 10
12.7039
 20
9.1451
 30
0.0
 10
12.4478
 20
9.1453
 30
0.0
 10
12.4478
 20
9.1453
 30
0.0
 10
12.4478
 20
9.1453
 30
0.0
 10
12.4478
 20
9.1453
 30
0.0
 10
10.9762
 20
10.184
 30
0.0
 10
10.9762
 20
10.184
 30
0.0
 10
10.9762
 20
10.184
 30
0.0
 10
10.9762
 20
10.184
 30
0.0
 10
10.9764
 20
10.4121
 30
0.0
 10
10.9764
 20
10.4121
 30
0.0
 10
10.9764
 20
10.4121
 30
0.0
 10
10.9764
 20
10.4121
 30
0.0
 10
12.4491
 20
10.4106
 30
0.0
 10
12.4491
 20
10.4106
 30
0.0
 10
12.4491
 20
10.4106
 30
0.0
 10
12.4491
 20
10.4106
 30
0.0
 10
12.4494
 20
10.7175
 30
0.0
 10
12.4494
 20
10.7175
 30
0.0
 10
12.4494
 20
10.7175
 30
0.0
 10
12.4494
 20
10.7175
 30
0.0
 10
12.7055
 20
10.7173
 30
0.0
 10
12.7055
 20
10.7173
 30
0.0
 10
12.7055
 20
10.7173
 30
0.0
 10
12.7055
 20
10.7173
 30
0.0
 10
12.7052
 20
10.4104
 30
0.0
 10
12.7052
 20
10.4104
 30
0.0
 10
12.7052
 20
10.4104
 30
0.0
 10
12.7052
 20
10.4104
 30
0.0
 10
13.2492
 20
10.4098
 30
0.0
 10
13.2492
 20
10.4098
 30
0.0
 10
13.2492
 20
10.4098
 30
0.0
 10
13.2492
 20
10.4098
 30
0.0
 10
13.2489
 20
10.1304
 30
0.0
 10
13.2489
 20
10.1304
 30
0.0
  0
SPLINE
  5
62
330
1F
100
AcDbEntity
  8
VRSTVA_1
 62
   250
100
AcDbSpline
210
0.0
220
0.0
230
1.0
 70
    11
 71
     3
 72
    16
 73
    12
 74
     0
 42
0.0000000001
 43
0.0000000001
 40
0.0
 40
0.0
 40
0.0
 40
0.0
 40
0.25
 40
0.25
 40
0.25
 40
0.25
 40
0.5
 40
0.5
 40
0.5
 40
0.5
 40
1.0
 40
1.0
 40
1.0
 40
1.0
 10
12.4488
 20
10.1312
 30
0.0
 10
12.4488
 20
10.1312
 30
0.0
 10
11.4243
 20
10.1323
 30
0.0
 10
11.4243
 20
10.1323
 30
0.0
 10
11.4243
 20
10.1323
 30
0.0
 10
11.4243
 20
10.1323
 30
0.0
 10
12.4481
 20
9.42
 30
0.0
 10
12.4481
 20
9.42
 30
0.0
 10
12.4481
 20
9.42
 30
0.0
 10
12.4481
 20
9.42
 30
0.0
 10
12.4488
 20
10.1312
 30
0.0
 10
12.4488
 20
10.1312
 30
0.0
  0
SPLINE
  5
63
330
1F
100
AcDbEntity
  8
VRSTVA_1
 62
   250
100
AcDbSpline
210
0.0
220
0.0
230
1.0
 70
    11
 71
     3
 72
    52
 73
    48
 74
     0
 42
0.0000000001
 43
0.0000000001
 40
0.0
 40
0.0
 40
0.0
 40
0.0
 40
0.0769230769230769
 40
0.0769230769230769
 40
0.0769230769230769
 40
0.0769230769230769
 40
0.1538461538461539
 40
0.1538461538461539
 40
0.1538461538461539
 40
0.1538461538461539
 40
0.2307692307692308
 40
0.2307692307692308
 40
0.2307692307692308
 40
0.2307692307692308
 40
0.3076923076923077
 40
0.3076923076923077
 40
0.3076923076923077
 40
0.3076923076923077
 40
0.3846153846153846
 40
0.3846153846153846
 40
0.3846153846153846
 40
0.3846153846153846
 40
0.4615384615384616
 40
0.4615384615384616
 40
0.4615384615384616
 40
0.4615384615384616
 40
0.5384615384615384
 40
0.5384615384615384
 40
0.5384615384615384
 40
0.5384615384615384
 40
0.6153846153846154
 40
0.6153846153846154
 40
0.6153846153846154
 40
0.6153846153846154
 40
0.6923076923076923
 40
0.6923076923076923
 40
0.6923076923076923
 40
0.6923076923076923
 40
0.7692307692307693
 40
0.7692307692307693
 40
0.7692307692307693
 40
0.7692307692307693
 40
0.8461538461538461
 40
0.8461538461538461
 40
0.8461538461538461
 40
0.8461538461538461
 40
1.0
 40
1.0
 40
1.0
 40
1.0
 10
12.129
 20
11.0031
 30
0.0
 10
11.8602
 20
11.0033
 30
0.0
 10
11.6438
 20
11.0311
 30
0.0
 10
11.4804
 20
11.0867
 30
0.0
 10
11.4804
 20
11.0867
 30
0.0
 10
11.3163
 20
11.142
 30
0.0
 10
11.19
 20
11.2246
 30
0.0
 10
11.1012
 20
11.3337
 30
0.0
 10
11.1012
 20
11.3337
 30
0.0
 10
11.0125
 20
11.4428
 30
0.0
 10
10.9681
 20
11.58
 30
0.0
 10
10.9683
 20
11.7451
 30
0.0
 10
10.9683
 20
11.7451
 30
0.0
 10
10.9684
 20
11.8673
 30
0.0
 10
10.9934
 20
11.9741
 30
0.0
 10
11.0427
 20
12.0662
 30
0.0
 10
11.0427
 20
12.0662
 30
0.0
 10
11.0915
 20
12.1582
 30
0.0
 10
11.1625
 20
12.2338
 30
0.0
 10
11.2551
 20
12.2941
 30
0.0
 10
11.2551
 20
12.2941
 30
0.0
 10
11.3478
 20
12.3538
 30
0.0
 10
11.4605
 20
12.4007
 30
0.0
 10
11.5934
 20
12.4344
 30
0.0
 10
11.5934
 20
12.4344
 30
0.0
 10
11.7262
 20
12.4687
 30
0.0
 10
11.9051
 20
12.4855
 30
0.0
 10
12.1305
 20
12.4853
 30
0.0
 10
12.1305
 20
12.4853
 30
0.0
 10
12.3972
 20
12.485
 30
0.0
 10
12.6121
 20
12.4572
 30
0.0
 10
12.776
 20
12.4025
 30
0.0
 10
12.776
 20
12.4025
 30
0.0
 10
12.94
 20
12.3473
 30
0.0
 10
13.0664
 20
12.2652
 30
0.0
 10
13.1557
 20
12.1561
 30
0.0
 10
13.1557
 20
12.1561
 30
0.0
 10
13.2451
 20
12.047
 30
0.0
 10
13.2893
 20
11.9094
 30
0.0
 10
13.2892
 20
11.7427
 30
0.0
 10
13.2892
 20
11.7427
 30
0.0
 10
13.2889
 20
11.5236
 30
0.0
 10
13.2105
 20
11.3516
 30
0.0
 10
13.0531
 20
11.227
 30
0.0
 10
13.0531
 20
11.227
 30
0.0
 10
12.8641
 20
11.0774
 30
0.0
 10
12.5555
 20
11.0026
 30
0.0
 10
12.129
 20
11.0031
 30
0.0
  0
SPLINE
  5
64
330
1F
100
AcDbEntity
  8
VRSTVA_1
 62
   250
100
AcDbSpline
210
0.0
220
0.0
230
1.0
 70
    11
 71
     3
 72
    36
 73
    32
 74
     0
 42
0.0000000001
 43
0.0000000001
 40
0.0
 40
0.0
 40
0.0
 40
0.0
 40
0.1111111111111111
 40
0.1111111111111111
 40
0.1111111111111111
 40
0.1111111111111111
 40
0.2222222222222222
 40
0.2222222222222222
 40
0.2222222222222222
 40
0.2222222222222222
 40
0.3333333333333333
 40
0.3333333333333333
 40
0.3333333333333333
 40
0.3333333333333333
 40
0.4444444444444444
 40
0.4444444444444444
 40
0.4444444444444444
 40
0.4444444444444444
 40
0.5555555555555556
 40
0.5555555555555556
 40
0.5555555555555556
 40
0.5555555555555556
 40
0.6666666666666666
 40
0.6666666666666666
 40
0.6666666666666666
 40
0.6666666666666666
 40
0.7777777777777778
 40
0.7777777777777778
 40
0.7777777777777778
 40
0.7777777777777778
 40
1.0
 40
1.0
 40
1.0
 40
1.0
 10
12.1293
 20
11.2899
 30
0.0
 10
12.5024
 20
11.2895
 30
0.0
 10
12.7506
 20
11.3331
 30
0.0
 10
12.8745
 20
11.4203
 30
0.0
 10
12.8745
 20
11.4203
 30
0.0
 10
12.9979
 20
11.5075
 30
0.0
 10
13.0599
 20
11.6148
 30
0.0
 10
13.0601
 20
11.7429
 30
0.0
 10
13.0601
 20
11.7429
 30
0.0
 10
13.0602
 20
11.8715
 30
0.0
 10
12.9979
 20
11.979
 30
0.0
 10
12.8741
 20
12.0664
 30
0.0
 10
12.8741
 20
12.0664
 30
0.0
 10
12.7504
 20
12.1538
 30
0.0
 10
12.5022
 20
12.1981
 30
0.0
 10
12.1302
 20
12.1985
 30
0.0
 10
12.1302
 20
12.1985
 30
0.0
 10
11.7561
 20
12.1988
 30
0.0
 10
11.5074
 20
12.1551
 30
0.0
 10
11.3845
 20
12.0679
 30
0.0
 10
11.3845
 20
12.0679
 30
0.0
 10
11.2611
 20
11.9807
 30
0.0
 10
11.1996
 20
11.8723
 30
0.0
 10
11.1995
 20
11.7422
 30
0.0
 10
11.1995
 20
11.7422
 30
0.0
 10
11.1993
 20
11.6136
 30
0.0
 10
11.2538
 20
11.5114
 30
0.0
 10
11.3622
 20
11.4345
 30
0.0
 10
11.3622
 20
11.4345
 30
0.0
 10
11.5002
 20
11.3386
 30
0.0
 10
11.7563
 20
11.2902
 30
0.0
 10
12.1293
 20
11.2899
 30
0.0
  0
SPLINE
  5
65
330
1F
100
AcDbEntity
  8
VRSTVA_1
 62
   250
100
AcDbSpline
210
0.0
220
0.0
230
1.0
 70
    11
 71
     3
 72
    80
 73
    76
 74
     0
 42
0.0000000001
 43
0.0000000001
 40
0.0
 40
0.0
 40
0.0
 40
0.0
 40
0.05
 40
0.05
 40
0.05
 40
0.05
 40
0.1
 40
0.1
 40
0.1
 40
0.1
 40
0.15
 40
0.15
 40
0.15
 40
0.15
 40
0.2
 40
0.2
 40
0.2
 40
0.2
 40
0.25
 40
0.25
 40
0.25
 40
0.25
 40
0.3
 40
0.3
 40
0.3
 40
0.3
 40
0.35
 40
0.35
 40
0.35
 40
0.35
 40
0.4
 40
0.4
 40
0.4
 40
0.4
 40
0.45
 40
0.45
 40
0.45
 40
0.45
 40
0.5
 40
0.5
 40
0.5
 40
0.5
 40
0.55
 40
0.55
 40
0.55
 40
0.55
 40
0.6
 40
0.6
 40
0.6
 40
0.6
 40
0.65
 40
0.65
 40
0.65
 40
0.65
 40
0.7
 40
0.7
 40
0.7
 40
0.7
 40
0.75
 40
0.75
 40
0.75
 40
0.75
 40
0.8
 40
0.8
 40
0.8
 40
0.8
 40
0.85
 40
0.85
 40
0.85
 40
0.85
 40
0.9
 40
0.9
 40
0.9
 40
0.9
 40
1.0
 40
1.0
 40
1.0
 40
1.0
 10
-44.4496
 20
8.5553
 30
0.0
 10
-44.4496
 20
8.5553
 30
0.0
 10
-44.4282
 20
8.2779
 30
0.0
 10
-44.4282
 20
8.2779
 30
0.0
 10
-44.4282
 20
8.2779
 30
0.0
 10
-44.5377
 20
8.2532
 30
0.0
 10
-44.6176
 20
8.2183
 30
0.0
 10
-44.6669
 20
8.1729
 30
0.0
 10
-44.6669
 20
8.1729
 30
0.0
 10
-44.7469
 20
8.0973
 30
0.0
 10
-44.7866
 20
8.0042
 30
0.0
 10
-44.7867
 20
7.8936
 30
0.0
 10
-44.7867
 20
7.8936
 30
0.0
 10
-44.7868
 20
7.8047
 30
0.0
 10
-44.7621
 20
7.7269
 30
0.0
 10
-44.7124
 20
7.6596
 30
0.0
 10
-44.7124
 20
7.6596
 30
0.0
 10
-44.6485
 20
7.5717
 30
0.0
 10
-44.5549
 20
7.5023
 30
0.0
 10
-44.4322
 20
7.4514
 30
0.0
 10
-44.4322
 20
7.4514
 30
0.0
 10
-44.3095
 20
7.401
 30
0.0
 10
-44.1343
 20
7.3743
 30
0.0
 10
-43.9068
 20
7.372
 30
0.0
 10
-43.9068
 20
7.372
 30
0.0
 10
-44.0088
 20
7.4393
 30
0.0
 10
-44.0849
 20
7.5214
 30
0.0
 10
-44.1346
 20
7.6188
 30
0.0
 10
-44.1346
 20
7.6188
 30
0.0
 10
-44.1837
 20
7.7157
 30
0.0
 10
-44.2085
 20
7.8178
 30
0.0
 10
-44.2084
 20
7.9242
 30
0.0
 10
-44.2084
 20
7.9242
 30
0.0
 10
-44.2082
 20
8.1105
 30
0.0
 10
-44.1398
 20
8.2686
 30
0.0
 10
-44.0025
 20
8.3992
 30
0.0
 10
-44.0025
 20
8.3992
 30
0.0
 10
-43.8654
 20
8.5298
 30
0.0
 10
-43.6885
 20
8.5952
 30
0.0
 10
-43.4716
 20
8.595
 30
0.0
 10
-43.4716
 20
8.595
 30
0.0
 10
-43.3287
 20
8.5948
 30
0.0
 10
-43.1965
 20
8.5635
 30
0.0
 10
-43.0738
 20
8.502
 30
0.0
 10
-43.0738
 20
8.502
 30
0.0
 10
-42.9516
 20
8.4404
 30
0.0
 10
-42.8575
 20
8.3557
 30
0.0
 10
-42.7925
 20
8.2482
 30
0.0
 10
-42.7925
 20
8.2482
 30
0.0
 10
-42.7275
 20
8.1407
 30
0.0
 10
-42.6954
 20
8.019
 30
0.0
 10
-42.6956
 20
7.8825
 30
0.0
 10
-42.6956
 20
7.8825
 30
0.0
 10
-42.6958
 20
7.6496
 30
0.0
 10
-42.7812
 20
7.4602
 30
0.0
 10
-42.9527
 20
7.3138
 30
0.0
 10
-42.9527
 20
7.3138
 30
0.0
 10
-43.1238
 20
7.1669
 30
0.0
 10
-43.406
 20
7.0942
 30
0.0
 10
-43.7986
 20
7.0946
 30
0.0
 10
-43.7986
 20
7.0946
 30
0.0
 10
-44.2378
 20
7.095
 30
0.0
 10
-44.5568
 20
7.1764
 30
0.0
 10
-44.7561
 20
7.339
 30
0.0
 10
-44.7561
 20
7.339
 30
0.0
 10
-44.9296
 20
7.4805
 30
0.0
 10
-45.0167
 20
7.6711
 30
0.0
 10
-45.0164
 20
7.9113
 30
0.0
 10
-45.0164
 20
7.9113
 30
0.0
 10
-45.0162
 20
8.0897
 30
0.0
 10
-44.9658
 20
8.2361
 30
0.0
 10
-44.8652
 20
8.3503
 30
0.0
 10
-44.8652
 20
8.3503
 30
0.0
 10
-44.7651
 20
8.4645
 30
0.0
 10
-44.6263
 20
8.5327
 30
0.0
 10
-44.4496
 20
8.5553
 30
0.0
  0
SPLINE
  5
66
330
1F
100
AcDbEntity
  8
VRSTVA_1
 62
   250
100
AcDbSpline
210
0.0
220
0.0
230
1.0
 70
    11
 71
     3
 72
    40
 73
    36
 74
     0
 42
0.0000000001
 43
0.0000000001
 40
0.0
 40
0.0
 40
0.0
 40
0.0
 40
0.1
 40
0.1
 40
0.1
 40
0.1
 40
0.2
 40
0.2
 40
0.2
 40
0.2
 40
0.3
 40
0.3
 40
0.3
 40
0.3
 40
0.4
 40
0.4
 40
0.4
 40
0.4
 40
0.5
 40
0.5
 40
0.5
 40
0.5
 40
0.6
 40
0.6
 40
0.6
 40
0.6
 40
0.7
 40
0.7
 40
0.7
 40
0.7
 40
0.8
 40
0.8
 40
0.8
 40
0.8
 40
1.0
 40
1.0
 40
1.0
 40
1.0
 10
-43.4712
 20
7.415
 30
0.0
 10
-43.3749
 20
7.4149
 30
0.0
 10
-43.2828
 20
7.4354
 30
0.0
 10
-43.195
 20
7.4761
 30
0.0
 10
-43.195
 20
7.4761
 30
0.0
 10
-43.107
 20
7.5167
 30
0.0
 10
-43.0404
 20
7.5737
 30
0.0
 10
-42.9942
 20
7.6468
 30
0.0
 10
-42.9942
 20
7.6468
 30
0.0
 10
-42.9481
 20
7.7202
 30
0.0
 10
-42.9248
 20
7.7975
 30
0.0
 10
-42.9247
 20
7.8779
 30
0.0
 10
-42.9247
 20
7.8779
 30
0.0
 10
-42.9245
 20
7.9959
 30
0.0
 10
-42.972
 20
8.097
 30
0.0
 10
-43.0673
 20
8.1818
 30
0.0
 10
-43.0673
 20
8.1818
 30
0.0
 10
-43.1624
 20
8.2665
 30
0.0
 10
-43.2914
 20
8.3091
 30
0.0
 10
-43.4544
 20
8.3092
 30
0.0
 10
-43.4544
 20
8.3092
 30
0.0
 10
-43.6116
 20
8.3094
 30
0.0
 10
-43.7355
 20
8.2677
 30
0.0
 10
-43.8261
 20
8.1841
 30
0.0
 10
-43.8261
 20
8.1841
 30
0.0
 10
-43.9166
 20
8.1006
 30
0.0
 10
-43.9617
 20
7.9954
 30
0.0
 10
-43.9619
 20
7.8684
 30
0.0
 10
-43.9619
 20
7.8684
 30
0.0
 10
-43.962
 20
7.742
 30
0.0
 10
-43.9171
 20
7.635
 30
0.0
 10
-43.8267
 20
7.547
 30
0.0
 10
-43.8267
 20
7.547
 30
0.0
 10
-43.7363
 20
7.4591
 30
0.0
 10
-43.6178
 20
7.4151
 30
0.0
 10
-43.4712
 20
7.415
 30
0.0
  0
SPLINE
  5
67
330
1F
100
AcDbEntity
  8
VRSTVA_1
 62
   250
100
AcDbSpline
210
0.0
220
0.0
230
1.0
 70
    11
 71
     3
 72
    52
 73
    48
 74
     0
 42
0.0000000001
 43
0.0000000001
 40
0.0
 40
0.0
 40
0.0
 40
0.0
 40
0.0769230769230769
 40
0.0769230769230769
 40
0.0769230769230769
 40
0.0769230769230769
 40
0.1538461538461539
 40
0.1538461538461539
 40
0.1538461538461539
 40
0.1538461538461539
 40
0.2307692307692308
 40
0.2307692307692308
 40
0.2307692307692308
 40
0.2307692307692308
 40
0.3076923076923077
 40
0.3076923076923077
 40
0.3076923076923077
 40
0.3076923076923077
 40
0.3846153846153846
 40
0.3846153846153846
 40
0.3846153846153846
 40
0.3846153846153846
 40
0.4615384615384616
 40
0.4615384615384616
 40
0.4615384615384616
 40
0.4615384615384616
 40
0.5384615384615384
 40
0.5384615384615384
 40
0.5384615384615384
 40
0.5384615384615384
 40
0.6153846153846154
 40
0.6153846153846154
 40
0.6153846153846154
 40
0.6153846153846154
 40
0.6923076923076923
 40
0.6923076923076923
 40
0.6923076923076923
 40
0.6923076923076923
 40
0.7692307692307693
 40
0.7692307692307693
 40
0.7692307692307693
 40
0.7692307692307693
 40
0.8461538461538461
 40
0.8461538461538461
 40
0.8461538461538461
 40
0.8461538461538461
 40
1.0
 40
1.0
 40
1.0
 40
1.0
 10
-43.8539
 20
8.8727
 30
0.0
 10
-44.1227
 20
8.8729
 30
0.0
 10
-44.3391
 20
8.9007
 30
0.0
 10
-44.5026
 20
8.9563
 30
0.0
 10
-44.5026
 20
8.9563
 30
0.0
 10
-44.6666
 20
9.0116
 30
0.0
 10
-44.7929
 20
9.0942
 30
0.0
 10
-44.8817
 20
9.2033
 30
0.0
 10
-44.8817
 20
9.2033
 30
0.0
 10
-44.9705
 20
9.3124
 30
0.0
 10
-45.0148
 20
9.4496
 30
0.0
 10
-45.0147
 20
9.6147
 30
0.0
 10
-45.0147
 20
9.6147
 30
0.0
 10
-45.0145
 20
9.7369
 30
0.0
 10
-44.9895
 20
9.8437
 30
0.0
 10
-44.9402
 20
9.9358
 30
0.0
 10
-44.9402
 20
9.9358
 30
0.0
 10
-44.8914
 20
10.0278
 30
0.0
 10
-44.8205
 20
10.1034
 30
0.0
 10
-44.7278
 20
10.1637
 30
0.0
 10
-44.7278
 20
10.1637
 30
0.0
 10
-44.6351
 20
10.2234
 30
0.0
 10
-44.5224
 20
10.2703
 30
0.0
 10
-44.3896
 20
10.304
 30
0.0
 10
-44.3896
 20
10.304
 30
0.0
 10
-44.2567
 20
10.3383
 30
0.0
 10
-44.0778
 20
10.3551
 30
0.0
 10
-43.8524
 20
10.3549
 30
0.0
 10
-43.8524
 20
10.3549
 30
0.0
 10
-43.5857
 20
10.3546
 30
0.0
 10
-43.3708
 20
10.3268
 30
0.0
 10
-43.2069
 20
10.2721
 30
0.0
 10
-43.2069
 20
10.2721
 30
0.0
 10
-43.043
 20
10.2169
 30
0.0
 10
-42.9165
 20
10.1348
 30
0.0
 10
-42.8273
 20
10.0257
 30
0.0
 10
-42.8273
 20
10.0257
 30
0.0
 10
-42.7379
 20
9.9166
 30
0.0
 10
-42.6936
 20
9.779
 30
0.0
 10
-42.6938
 20
9.6123
 30
0.0
 10
-42.6938
 20
9.6123
 30
0.0
 10
-42.694
 20
9.3932
 30
0.0
 10
-42.7725
 20
9.2212
 30
0.0
 10
-42.9298
 20
9.0966
 30
0.0
 10
-42.9298
 20
9.0966
 30
0.0
 10
-43.1189
 20
8.947
 30
0.0
 10
-43.4274
 20
8.8722
 30
0.0
 10
-43.8539
 20
8.8727
 30
0.0
  0
SPLINE
  5
68
330
1F
100
AcDbEntity
  8
VRSTVA_1
 62
   250
100
AcDbSpline
210
0.0
220
0.0
230
1.0
 70
    11
 71
     3
 72
    36
 73
    32
 74
     0
 42
0.0000000001
 43
0.0000000001
 40
0.0
 40
0.0
 40
0.0
 40
0.0
 40
0.1111111111111111
 40
0.1111111111111111
 40
0.1111111111111111
 40
0.1111111111111111
 40
0.2222222222222222
 40
0.2222222222222222
 40
0.2222222222222222
 40
0.2222222222222222
 40
0.3333333333333333
 40
0.3333333333333333
 40
0.3333333333333333
 40
0.3333333333333333
 40
0.4444444444444444
 40
0.4444444444444444
 40
0.4444444444444444
 40
0.4444444444444444
 40
0.5555555555555556
 40
0.5555555555555556
 40
0.5555555555555556
 40
0.5555555555555556
 40
0.6666666666666666
 40
0.6666666666666666
 40
0.6666666666666666
 40
0.6666666666666666
 40
0.7777777777777778
 40
0.7777777777777778
 40
0.7777777777777778
 40
0.7777777777777778
 40
1.0
 40
1.0
 40
1.0
 40
1.0
 10
-43.8536
 20
9.1595
 30
0.0
 10
-43.4805
 20
9.1591
 30
0.0
 10
-43.2323
 20
9.2027
 30
0.0
 10
-43.1084
 20
9.2899
 30
0.0
 10
-43.1084
 20
9.2899
 30
0.0
 10
-42.985
 20
9.3771
 30
0.0
 10
-42.923
 20
9.4844
 30
0.0
 10
-42.9229
 20
9.6125
 30
0.0
 10
-42.9229
 20
9.6125
 30
0.0
 10
-42.9227
 20
9.7411
 30
0.0
 10
-42.985
 20
9.8486
 30
0.0
 10
-43.1088
 20
9.936
 30
0.0
 10
-43.1088
 20
9.936
 30
0.0
 10
-43.2326
 20
10.0234
 30
0.0
 10
-43.4807
 20
10.0677
 30
0.0
 10
-43.8527
 20
10.0681
 30
0.0
 10
-43.8527
 20
10.0681
 30
0.0
 10
-44.2268
 20
10.0684
 30
0.0
 10
-44.4756
 20
10.0247
 30
0.0
 10
-44.5984
 20
9.9375
 30
0.0
 10
-44.5984
 20
9.9375
 30
0.0
 10
-44.7218
 20
9.8503
 30
0.0
 10
-44.7833
 20
9.7419
 30
0.0
 10
-44.7835
 20
9.6118
 30
0.0
 10
-44.7835
 20
9.6118
 30
0.0
 10
-44.7836
 20
9.4832
 30
0.0
 10
-44.7291
 20
9.381
 30
0.0
 10
-44.6208
 20
9.3041
 30
0.0
 10
-44.6208
 20
9.3041
 30
0.0
 10
-44.4828
 20
9.2082
 30
0.0
 10
-44.2266
 20
9.1598
 30
0.0
 10
-43.8536
 20
9.1595
 30
0.0
  0
SPLINE
  5
69
330
1F
100
AcDbEntity
  8
VRSTVA_1
 62
   250
100
AcDbSpline
210
0.0
220
0.0
230
1.0
 70
    11
 71
     3
 72
    20
 73
    16
 74
     0
 42
0.0000000001
 43
0.0000000001
 40
0.0
 40
0.0
 40
0.0
 40
0.0
 40
0.2
 40
0.2
 40
0.2
 40
0.2
 40
0.4
 40
0.4
 40
0.4
 40
0.4
 40
0.6
 40
0.6
 40
0.6
 40
0.6
 40
1.0
 40
1.0
 40
1.0
 40
1.0
 10
-43.4125
 20
11.4888
 30
0.0
 10
-43.4125
 20
11.4888
 30
0.0
 10
-43.693
 20
11.4891
 30
0.0
 10
-43.693
 20
11.4891
 30
0.0
 10
-43.693
 20
11.4891
 30
0.0
 10
-43.693
 20
11.4891
 30
0.0
 10
-43.6922
 20
12.3469
 30
0.0
 10
-43.6922
 20
12.3469
 30
0.0
 10
-43.6922
 20
12.3469
 30
0.0
 10
-43.6922
 20
12.3469
 30
0.0
 10
-43.4117
 20
12.3466
 30
0.0
 10
-43.4117
 20
12.3466
 30
0.0
 10
-43.4117
 20
12.3466
 30
0.0
 10
-43.4117
 20
12.3466
 30
0.0
 10
-43.4125
 20
11.4888
 30
0.0
 10
-43.4125
 20
11.4888
 30
0.0
  0
SPLINE
  5
6A
330
1F
100
AcDbEntity
  8
VRSTVA_1
 62
   250
100
AcDbSpline
210
0.0
220
0.0
230
1.0
 70
    11
 71
     3
 72
    40
 73
    36
 74
     0
 42
0.0000000001
 43
0.0000000001
 40
0.0
 40
0.0
 40
0.0
 40
0.0
 40
0.1
 40
0.1
 40
0.1
 40
0.1
 40
0.2
 40
0.2
 40
0.2
 40
0.2
 40
0.3
 40
0.3
 40
0.3
 40
0.3
 40
0.4
 40
0.4
 40
0.4
 40
0.4
 40
0.5
 40
0.5
 40
0.5
 40
0.5
 40
0.6
 40
0.6
 40
0.6
 40
0.6
 40
0.7
 40
0.7
 40
0.7
 40
0.7
 40
0.8
 40
0.8
 40
0.8
 40
0.8
 40
1.0
 40
1.0
 40
1.0
 40
1.0
 10
-42.7273
 20
14.5097
 30
0.0
 10
-42.7273
 20
14.5097
 30
0.0
 10
-42.7276
 20
14.2308
 30
0.0
 10
-42.7276
 20
14.2308
 30
0.0
 10
-42.7276
 20
14.2308
 30
0.0
 10
-42.7276
 20
14.2308
 30
0.0
 10
-44.5056
 20
14.2326
 30
0.0
 10
-44.5056
 20
14.2326
 30
0.0
 10
-44.5056
 20
14.2326
 30
0.0
 10
-44.4417
 20
14.1654
 30
0.0
 10
-44.3777
 20
14.0775
 30
0.0
 10
-44.3138
 20
13.9684
 30
0.0
 10
-44.3138
 20
13.9684
 30
0.0
 10
-44.2499
 20
13.8588
 30
0.0
 10
-44.2018
 20
13.7608
 30
0.0
 10
-44.1702
 20
13.674
 30
0.0
 10
-44.1702
 20
13.674
 30
0.0
 10
-44.1702
 20
13.674
 30
0.0
 10
-44.4395
 20
13.6743
 30
0.0
 10
-44.4395
 20
13.6743
 30
0.0
 10
-44.4395
 20
13.6743
 30
0.0
 10
-44.5129
 20
13.8305
 30
0.0
 10
-44.6017
 20
13.9671
 30
0.0
 10
-44.7058
 20
14.0841
 30
0.0
 10
-44.7058
 20
14.0841
 30
0.0
 10
-44.8104
 20
14.2006
 30
0.0
 10
-44.9115
 20
14.2838
 30
0.0
 10
-45.0098
 20
14.3326
 30
0.0
 10
-45.0098
 20
14.3326
 30
0.0
 10
-45.0098
 20
14.3326
 30
0.0
 10
-45.0096
 20
14.512
 30
0.0
 10
-45.0096
 20
14.512
 30
0.0
 10
-45.0096
 20
14.512
 30
0.0
 10
-45.0096
 20
14.512
 30
0.0
 10
-42.7273
 20
14.5097
 30
0.0
 10
-42.7273
 20
14.5097
 30
0.0
  0
SPLINE
  5
6B
330
1F
100
AcDbEntity
  8
VRSTVA_1
 62
   250
100
AcDbSpline
210
0.0
220
0.0
230
1.0
 70
    11
 71
     3
 72
    48
 73
    44
 74
     0
 42
0.0000000001
 43
0.0000000001
 40
0.0
 40
0.0
 40
0.0
 40
0.0
 40
0.0833333333333333
 40
0.0833333333333333
 40
0.0833333333333333
 40
0.0833333333333333
 40
0.1666666666666667
 40
0.1666666666666667
 40
0.1666666666666667
 40
0.1666666666666667
 40
0.25
 40
0.25
 40
0.25
 40
0.25
 40
0.3333333333333333
 40
0.3333333333333333
 40
0.3333333333333333
 40
0.3333333333333333
 40
0.4166666666666667
 40
0.4166666666666667
 40
0.4166666666666667
 40
0.4166666666666667
 40
0.5
 40
0.5
 40
0.5
 40
0.5
 40
0.5833333333333334
 40
0.5833333333333334
 40
0.5833333333333334
 40
0.5833333333333334
 40
0.6666666666666666
 40
0.6666666666666666
 40
0.6666666666666666
 40
0.6666666666666666
 40
0.75
 40
0.75
 40
0.75
 40
0.75
 40
0.8333333333333334
 40
0.8333333333333334
 40
0.8333333333333334
 40
0.8333333333333334
 40
1.0
 40
1.0
 40
1.0
 40
1.0
 10
-44.7015
 20
15.2451
 30
0.0
 10
-44.7015
 20
15.2451
 30
0.0
 10
-44.9697
 20
15.2454
 30
0.0
 10
-44.9697
 20
15.2454
 30
0.0
 10
-44.9697
 20
15.2454
 30
0.0
 10
-44.9697
 20
15.2454
 30
0.0
 10
-44.9682
 20
16.7165
 30
0.0
 10
-44.9682
 20
16.7165
 30
0.0
 10
-44.9682
 20
16.7165
 30
0.0
 10
-44.9682
 20
16.7165
 30
0.0
 10
-44.7513
 20
16.7163
 30
0.0
 10
-44.7513
 20
16.7163
 30
0.0
 10
-44.7513
 20
16.7163
 30
0.0
 10
-44.5974
 20
16.5716
 30
0.0
 10
-44.3928
 20
16.428
 30
0.0
 10
-44.1378
 20
16.2855
 30
0.0
 10
-44.1378
 20
16.2855
 30
0.0
 10
-43.8829
 20
16.1433
 30
0.0
 10
-43.6201
 20
16.033
 30
0.0
 10
-43.3507
 20
15.9554
 30
0.0
 10
-43.3507
 20
15.9554
 30
0.0
 10
-43.1603
 20
15.8991
 30
0.0
 10
-42.9524
 20
15.8635
 30
0.0
 10
-42.726
 20
15.8479
 30
0.0
 10
-42.726
 20
15.8479
 30
0.0
 10
-42.726
 20
15.8479
 30
0.0
 10
-42.7262
 20
15.5611
 30
0.0
 10
-42.7262
 20
15.5611
 30
0.0
 10
-42.7262
 20
15.5611
 30
0.0
 10
-42.9051
 20
15.5645
 30
0.0
 10
-43.121
 20
15.5996
 30
0.0
 10
-43.3743
 20
15.6671
 30
0.0
 10
-43.3743
 20
15.6671
 30
0.0
 10
-43.6273
 20
15.7345
 30
0.0
 10
-43.8716
 20
15.8311
 30
0.0
 10
-44.1064
 20
15.9567
 30
0.0
 10
-44.1064
 20
15.9567
 30
0.0
 10
-44.3412
 20
16.083
 30
0.0
 10
-44.5396
 20
16.2165
 30
0.0
 10
-44.7003
 20
16.3585
 30
0.0
 10
-44.7003
 20
16.3585
 30
0.0
 10
-44.7003
 20
16.3585
 30
0.0
 10
-44.7015
 20
15.2451
 30
0.0
 10
-44.7015
 20
15.2451
 30
0.0
  0
SPLINE
  5
6C
330
1F
100
AcDbEntity
  8
VRSTVA_1
 62
   250
100
AcDbSpline
210
0.0
220
0.0
230
1.0
 70
    11
 71
     3
 72
    52
 73
    48
 74
     0
 42
0.0000000001
 43
0.0000000001
 40
0.0
 40
0.0
 40
0.0
 40
0.0
 40
0.0769230769230769
 40
0.0769230769230769
 40
0.0769230769230769
 40
0.0769230769230769
 40
0.1538461538461539
 40
0.1538461538461539
 40
0.1538461538461539
 40
0.1538461538461539
 40
0.2307692307692308
 40
0.2307692307692308
 40
0.2307692307692308
 40
0.2307692307692308
 40
0.3076923076923077
 40
0.3076923076923077
 40
0.3076923076923077
 40
0.3076923076923077
 40
0.3846153846153846
 40
0.3846153846153846
 40
0.3846153846153846
 40
0.3846153846153846
 40
0.4615384615384616
 40
0.4615384615384616
 40
0.4615384615384616
 40
0.4615384615384616
 40
0.5384615384615384
 40
0.5384615384615384
 40
0.5384615384615384
 40
0.5384615384615384
 40
0.6153846153846154
 40
0.6153846153846154
 40
0.6153846153846154
 40
0.6153846153846154
 40
0.6923076923076923
 40
0.6923076923076923
 40
0.6923076923076923
 40
0.6923076923076923
 40
0.7692307692307693
 40
0.7692307692307693
 40
0.7692307692307693
 40
0.7692307692307693
 40
0.8461538461538461
 40
0.8461538461538461
 40
0.8461538461538461
 40
0.8461538461538461
 40
1.0
 40
1.0
 40
1.0
 40
1.0
 10
-43.8456
 20
16.9916
 30
0.0
 10
-44.1144
 20
16.9918
 30
0.0
 10
-44.3307
 20
17.0196
 30
0.0
 10
-44.4942
 20
17.0752
 30
0.0
 10
-44.4942
 20
17.0752
 30
0.0
 10
-44.6582
 20
17.1305
 30
0.0
 10
-44.7845
 20
17.2131
 30
0.0
 10
-44.8733
 20
17.3222
 30
0.0
 10
-44.8733
 20
17.3222
 30
0.0
 10
-44.9621
 20
17.4313
 30
0.0
 10
-45.0065
 20
17.5684
 30
0.0
 10
-45.0063
 20
17.7335
 30
0.0
 10
-45.0063
 20
17.7335
 30
0.0
 10
-45.0062
 20
17.8557
 30
0.0
 10
-44.9812
 20
17.9626
 30
0.0
 10
-44.9319
 20
18.0547
 30
0.0
 10
-44.9319
 20
18.0547
 30
0.0
 10
-44.8831
 20
18.1467
 30
0.0
 10
-44.8121
 20
18.2222
 30
0.0
 10
-44.7194
 20
18.2826
 30
0.0
 10
-44.7194
 20
18.2826
 30
0.0
 10
-44.6268
 20
18.3423
 30
0.0
 10
-44.514
 20
18.3892
 30
0.0
 10
-44.3812
 20
18.4229
 30
0.0
 10
-44.3812
 20
18.4229
 30
0.0
 10
-44.2484
 20
18.4572
 30
0.0
 10
-44.0694
 20
18.474
 30
0.0
 10
-43.844
 20
18.4737
 30
0.0
 10
-43.844
 20
18.4737
 30
0.0
 10
-43.5773
 20
18.4735
 30
0.0
 10
-43.3625
 20
18.4457
 30
0.0
 10
-43.1985
 20
18.391
 30
0.0
 10
-43.1985
 20
18.391
 30
0.0
 10
-43.0346
 20
18.3358
 30
0.0
 10
-42.9082
 20
18.2537
 30
0.0
 10
-42.8189
 20
18.1446
 30
0.0
 10
-42.8189
 20
18.1446
 30
0.0
 10
-42.7295
 20
18.0355
 30
0.0
 10
-42.6852
 20
17.8979
 30
0.0
 10
-42.6854
 20
17.7312
 30
0.0
 10
-42.6854
 20
17.7312
 30
0.0
 10
-42.6856
 20
17.5121
 30
0.0
 10
-42.7641
 20
17.3401
 30
0.0
 10
-42.9214
 20
17.2155
 30
0.0
 10
-42.9214
 20
17.2155
 30
0.0
 10
-43.1105
 20
17.0659
 30
0.0
 10
-43.4191
 20
16.9911
 30
0.0
 10
-43.8456
 20
16.9916
 30
0.0
  0
SPLINE
  5
6D
330
1F
100
AcDbEntity
  8
VRSTVA_1
 62
   250
100
AcDbSpline
210
0.0
220
0.0
230
1.0
 70
    11
 71
     3
 72
    36
 73
    32
 74
     0
 42
0.0000000001
 43
0.0000000001
 40
0.0
 40
0.0
 40
0.0
 40
0.0
 40
0.1111111111111111
 40
0.1111111111111111
 40
0.1111111111111111
 40
0.1111111111111111
 40
0.2222222222222222
 40
0.2222222222222222
 40
0.2222222222222222
 40
0.2222222222222222
 40
0.3333333333333333
 40
0.3333333333333333
 40
0.3333333333333333
 40
0.3333333333333333
 40
0.4444444444444444
 40
0.4444444444444444
 40
0.4444444444444444
 40
0.4444444444444444
 40
0.5555555555555556
 40
0.5555555555555556
 40
0.5555555555555556
 40
0.5555555555555556
 40
0.6666666666666666
 40
0.6666666666666666
 40
0.6666666666666666
 40
0.6666666666666666
 40
0.7777777777777778
 40
0.7777777777777778
 40
0.7777777777777778
 40
0.7777777777777778
 40
1.0
 40
1.0
 40
1.0
 40
1.0
 10
-43.8453
 20
17.2784
 30
0.0
 10
-43.4722
 20
17.278
 30
0.0
 10
-43.2239
 20
17.3216
 30
0.0
 10
-43.1
 20
17.4088
 30
0.0
 10
-43.1
 20
17.4088
 30
0.0
 10
-42.9767
 20
17.496
 30
0.0
 10
-42.9146
 20
17.6033
 30
0.0
 10
-42.9145
 20
17.7314
 30
0.0
 10
-42.9145
 20
17.7314
 30
0.0
 10
-42.9144
 20
17.86
 30
0.0
 10
-42.9767
 20
17.9675
 30
0.0
 10
-43.1005
 20
18.0549
 30
0.0
 10
-43.1005
 20
18.0549
 30
0.0
 10
-43.2242
 20
18.1423
 30
0.0
 10
-43.4723
 20
18.1866
 30
0.0
 10
-43.8443
 20
18.1869
 30
0.0
 10
-43.8443
 20
18.1869
 30
0.0
 10
-44.2184
 20
18.1873
 30
0.0
 10
-44.4672
 20
18.1436
 30
0.0
 10
-44.5901
 20
18.0564
 30
0.0
 10
-44.5901
 20
18.0564
 30
0.0
 10
-44.7135
 20
17.9692
 30
0.0
 10
-44.775
 20
17.8608
 30
0.0
 10
-44.7751
 20
17.7307
 30
0.0
 10
-44.7751
 20
17.7307
 30
0.0
 10
-44.7752
 20
17.6021
 30
0.0
 10
-44.7207
 20
17.4999
 30
0.0
 10
-44.6124
 20
17.423
 30
0.0
 10
-44.6124
 20
17.423
 30
0.0
 10
-44.4744
 20
17.3271
 30
0.0
 10
-44.2183
 20
17.2787
 30
0.0
 10
-43.8453
 20
17.2784
 30
0.0
  0
SPLINE
  5
6E
330
1F
100
AcDbEntity
  8
VRSTVA_1
 62
   250
100
AcDbSpline
210
0.0
220
0.0
230
1.0
 70
    11
 71
     3
 72
    20
 73
    16
 74
     0
 42
0.0000000001
 43
0.0000000001
 40
0.0
 40
0.0
 40
0.0
 40
0.0
 40
0.2
 40
0.2
 40
0.2
 40
0.2
 40
0.4
 40
0.4
 40
0.4
 40
0.4
 40
0.6
 40
0.6
 40
0.6
 40
0.6
 40
1.0
 40
1.0
 40
1.0
 40
1.0
 10
-22.7294
 20
33.0058
 30
0.0
 10
-22.7294
 20
33.0058
 30
0.0
 10
-25.7287
 20
32.6118
 30
0.0
 10
-25.7287
 20
32.6118
 30
0.0
 10
-25.7287
 20
32.6118
 30
0.0
 10
-25.7287
 20
32.6118
 30
0.0
 10
-25.728
 20
32.4535
 30
0.0
 10
-25.728
 20
32.4535
 30
0.0
 10
-25.728
 20
32.4535
 30
0.0
 10
-25.728
 20
32.4535
 30
0.0
 10
-22.7193
 20
31.9988
 30
0.0
 10
-22.7193
 20
31.9988
 30
0.0
 10
-22.7193
 20
31.9988
 30
0.0
 10
-22.7193
 20
31.9988
 30
0.0
 10
-22.7294
 20
33.0058
 30
0.0
 10
-22.7294
 20
33.0058
 30
0.0
  0
SPLINE
  5
6F
330
1F
100
AcDbEntity
  8
VRSTVA_1
 62
   250
100
AcDbSpline
210
0.0
220
0.0
230
1.0
 70
    11
 71
     3
 72
    20
 73
    16
 74
     0
 42
0.0000000001
 43
0.0000000001
 40
0.0
 40
0.0
 40
0.0
 40
0.0
 40
0.2
 40
0.2
 40
0.2
 40
0.2
 40
0.4
 40
0.4
 40
0.4
 40
0.4
 40
0.6
 40
0.6
 40
0.6
 40
0.6
 40
1.0
 40
1.0
 40
1.0
 40
1.0
 10
-39.4895
 20
32.0805
 30
0.0
 10
-39.4895
 20
32.0805
 30
0.0
 10
-36.4902
 20
32.4744
 30
0.0
 10
-36.4902
 20
32.4744
 30
0.0
 10
-36.4902
 20
32.4744
 30
0.0
 10
-36.4902
 20
32.4744
 30
0.0
 10
-36.4909
 20
32.6327
 30
0.0
 10
-36.4909
 20
32.6327
 30
0.0
 10
-36.4909
 20
32.6327
 30
0.0
 10
-36.4909
 20
32.6327
 30
0.0
 10
-39.4996
 20
33.0874
 30
0.0
 10
-39.4996
 20
33.0874
 30
0.0
 10
-39.4996
 20
33.0874
 30
0.0
 10
-39.4996
 20
33.0874
 30
0.0
 10
-39.4895
 20
32.0805
 30
0.0
 10
-39.4895
 20
32.0805
 30
0.0
  0
SPLINE
  5
70
330
1F
100
AcDbEntity
  8
VRSTVA_1
 62
   250
100
AcDbSpline
210
0.0
220
0.0
230
1.0
 70
    11
 71
     3
 72
    20
 73
    16
 74
     0
 42
0.0000000001
 43
0.0000000001
 40
0.0
 40
0.0
 40
0.0
 40
0.0
 40
0.2
 40
0.2
 40
0.2
 40
0.2
 40
0.4
 40
0.4
 40
0.4
 40
0.4
 40
0.6
 40
0.6
 40
0.6
 40
0.6
 40
1.0
 40
1.0
 40
1.0
 40
1.0
 10
-28.1323
 20
18.3908
 30
0.0
 10
-28.1323
 20
18.3908
 30
0.0
 10
-31.1316
 20
17.9969
 30
0.0
 10
-31.1316
 20
17.9969
 30
0.0
 10
-31.1316
 20
17.9969
 30
0.0
 10
-31.1316
 20
17.9969
 30
0.0
 10
-31.1309
 20
17.8386
 30
0.0
 10
-31.1309
 20
17.8386
 30
0.0
 10
-31.1309
 20
17.8386
 30
0.0
 10
-31.1309
 20
17.8386
 30
0.0
 10
-28.1222
 20
17.3839
 30
0.0
 10
-28.1222
 20
17.3839
 30
0.0
 10
-28.1222
 20
17.3839
 30
0.0
 10
-28.1222
 20
17.3839
 30
0.0
 10
-28.1323
 20
18.3908
 30
0.0
 10
-28.1323
 20
18.3908
 30
0.0
  0
SPLINE
  5
71
330
1F
100
AcDbEntity
  8
VRSTVA_1
 62
   250
100
AcDbSpline
210
0.0
220
0.0
230
1.0
 70
    11
 71
     3
 72
    20
 73
    16
 74
     0
 42
0.0000000001
 43
0.0000000001
 40
0.0
 40
0.0
 40
0.0
 40
0.0
 40
0.2
 40
0.2
 40
0.2
 40
0.2
 40
0.4
 40
0.4
 40
0.4
 40
0.4
 40
0.6
 40
0.6
 40
0.6
 40
0.6
 40
1.0
 40
1.0
 40
1.0
 40
1.0
 10
28.0543
 20
17.4234
 30
0.0
 10
28.0543
 20
17.4234
 30
0.0
 10
31.0536
 20
17.8173
 30
0.0
 10
31.0536
 20
17.8173
 30
0.0
 10
31.0536
 20
17.8173
 30
0.0
 10
31.0536
 20
17.8173
 30
0.0
 10
31.0529
 20
17.9756
 30
0.0
 10
31.0529
 20
17.9756
 30
0.0
 10
31.0529
 20
17.9756
 30
0.0
 10
31.0529
 20
17.9756
 30
0.0
 10
28.0442
 20
18.4304
 30
0.0
 10
28.0442
 20
18.4304
 30
0.0
 10
28.0442
 20
18.4304
 30
0.0
 10
28.0442
 20
18.4304
 30
0.0
 10
28.0543
 20
17.4234
 30
0.0
 10
28.0543
 20
17.4234
 30
0.0
  0
SPLINE
  5
72
330
1F
100
AcDbEntity
  8
VRSTVA_1
 62
   250
100
AcDbSpline
210
0.0
220
0.0
230
1.0
 70
    11
 71
     3
 72
    20
 73
    16
 74
     0
 42
0.0000000001
 43
0.0000000001
 40
0.0
 40
0.0
 40
0.0
 40
0.0
 40
0.2
 40
0.2
 40
0.2
 40
0.2
 40
0.4
 40
0.4
 40
0.4
 40
0.4
 40
0.6
 40
0.6
 40
0.6
 40
0.6
 40
1.0
 40
1.0
 40
1.0
 40
1.0
 10
13.502
 20
5.485
 30
0.0
 10
13.502
 20
5.485
 30
0.0
 10
13.8959
 20
2.4857
 30
0.0
 10
13.8959
 20
2.4857
 30
0.0
 10
13.8959
 20
2.4857
 30
0.0
 10
13.8959
 20
2.4857
 30
0.0
 10
14.0542
 20
2.4864
 30
0.0
 10
14.0542
 20
2.4864
 30
0.0
 10
14.0542
 20
2.4864
 30
0.0
 10
14.0542
 20
2.4864
 30
0.0
 10
14.509
 20
5.4951
 30
0.0
 10
14.509
 20
5.4951
 30
0.0
 10
14.509
 20
5.4951
 30
0.0
 10
14.509
 20
5.4951
 30
0.0
 10
13.502
 20
5.485
 30
0.0
 10
13.502
 20
5.485
 30
0.0
  0
SPLINE
  5
73
330
1F
100
AcDbEntity
  8
VRSTVA_1
 62
   250
100
AcDbSpline
210
0.0
220
0.0
230
1.0
 70
    11
 71
     3
 72
    20
 73
    16
 74
     0
 42
0.0000000001
 43
0.0000000001
 40
0.0
 40
0.0
 40
0.0
 40
0.0
 40
0.2
 40
0.2
 40
0.2
 40
0.2
 40
0.4
 40
0.4
 40
0.4
 40
0.4
 40
0.6
 40
0.6
 40
0.6
 40
0.6
 40
1.0
 40
1.0
 40
1.0
 40
1.0
 10
14.4993
 20
-10.8422
 30
0.0
 10
14.4993
 20
-10.8422
 30
0.0
 10
14.1054
 20
-7.8428
 30
0.0
 10
14.1054
 20
-7.8428
 30
0.0
 10
14.1054
 20
-7.8428
 30
0.0
 10
14.1054
 20
-7.8428
 30
0.0
 10
13.9471
 20
-7.8435
 30
0.0
 10
13.9471
 20
-7.8435
 30
0.0
 10
13.9471
 20
-7.8435
 30
0.0
 10
13.9471
 20
-7.8435
 30
0.0
 10
13.4924
 20
-10.8522
 30
0.0
 10
13.4924
 20
-10.8522
 30
0.0
 10
13.4924
 20
-10.8522
 30
0.0
 10
13.4924
 20
-10.8522
 30
0.0
 10
14.4993
 20
-10.8422
 30
0.0
 10
14.4993
 20
-10.8422
 30
0.0
  0
SPLINE
  5
74
330
1F
100
AcDbEntity
  8
VRSTVA_1
 62
   250
100
AcDbSpline
210
0.0
220
0.0
230
1.0
 70
    11
 71
     3
 72
    20
 73
    16
 74
     0
 42
0.0000000001
 43
0.0000000001
 40
0.0
 40
0.0
 40
0.0
 40
0.0
 40
0.2
 40
0.2
 40
0.2
 40
0.2
 40
0.4
 40
0.4
 40
0.4
 40
0.4
 40
0.6
 40
0.6
 40
0.6
 40
0.6
 40
1.0
 40
1.0
 40
1.0
 40
1.0
 10
-42.4536
 20
0.3895
 30
0.0
 10
-42.4536
 20
0.3895
 30
0.0
 10
-42.0597
 20
-2.6098
 30
0.0
 10
-42.0597
 20
-2.6098
 30
0.0
 10
-42.0597
 20
-2.6098
 30
0.0
 10
-42.0597
 20
-2.6098
 30
0.0
 10
-41.9014
 20
-2.6091
 30
0.0
 10
-41.9014
 20
-2.6091
 30
0.0
 10
-41.9014
 20
-2.6091
 30
0.0
 10
-41.9014
 20
-2.6091
 30
0.0
 10
-41.4467
 20
0.3996
 30
0.0
 10
-41.4467
 20
0.3996
 30
0.0
 10
-41.4467
 20
0.3996
 30
0.0
 10
-41.4467
 20
0.3996
 30
0.0
 10
-42.4536
 20
0.3895
 30
0.0
 10
-42.4536
 20
0.3895
 30
0.0
  0
SPLINE
  5
75
330
1F
100
AcDbEntity
  8
VRSTVA_1
 62
   250
100
AcDbSpline
210
0.0
220
0.0
230
1.0
 70
    11
 71
     3
 72
    20
 73
    16
 74
     0
 42
0.0000000001
 43
0.0000000001
 40
0.0
 40
0.0
 40
0.0
 40
0.0
 40
0.2
 40
0.2
 40
0.2
 40
0.2
 40
0.4
 40
0.4
 40
0.4
 40
0.4
 40
0.6
 40
0.6
 40
0.6
 40
0.6
 40
1.0
 40
1.0
 40
1.0
 40
1.0
 10
-41.5388
 20
26.5873
 30
0.0
 10
-41.5388
 20
26.5873
 30
0.0
 10
-41.9327
 20
29.5866
 30
0.0
 10
-41.9327
 20
29.5866
 30
0.0
 10
-41.9327
 20
29.5866
 30
0.0
 10
-41.9327
 20
29.5866
 30
0.0
 10
-42.091
 20
29.5859
 30
0.0
 10
-42.091
 20
29.5859
 30
0.0
 10
-42.091
 20
29.5859
 30
0.0
 10
-42.091
 20
29.5859
 30
0.0
 10
-42.5457
 20
26.5772
 30
0.0
 10
-42.5457
 20
26.5772
 30
0.0
 10
-42.5457
 20
26.5772
 30
0.0
 10
-42.5457
 20
26.5772
 30
0.0
 10
-41.5388
 20
26.5873
 30
0.0
 10
-41.5388
 20
26.5873
 30
0.0
  0
SPLINE
  5
76
330
1F
100
AcDbEntity
  8
VRSTVA_1
 62
   250
100
AcDbSpline
210
0.0
220
0.0
230
1.0
 70
     8
 71
     3
 72
    32
 73
    28
 74
     0
 42
0.0000000001
 43
0.0000000001
 40
0.0
 40
0.0
 40
0.0
 40
0.0
 40
0.125
 40
0.125
 40
0.125
 40
0.125
 40
0.25
 40
0.25
 40
0.25
 40
0.25
 40
0.375
 40
0.375
 40
0.375
 40
0.375
 40
0.5
 40
0.5
 40
0.5
 40
0.5
 40
0.625
 40
0.625
 40
0.625
 40
0.625
 40
0.75
 40
0.75
 40
0.75
 40
0.75
 40
1.0
 40
1.0
 40
1.0
 40
1.0
 10
-37.2917
 20
7.4368
 30
0.0
 10
-37.2917
 20
7.4368
 30
0.0
 10
-37.283
 20
9.8797
 30
0.0
 10
-37.283
 20
9.8797
 30
0.0
 10
-37.283
 20
9.8797
 30
0.0
 10
-37.283
 20
10.1574
 30
0.0
 10
-37.0581
 20
10.3823
 30
0.0
 10
-36.7807
 20
10.3823
 30
0.0
 10
-36.7807
 20
10.3823
 30
0.0
 10
-36.7807
 20
10.3823
 30
0.0
 10
-25.6882
 20
10.3724
 30
0.0
 10
-25.6882
 20
10.3724
 30
0.0
 10
-25.6882
 20
10.3724
 30
0.0
 10
-25.6882
 20
10.3724
 30
0.0
 10
-25.4502
 20
10.3129
 30
0.0
 10
-25.4502
 20
10.3129
 30
0.0
 10
-25.4502
 20
10.3129
 30
0.0
 10
-25.4502
 20
10.3129
 30
0.0
 10
-25.3114
 20
10.1344
 30
0.0
 10
-25.3114
 20
10.1344
 30
0.0
 10
-25.3114
 20
10.1344
 30
0.0
 10
-25.3114
 20
10.1344
 30
0.0
 10
-25.1923
 20
9.8765
 30
0.0
 10
-25.1923
 20
9.8765
 30
0.0
 10
-25.1923
 20
9.8765
 30
0.0
 10
-25.1923
 20
9.8765
 30
0.0
 10
-25.2122
 20
7.4963
 30
0.0
 10
-25.2122
 20
7.4963
 30
0.0
  0
SPLINE
  5
77
330
1F
100
AcDbEntity
  8
VRSTVA_1
 62
   250
100
AcDbSpline
210
0.0
220
0.0
230
1.0
 70
     8
 71
     3
 72
    16
 73
    12
 74
     0
 42
0.0000000001
 43
0.0000000001
 40
0.0
 40
0.0
 40
0.0
 40
0.0
 40
0.25
 40
0.25
 40
0.25
 40
0.25
 40
0.5
 40
0.5
 40
0.5
 40
0.5
 40
1.0
 40
1.0
 40
1.0
 40
1.0
 10
-37.4139
 20
9.9412
 30
0.0
 10
-37.4139
 20
9.9412
 30
0.0
 10
-37.4087
 20
6.865
 30
0.0
 10
-37.4087
 20
6.865
 30
0.0
 10
-37.4087
 20
6.865
 30
0.0
 10
-37.4087
 20
6.865
 30
0.0
 10
-25.0981
 20
6.865
 30
0.0
 10
-25.0981
 20
6.865
 30
0.0
 10
-25.0981
 20
6.865
 30
0.0
 10
-25.0981
 20
6.865
 30
0.0
 10
-25.1165
 20
9.9412
 30
0.0
 10
-25.1165
 20
9.9412
 30
0.0
  0
SPLINE
  5
78
330
1F
100
AcDbEntity
  8
VRSTVA_1
 62
   250
100
AcDbSpline
210
0.0
220
0.0
230
1.0
 70
     8
 71
     3
 72
   136
 73
   132
 74
     0
 42
0.0000000001
 43
0.0000000001
 40
0.0
 40
0.0
 40
0.0
 40
0.0
 40
0.0294117647058824
 40
0.0294117647058824
 40
0.0294117647058824
 40
0.0294117647058824
 40
0.0588235294117647
 40
0.0588235294117647
 40
0.0588235294117647
 40
0.0588235294117647
 40
0.0882352941176471
 40
0.0882352941176471
 40
0.0882352941176471
 40
0.0882352941176471
 40
0.1176470588235294
 40
0.1176470588235294
 40
0.1176470588235294
 40
0.1176470588235294
 40
0.1470588235294118
 40
0.1470588235294118
 40
0.1470588235294118
 40
0.1470588235294118
 40
0.1764705882352941
 40
0.1764705882352941
 40
0.1764705882352941
 40
0.1764705882352941
 40
0.2058823529411765
 40
0.2058823529411765
 40
0.2058823529411765
 40
0.2058823529411765
 40
0.2352941176470588
 40
0.2352941176470588
 40
0.2352941176470588
 40
0.2352941176470588
 40
0.2647058823529412
 40
0.2647058823529412
 40
0.2647058823529412
 40
0.2647058823529412
 40
0.2941176470588235
 40
0.2941176470588235
 40
0.2941176470588235
 40
0.2941176470588235
 40
0.3235294117647059
 40
0.3235294117647059
 40
0.3235294117647059
 40
0.3235294117647059
 40
0.3529411764705883
 40
0.3529411764705883
 40
0.3529411764705883
 40
0.3529411764705883
 40
0.3823529411764706
 40
0.3823529411764706
 40
0.3823529411764706
 40
0.3823529411764706
 40
0.4117647058823529
 40
0.4117647058823529
 40
0.4117647058823529
 40
0.4117647058823529
 40
0.4411764705882353
 40
0.4411764705882353
 40
0.4411764705882353
 40
0.4411764705882353
 40
0.4705882352941176
 40
0.4705882352941176
 40
0.4705882352941176
 40
0.4705882352941176
 40
0.5
 40
0.5
 40
0.5
 40
0.5
 40
0.5294117647058824
 40
0.5294117647058824
 40
0.5294117647058824
 40
0.5294117647058824
 40
0.5588235294117647
 40
0.5588235294117647
 40
0.5588235294117647
 40
0.5588235294117647
 40
0.5882352941176471
 40
0.5882352941176471
 40
0.5882352941176471
 40
0.5882352941176471
 40
0.6176470588235294
 40
0.6176470588235294
 40
0.6176470588235294
 40
0.6176470588235294
 40
0.6470588235294118
 40
0.6470588235294118
 40
0.6470588235294118
 40
0.6470588235294118
 40
0.6764705882352942
 40
0.6764705882352942
 40
0.6764705882352942
 40
0.6764705882352942
 40
0.7058823529411765
 40
0.7058823529411765
 40
0.7058823529411765
 40
0.7058823529411765
 40
0.7352941176470589
 40
0.7352941176470589
 40
0.7352941176470589
 40
0.7352941176470589
 40
0.7647058823529411
 40
0.7647058823529411
 40
0.7647058823529411
 40
0.7647058823529411
 40
0.7941176470588235
 40
0.7941176470588235
 40
0.7941176470588235
 40
0.7941176470588235
 40
0.8235294117647058
 40
0.8235294117647058
 40
0.8235294117647058
 40
0.8235294117647058
 40
0.8529411764705882
 40
0.8529411764705882
 40
0.8529411764705882
 40
0.8529411764705882
 40
0.8823529411764706
 40
0.8823529411764706
 40
0.8823529411764706
 40
0.8823529411764706
 40
0.9117647058823529
 40
0.9117647058823529
 40
0.9117647058823529
 40
0.9117647058823529
 40
0.9411764705882353
 40
0.9411764705882353
 40
0.9411764705882353
 40
0.9411764705882353
 40
1.0
 40
1.0
 40
1.0
 40
1.0
 10
-37.4382
 20
7.618
 30
0.0
 10
-37.4382
 20
7.618
 30
0.0
 10
-35.9665
 20
7.5952
 30
0.0
 10
-35.9665
 20
7.5952
 30
0.0
 10
-35.9665
 20
7.5952
 30
0.0
 10
-35.9665
 20
7.5952
 30
0.0
 10
-35.9466
 20
9.3774
 30
0.0
 10
-35.9466
 20
9.3774
 30
0.0
 10
-35.9466
 20
9.3774
 30
0.0
 10
-35.9466
 20
9.3774
 30
0.0
 10
-35.9372
 20
9.4974
 30
0.0
 10
-35.9372
 20
9.4974
 30
0.0
 10
-35.9372
 20
9.4974
 30
0.0
 10
-35.9372
 20
9.4974
 30
0.0
 10
-35.9092
 20
9.6107
 30
0.0
 10
-35.9092
 20
9.6107
 30
0.0
 10
-35.9092
 20
9.6107
 30
0.0
 10
-35.9092
 20
9.6107
 30
0.0
 10
-35.8638
 20
9.7104
 30
0.0
 10
-35.8638
 20
9.7104
 30
0.0
 10
-35.8638
 20
9.7104
 30
0.0
 10
-35.8638
 20
9.7104
 30
0.0
 10
-35.8031
 20
9.791
 30
0.0
 10
-35.8031
 20
9.791
 30
0.0
 10
-35.8031
 20
9.791
 30
0.0
 10
-35.8031
 20
9.791
 30
0.0
 10
-35.7299
 20
9.8472
 30
0.0
 10
-35.7299
 20
9.8472
 30
0.0
 10
-35.7299
 20
9.8472
 30
0.0
 10
-35.7299
 20
9.8472
 30
0.0
 10
-35.6484
 20
9.8763
 30
0.0
 10
-35.6484
 20
9.8763
 30
0.0
 10
-35.6484
 20
9.8763
 30
0.0
 10
-35.6484
 20
9.8763
 30
0.0
 10
-35.606
 20
9.8797
 30
0.0
 10
-35.606
 20
9.8797
 30
0.0
 10
-35.606
 20
9.8797
 30
0.0
 10
-35.606
 20
9.8797
 30
0.0
 10
-35.4185
 20
9.8247
 30
0.0
 10
-35.4185
 20
9.8247
 30
0.0
 10
-35.4185
 20
9.8247
 30
0.0
 10
-35.4185
 20
9.8247
 30
0.0
 10
-35.2931
 20
9.642
 30
0.0
 10
-35.2931
 20
9.642
 30
0.0
 10
-35.2931
 20
9.642
 30
0.0
 10
-35.2931
 20
9.642
 30
0.0
 10
-35.2589
 20
9.4932
 30
0.0
 10
-35.2589
 20
9.4932
 30
0.0
 10
-35.2589
 20
9.4932
 30
0.0
 10
-35.2589
 20
9.4932
 30
0.0
 10
-35.2589
 20
7.5836
 30
0.0
 10
-35.2589
 20
7.5836
 30
0.0
 10
-35.2589
 20
7.5836
 30
0.0
 10
-35.2589
 20
7.5836
 30
0.0
 10
-31.7215
 20
7.5952
 30
0.0
 10
-31.7215
 20
7.5952
 30
0.0
 10
-31.7215
 20
7.5952
 30
0.0
 10
-31.7215
 20
7.5952
 30
0.0
 10
-31.7215
 20
9.4245
 30
0.0
 10
-31.7215
 20
9.4245
 30
0.0
 10
-31.7215
 20
9.4245
 30
0.0
 10
-31.7215
 20
9.4245
 30
0.0
 10
-31.6303
 20
9.6189
 30
0.0
 10
-31.6303
 20
9.6189
 30
0.0
 10
-31.6303
 20
9.6189
 30
0.0
 10
-31.6303
 20
9.6189
 30
0.0
 10
-31.5048
 20
9.7791
 30
0.0
 10
-31.5048
 20
9.7791
 30
0.0
 10
-31.5048
 20
9.7791
 30
0.0
 10
-31.5048
 20
9.7791
 30
0.0
 10
-31.3224
 20
9.8591
 30
0.0
 10
-31.3224
 20
9.8591
 30
0.0
 10
-31.3224
 20
9.8591
 30
0.0
 10
-31.3224
 20
9.8591
 30
0.0
 10
-31.1282
 20
9.8247
 30
0.0
 10
-31.1282
 20
9.8247
 30
0.0
 10
-31.1282
 20
9.8247
 30
0.0
 10
-31.1282
 20
9.8247
 30
0.0
 10
-30.9571
 20
9.7334
 30
0.0
 10
-30.9571
 20
9.7334
 30
0.0
 10
-30.9571
 20
9.7334
 30
0.0
 10
-30.9571
 20
9.7334
 30
0.0
 10
-30.8545
 20
9.5505
 30
0.0
 10
-30.8545
 20
9.5505
 30
0.0
 10
-30.8545
 20
9.5505
 30
0.0
 10
-30.8545
 20
9.5505
 30
0.0
 10
-30.7975
 20
9.3903
 30
0.0
 10
-30.7975
 20
9.3903
 30
0.0
 10
-30.7975
 20
9.3903
 30
0.0
 10
-30.7975
 20
9.3903
 30
0.0
 10
-30.7747
 20
9.2187
 30
0.0
 10
-30.7747
 20
9.2187
 30
0.0
 10
-30.7747
 20
9.2187
 30
0.0
 10
-30.7747
 20
9.2187
 30
0.0
 10
-30.7747
 20
7.5608
 30
0.0
 10
-30.7747
 20
7.5608
 30
0.0
 10
-30.7747
 20
7.5608
 30
0.0
 10
-30.7747
 20
7.5608
 30
0.0
 10
-27.2872
 20
7.5543
 30
0.0
 10
-27.2872
 20
7.5543
 30
0.0
 10
-27.2872
 20
7.5543
 30
0.0
 10
-27.2872
 20
7.5543
 30
0.0
 10
-27.2872
 20
9.4188
 30
0.0
 10
-27.2872
 20
9.4188
 30
0.0
 10
-27.2872
 20
9.4188
 30
0.0
 10
-27.2872
 20
9.4188
 30
0.0
 10
-27.1962
 20
9.6928
 30
0.0
 10
-27.1962
 20
9.6928
 30
0.0
 10
-27.1962
 20
9.6928
 30
0.0
 10
-27.1962
 20
9.6928
 30
0.0
 10
-26.975
 20
9.8232
 30
0.0
 10
-26.975
 20
9.8232
 30
0.0
 10
-26.975
 20
9.8232
 30
0.0
 10
-26.975
 20
9.8232
 30
0.0
 10
-26.7407
 20
9.8101
 30
0.0
 10
-26.7407
 20
9.8101
 30
0.0
 10
-26.7407
 20
9.8101
 30
0.0
 10
-26.7407
 20
9.8101
 30
0.0
 10
-26.6237
 20
9.6667
 30
0.0
 10
-26.6237
 20
9.6667
 30
0.0
 10
-26.6237
 20
9.6667
 30
0.0
 10
-26.6237
 20
9.6667
 30
0.0
 10
-26.5585
 20
9.484
 30
0.0
 10
-26.5585
 20
9.484
 30
0.0
 10
-26.5585
 20
9.484
 30
0.0
 10
-26.5585
 20
9.484
 30
0.0
 10
-26.5456
 20
7.5543
 30
0.0
 10
-26.5456
 20
7.5543
 30
0.0
 10
-26.5456
 20
7.5543
 30
0.0
 10
-26.5456
 20
7.5543
 30
0.0
 10
-25.0882
 20
7.5675
 30
0.0
 10
-25.0882
 20
7.5675
 30
0.0
  0
SPLINE
  5
79
330
1F
100
AcDbEntity
  8
VRSTVA_1
 62
   250
100
AcDbSpline
210
0.0
220
0.0
230
1.0
 70
     8
 71
     3
 72
    32
 73
    28
 74
     0
 42
0.0000000001
 43
0.0000000001
 40
0.0
 40
0.0
 40
0.0
 40
0.0
 40
0.125
 40
0.125
 40
0.125
 40
0.125
 40
0.25
 40
0.25
 40
0.25
 40
0.25
 40
0.375
 40
0.375
 40
0.375
 40
0.375
 40
0.5
 40
0.5
 40
0.5
 40
0.5
 40
0.625
 40
0.625
 40
0.625
 40
0.625
 40
0.75
 40
0.75
 40
0.75
 40
0.75
 40
1.0
 40
1.0
 40
1.0
 40
1.0
 10
-25.2045
 20
29.143
 30
0.0
 10
-25.2045
 20
29.143
 30
0.0
 10
-25.2132
 20
26.7001
 30
0.0
 10
-25.2132
 20
26.7001
 30
0.0
 10
-25.2132
 20
26.7001
 30
0.0
 10
-25.2132
 20
26.4224
 30
0.0
 10
-25.438
 20
26.1975
 30
0.0
 10
-25.7155
 20
26.1975
 30
0.0
 10
-25.7155
 20
26.1975
 30
0.0
 10
-25.7155
 20
26.1975
 30
0.0
 10
-36.808
 20
26.2074
 30
0.0
 10
-36.808
 20
26.2074
 30
0.0
 10
-36.808
 20
26.2074
 30
0.0
 10
-36.808
 20
26.2074
 30
0.0
 10
-37.046
 20
26.2669
 30
0.0
 10
-37.046
 20
26.2669
 30
0.0
 10
-37.046
 20
26.2669
 30
0.0
 10
-37.046
 20
26.2669
 30
0.0
 10
-37.1848
 20
26.4455
 30
0.0
 10
-37.1848
 20
26.4455
 30
0.0
 10
-37.1848
 20
26.4455
 30
0.0
 10
-37.1848
 20
26.4455
 30
0.0
 10
-37.3039
 20
26.7033
 30
0.0
 10
-37.3039
 20
26.7033
 30
0.0
 10
-37.3039
 20
26.7033
 30
0.0
 10
-37.3039
 20
26.7033
 30
0.0
 10
-37.284
 20
29.0835
 30
0.0
 10
-37.284
 20
29.0835
 30
0.0
  0
SPLINE
  5
7A
330
1F
100
AcDbEntity
  8
VRSTVA_1
 62
   250
100
AcDbSpline
210
0.0
220
0.0
230
1.0
 70
     8
 71
     3
 72
    16
 73
    12
 74
     0
 42
0.0000000001
 43
0.0000000001
 40
0.0
 40
0.0
 40
0.0
 40
0.0
 40
0.25
 40
0.25
 40
0.25
 40
0.25
 40
0.5
 40
0.5
 40
0.5
 40
0.5
 40
1.0
 40
1.0
 40
1.0
 40
1.0
 10
-25.0823
 20
26.6386
 30
0.0
 10
-25.0823
 20
26.6386
 30
0.0
 10
-25.0875
 20
29.7148
 30
0.0
 10
-25.0875
 20
29.7148
 30
0.0
 10
-25.0875
 20
29.7148
 30
0.0
 10
-25.0875
 20
29.7148
 30
0.0
 10
-37.3981
 20
29.7148
 30
0.0
 10
-37.3981
 20
29.7148
 30
0.0
 10
-37.3981
 20
29.7148
 30
0.0
 10
-37.3981
 20
29.7148
 30
0.0
 10
-37.3797
 20
26.6386
 30
0.0
 10
-37.3797
 20
26.6386
 30
0.0
  0
SPLINE
  5
7B
330
1F
100
AcDbEntity
  8
VRSTVA_1
 62
   250
100
AcDbSpline
210
0.0
220
0.0
230
1.0
 70
     8
 71
     3
 72
   136
 73
   132
 74
     0
 42
0.0000000001
 43
0.0000000001
 40
0.0
 40
0.0
 40
0.0
 40
0.0
 40
0.0294117647058824
 40
0.0294117647058824
 40
0.0294117647058824
 40
0.0294117647058824
 40
0.0588235294117647
 40
0.0588235294117647
 40
0.0588235294117647
 40
0.0588235294117647
 40
0.0882352941176471
 40
0.0882352941176471
 40
0.0882352941176471
 40
0.0882352941176471
 40
0.1176470588235294
 40
0.1176470588235294
 40
0.1176470588235294
 40
0.1176470588235294
 40
0.1470588235294118
 40
0.1470588235294118
 40
0.1470588235294118
 40
0.1470588235294118
 40
0.1764705882352941
 40
0.1764705882352941
 40
0.1764705882352941
 40
0.1764705882352941
 40
0.2058823529411765
 40
0.2058823529411765
 40
0.2058823529411765
 40
0.2058823529411765
 40
0.2352941176470588
 40
0.2352941176470588
 40
0.2352941176470588
 40
0.2352941176470588
 40
0.2647058823529412
 40
0.2647058823529412
 40
0.2647058823529412
 40
0.2647058823529412
 40
0.2941176470588235
 40
0.2941176470588235
 40
0.2941176470588235
 40
0.2941176470588235
 40
0.3235294117647059
 40
0.3235294117647059
 40
0.3235294117647059
 40
0.3235294117647059
 40
0.3529411764705883
 40
0.3529411764705883
 40
0.3529411764705883
 40
0.3529411764705883
 40
0.3823529411764706
 40
0.3823529411764706
 40
0.3823529411764706
 40
0.3823529411764706
 40
0.4117647058823529
 40
0.4117647058823529
 40
0.4117647058823529
 40
0.4117647058823529
 40
0.4411764705882353
 40
0.4411764705882353
 40
0.4411764705882353
 40
0.4411764705882353
 40
0.4705882352941176
 40
0.4705882352941176
 40
0.4705882352941176
 40
0.4705882352941176
 40
0.5
 40
0.5
 40
0.5
 40
0.5
 40
0.5294117647058824
 40
0.5294117647058824
 40
0.5294117647058824
 40
0.5294117647058824
 40
0.5588235294117647
 40
0.5588235294117647
 40
0.5588235294117647
 40
0.5588235294117647
 40
0.5882352941176471
 40
0.5882352941176471
 40
0.5882352941176471
 40
0.5882352941176471
 40
0.6176470588235294
 40
0.6176470588235294
 40
0.6176470588235294
 40
0.6176470588235294
 40
0.6470588235294118
 40
0.6470588235294118
 40
0.6470588235294118
 40
0.6470588235294118
 40
0.6764705882352942
 40
0.6764705882352942
 40
0.6764705882352942
 40
0.6764705882352942
 40
0.7058823529411765
 40
0.7058823529411765
 40
0.7058823529411765
 40
0.7058823529411765
 40
0.7352941176470589
 40
0.7352941176470589
 40
0.7352941176470589
 40
0.7352941176470589
 40
0.7647058823529411
 40
0.7647058823529411
 40
0.7647058823529411
 40
0.7647058823529411
 40
0.7941176470588235
 40
0.7941176470588235
 40
0.7941176470588235
 40
0.7941176470588235
 40
0.8235294117647058
 40
0.8235294117647058
 40
0.8235294117647058
 40
0.8235294117647058
 40
0.8529411764705882
 40
0.8529411764705882
 40
0.8529411764705882
 40
0.8529411764705882
 40
0.8823529411764706
 40
0.8823529411764706
 40
0.8823529411764706
 40
0.8823529411764706
 40
0.9117647058823529
 40
0.9117647058823529
 40
0.9117647058823529
 40
0.9117647058823529
 40
0.9411764705882353
 40
0.9411764705882353
 40
0.9411764705882353
 40
0.9411764705882353
 40
1.0
 40
1.0
 40
1.0
 40
1.0
 10
-25.058
 20
28.9618
 30
0.0
 10
-25.058
 20
28.9618
 30
0.0
 10
-26.5297
 20
28.9846
 30
0.0
 10
-26.5297
 20
28.9846
 30
0.0
 10
-26.5297
 20
28.9846
 30
0.0
 10
-26.5297
 20
28.9846
 30
0.0
 10
-26.5496
 20
27.2024
 30
0.0
 10
-26.5496
 20
27.2024
 30
0.0
 10
-26.5496
 20
27.2024
 30
0.0
 10
-26.5496
 20
27.2024
 30
0.0
 10
-26.559
 20
27.0824
 30
0.0
 10
-26.559
 20
27.0824
 30
0.0
 10
-26.559
 20
27.0824
 30
0.0
 10
-26.559
 20
27.0824
 30
0.0
 10
-26.587
 20
26.9691
 30
0.0
 10
-26.587
 20
26.9691
 30
0.0
 10
-26.587
 20
26.9691
 30
0.0
 10
-26.587
 20
26.9691
 30
0.0
 10
-26.6324
 20
26.8694
 30
0.0
 10
-26.6324
 20
26.8694
 30
0.0
 10
-26.6324
 20
26.8694
 30
0.0
 10
-26.6324
 20
26.8694
 30
0.0
 10
-26.6931
 20
26.7889
 30
0.0
 10
-26.6931
 20
26.7889
 30
0.0
 10
-26.6931
 20
26.7889
 30
0.0
 10
-26.6931
 20
26.7889
 30
0.0
 10
-26.7663
 20
26.7326
 30
0.0
 10
-26.7663
 20
26.7326
 30
0.0
 10
-26.7663
 20
26.7326
 30
0.0
 10
-26.7663
 20
26.7326
 30
0.0
 10
-26.8478
 20
26.7036
 30
0.0
 10
-26.8478
 20
26.7036
 30
0.0
 10
-26.8478
 20
26.7036
 30
0.0
 10
-26.8478
 20
26.7036
 30
0.0
 10
-26.8902
 20
26.7001
 30
0.0
 10
-26.8902
 20
26.7001
 30
0.0
 10
-26.8902
 20
26.7001
 30
0.0
 10
-26.8902
 20
26.7001
 30
0.0
 10
-27.0777
 20
26.7551
 30
0.0
 10
-27.0777
 20
26.7551
 30
0.0
 10
-27.0777
 20
26.7551
 30
0.0
 10
-27.0777
 20
26.7551
 30
0.0
 10
-27.2031
 20
26.9379
 30
0.0
 10
-27.2031
 20
26.9379
 30
0.0
 10
-27.2031
 20
26.9379
 30
0.0
 10
-27.2031
 20
26.9379
 30
0.0
 10
-27.2373
 20
27.0866
 30
0.0
 10
-27.2373
 20
27.0866
 30
0.0
 10
-27.2373
 20
27.0866
 30
0.0
 10
-27.2373
 20
27.0866
 30
0.0
 10
-27.2373
 20
28.9962
 30
0.0
 10
-27.2373
 20
28.9962
 30
0.0
 10
-27.2373
 20
28.9962
 30
0.0
 10
-27.2373
 20
28.9962
 30
0.0
 10
-30.7747
 20
28.9846
 30
0.0
 10
-30.7747
 20
28.9846
 30
0.0
 10
-30.7747
 20
28.9846
 30
0.0
 10
-30.7747
 20
28.9846
 30
0.0
 10
-30.7747
 20
27.1553
 30
0.0
 10
-30.7747
 20
27.1553
 30
0.0
 10
-30.7747
 20
27.1553
 30
0.0
 10
-30.7747
 20
27.1553
 30
0.0
 10
-30.8659
 20
26.9609
 30
0.0
 10
-30.8659
 20
26.9609
 30
0.0
 10
-30.8659
 20
26.9609
 30
0.0
 10
-30.8659
 20
26.9609
 30
0.0
 10
-30.9914
 20
26.8008
 30
0.0
 10
-30.9914
 20
26.8008
 30
0.0
 10
-30.9914
 20
26.8008
 30
0.0
 10
-30.9914
 20
26.8008
 30
0.0
 10
-31.1738
 20
26.7207
 30
0.0
 10
-31.1738
 20
26.7207
 30
0.0
 10
-31.1738
 20
26.7207
 30
0.0
 10
-31.1738
 20
26.7207
 30
0.0
 10
-31.368
 20
26.7551
 30
0.0
 10
-31.368
 20
26.7551
 30
0.0
 10
-31.368
 20
26.7551
 30
0.0
 10
-31.368
 20
26.7551
 30
0.0
 10
-31.5391
 20
26.8464
 30
0.0
 10
-31.5391
 20
26.8464
 30
0.0
 10
-31.5391
 20
26.8464
 30
0.0
 10
-31.5391
 20
26.8464
 30
0.0
 10
-31.6417
 20
27.0294
 30
0.0
 10
-31.6417
 20
27.0294
 30
0.0
 10
-31.6417
 20
27.0294
 30
0.0
 10
-31.6417
 20
27.0294
 30
0.0
 10
-31.6987
 20
27.1895
 30
0.0
 10
-31.6987
 20
27.1895
 30
0.0
 10
-31.6987
 20
27.1895
 30
0.0
 10
-31.6987
 20
27.1895
 30
0.0
 10
-31.7215
 20
27.3611
 30
0.0
 10
-31.7215
 20
27.3611
 30
0.0
 10
-31.7215
 20
27.3611
 30
0.0
 10
-31.7215
 20
27.3611
 30
0.0
 10
-31.7215
 20
29.0191
 30
0.0
 10
-31.7215
 20
29.0191
 30
0.0
 10
-31.7215
 20
29.0191
 30
0.0
 10
-31.7215
 20
29.0191
 30
0.0
 10
-35.209
 20
29.0255
 30
0.0
 10
-35.209
 20
29.0255
 30
0.0
 10
-35.209
 20
29.0255
 30
0.0
 10
-35.209
 20
29.0255
 30
0.0
 10
-35.209
 20
27.161
 30
0.0
 10
-35.209
 20
27.161
 30
0.0
 10
-35.209
 20
27.161
 30
0.0
 10
-35.209
 20
27.161
 30
0.0
 10
-35.3
 20
26.887
 30
0.0
 10
-35.3
 20
26.887
 30
0.0
 10
-35.3
 20
26.887
 30
0.0
 10
-35.3
 20
26.887
 30
0.0
 10
-35.5212
 20
26.7566
 30
0.0
 10
-35.5212
 20
26.7566
 30
0.0
 10
-35.5212
 20
26.7566
 30
0.0
 10
-35.5212
 20
26.7566
 30
0.0
 10
-35.7555
 20
26.7698
 30
0.0
 10
-35.7555
 20
26.7698
 30
0.0
 10
-35.7555
 20
26.7698
 30
0.0
 10
-35.7555
 20
26.7698
 30
0.0
 10
-35.8725
 20
26.9131
 30
0.0
 10
-35.8725
 20
26.9131
 30
0.0
 10
-35.8725
 20
26.9131
 30
0.0
 10
-35.8725
 20
26.9131
 30
0.0
 10
-35.9377
 20
27.0958
 30
0.0
 10
-35.9377
 20
27.0958
 30
0.0
 10
-35.9377
 20
27.0958
 30
0.0
 10
-35.9377
 20
27.0958
 30
0.0
 10
-35.9506
 20
29.0255
 30
0.0
 10
-35.9506
 20
29.0255
 30
0.0
 10
-35.9506
 20
29.0255
 30
0.0
 10
-35.9506
 20
29.0255
 30
0.0
 10
-37.408
 20
29.0124
 30
0.0
 10
-37.408
 20
29.0124
 30
0.0
  0
SPLINE
  5
7C
330
1F
100
AcDbEntity
  8
VRSTVA_1
 62
   250
100
AcDbSpline
210
0.0
220
0.0
230
1.0
 70
     8
 71
     3
 72
    32
 73
    28
 74
     0
 42
0.0000000001
 43
0.0000000001
 40
0.0
 40
0.0
 40
0.0
 40
0.0
 40
0.125
 40
0.125
 40
0.125
 40
0.125
 40
0.25
 40
0.25
 40
0.25
 40
0.25
 40
0.375
 40
0.375
 40
0.375
 40
0.375
 40
0.5
 40
0.5
 40
0.5
 40
0.5
 40
0.625
 40
0.625
 40
0.625
 40
0.625
 40
0.75
 40
0.75
 40
0.75
 40
0.75
 40
1.0
 40
1.0
 40
1.0
 40
1.0
 10
-18.6514
 20
4.2145
 30
0.0
 10
-18.6514
 20
4.2145
 30
0.0
 10
-15.813
 20
4.2046
 30
0.0
 10
-15.813
 20
4.2046
 30
0.0
 10
-15.813
 20
4.2046
 30
0.0
 10
-15.4904
 20
4.2046
 30
0.0
 10
-15.2291
 20
3.9492
 30
0.0
 10
-15.2291
 20
3.634
 30
0.0
 10
-15.2291
 20
3.634
 30
0.0
 10
-15.2291
 20
3.634
 30
0.0
 10
-15.2406
 20
-8.9654
 30
0.0
 10
-15.2406
 20
-8.9654
 30
0.0
 10
-15.2406
 20
-8.9654
 30
0.0
 10
-15.2406
 20
-8.9654
 30
0.0
 10
-15.3098
 20
-9.2357
 30
0.0
 10
-15.3098
 20
-9.2357
 30
0.0
 10
-15.3098
 20
-9.2357
 30
0.0
 10
-15.3098
 20
-9.2357
 30
0.0
 10
-15.5172
 20
-9.3934
 30
0.0
 10
-15.5172
 20
-9.3934
 30
0.0
 10
-15.5172
 20
-9.3934
 30
0.0
 10
-15.5172
 20
-9.3934
 30
0.0
 10
-15.8168
 20
-9.5286
 30
0.0
 10
-15.8168
 20
-9.5286
 30
0.0
 10
-15.8168
 20
-9.5286
 30
0.0
 10
-15.8168
 20
-9.5286
 30
0.0
 10
-18.5823
 20
-9.5061
 30
0.0
 10
-18.5823
 20
-9.5061
 30
0.0
  0
SPLINE
  5
7D
330
1F
100
AcDbEntity
  8
VRSTVA_1
 62
   250
100
AcDbSpline
210
0.0
220
0.0
230
1.0
 70
     8
 71
     3
 72
    16
 73
    12
 74
     0
 42
0.0000000001
 43
0.0000000001
 40
0.0
 40
0.0
 40
0.0
 40
0.0
 40
0.25
 40
0.25
 40
0.25
 40
0.25
 40
0.5
 40
0.5
 40
0.5
 40
0.5
 40
1.0
 40
1.0
 40
1.0
 40
1.0
 10
-15.7416
 20
4.3533
 30
0.0
 10
-15.7416
 20
4.3533
 30
0.0
 10
-19.3157
 20
4.3474
 30
0.0
 10
-19.3157
 20
4.3474
 30
0.0
 10
-19.3157
 20
4.3474
 30
0.0
 10
-19.3157
 20
4.3474
 30
0.0
 10
-19.3157
 20
-9.6356
 30
0.0
 10
-19.3157
 20
-9.6356
 30
0.0
 10
-19.3157
 20
-9.6356
 30
0.0
 10
-19.3157
 20
-9.6356
 30
0.0
 10
-15.7416
 20
-9.6148
 30
0.0
 10
-15.7416
 20
-9.6148
 30
0.0
  0
SPLINE
  5
7E
330
1F
100
AcDbEntity
  8
VRSTVA_1
 62
   250
100
AcDbSpline
210
0.0
220
0.0
230
1.0
 70
     8
 71
     3
 72
   136
 73
   132
 74
     0
 42
0.0000000001
 43
0.0000000001
 40
0.0
 40
0.0
 40
0.0
 40
0.0
 40
0.0294117647058824
 40
0.0294117647058824
 40
0.0294117647058824
 40
0.0294117647058824
 40
0.0588235294117647
 40
0.0588235294117647
 40
0.0588235294117647
 40
0.0588235294117647
 40
0.0882352941176471
 40
0.0882352941176471
 40
0.0882352941176471
 40
0.0882352941176471
 40
0.1176470588235294
 40
0.1176470588235294
 40
0.1176470588235294
 40
0.1176470588235294
 40
0.1470588235294118
 40
0.1470588235294118
 40
0.1470588235294118
 40
0.1470588235294118
 40
0.1764705882352941
 40
0.1764705882352941
 40
0.1764705882352941
 40
0.1764705882352941
 40
0.2058823529411765
 40
0.2058823529411765
 40
0.2058823529411765
 40
0.2058823529411765
 40
0.2352941176470588
 40
0.2352941176470588
 40
0.2352941176470588
 40
0.2352941176470588
 40
0.2647058823529412
 40
0.2647058823529412
 40
0.2647058823529412
 40
0.2647058823529412
 40
0.2941176470588235
 40
0.2941176470588235
 40
0.2941176470588235
 40
0.2941176470588235
 40
0.3235294117647059
 40
0.3235294117647059
 40
0.3235294117647059
 40
0.3235294117647059
 40
0.3529411764705883
 40
0.3529411764705883
 40
0.3529411764705883
 40
0.3529411764705883
 40
0.3823529411764706
 40
0.3823529411764706
 40
0.3823529411764706
 40
0.3823529411764706
 40
0.4117647058823529
 40
0.4117647058823529
 40
0.4117647058823529
 40
0.4117647058823529
 40
0.4411764705882353
 40
0.4411764705882353
 40
0.4411764705882353
 40
0.4411764705882353
 40
0.4705882352941176
 40
0.4705882352941176
 40
0.4705882352941176
 40
0.4705882352941176
 40
0.5
 40
0.5
 40
0.5
 40
0.5
 40
0.5294117647058824
 40
0.5294117647058824
 40
0.5294117647058824
 40
0.5294117647058824
 40
0.5588235294117647
 40
0.5588235294117647
 40
0.5588235294117647
 40
0.5588235294117647
 40
0.5882352941176471
 40
0.5882352941176471
 40
0.5882352941176471
 40
0.5882352941176471
 40
0.6176470588235294
 40
0.6176470588235294
 40
0.6176470588235294
 40
0.6176470588235294
 40
0.6470588235294118
 40
0.6470588235294118
 40
0.6470588235294118
 40
0.6470588235294118
 40
0.6764705882352942
 40
0.6764705882352942
 40
0.6764705882352942
 40
0.6764705882352942
 40
0.7058823529411765
 40
0.7058823529411765
 40
0.7058823529411765
 40
0.7058823529411765
 40
0.7352941176470589
 40
0.7352941176470589
 40
0.7352941176470589
 40
0.7352941176470589
 40
0.7647058823529411
 40
0.7647058823529411
 40
0.7647058823529411
 40
0.7647058823529411
 40
0.7941176470588235
 40
0.7941176470588235
 40
0.7941176470588235
 40
0.7941176470588235
 40
0.8235294117647058
 40
0.8235294117647058
 40
0.8235294117647058
 40
0.8235294117647058
 40
0.8529411764705882
 40
0.8529411764705882
 40
0.8529411764705882
 40
0.8529411764705882
 40
0.8823529411764706
 40
0.8823529411764706
 40
0.8823529411764706
 40
0.8823529411764706
 40
0.9117647058823529
 40
0.9117647058823529
 40
0.9117647058823529
 40
0.9117647058823529
 40
0.9411764705882353
 40
0.9411764705882353
 40
0.9411764705882353
 40
0.9411764705882353
 40
1.0
 40
1.0
 40
1.0
 40
1.0
 10
-18.4408
 20
4.3809
 30
0.0
 10
-18.4408
 20
4.3809
 30
0.0
 10
-18.4673
 20
2.7092
 30
0.0
 10
-18.4673
 20
2.7092
 30
0.0
 10
-18.4673
 20
2.7092
 30
0.0
 10
-18.4673
 20
2.7092
 30
0.0
 10
-16.3967
 20
2.6867
 30
0.0
 10
-16.3967
 20
2.6867
 30
0.0
 10
-16.3967
 20
2.6867
 30
0.0
 10
-16.3967
 20
2.6867
 30
0.0
 10
-16.2573
 20
2.676
 30
0.0
 10
-16.2573
 20
2.676
 30
0.0
 10
-16.2573
 20
2.676
 30
0.0
 10
-16.2573
 20
2.676
 30
0.0
 10
-16.1256
 20
2.6441
 30
0.0
 10
-16.1256
 20
2.6441
 30
0.0
 10
-16.1256
 20
2.6441
 30
0.0
 10
-16.1256
 20
2.6441
 30
0.0
 10
-16.0098
 20
2.5926
 30
0.0
 10
-16.0098
 20
2.5926
 30
0.0
 10
-16.0098
 20
2.5926
 30
0.0
 10
-16.0098
 20
2.5926
 30
0.0
 10
-15.9162
 20
2.5236
 30
0.0
 10
-15.9162
 20
2.5236
 30
0.0
 10
-15.9162
 20
2.5236
 30
0.0
 10
-15.9162
 20
2.5236
 30
0.0
 10
-15.8508
 20
2.4405
 30
0.0
 10
-15.8508
 20
2.4405
 30
0.0
 10
-15.8508
 20
2.4405
 30
0.0
 10
-15.8508
 20
2.4405
 30
0.0
 10
-15.8171
 20
2.3479
 30
0.0
 10
-15.8171
 20
2.3479
 30
0.0
 10
-15.8171
 20
2.3479
 30
0.0
 10
-15.8171
 20
2.3479
 30
0.0
 10
-15.813
 20
2.2997
 30
0.0
 10
-15.813
 20
2.2997
 30
0.0
 10
-15.813
 20
2.2997
 30
0.0
 10
-15.813
 20
2.2997
 30
0.0
 10
-15.877
 20
2.0868
 30
0.0
 10
-15.877
 20
2.0868
 30
0.0
 10
-15.877
 20
2.0868
 30
0.0
 10
-15.877
 20
2.0868
 30
0.0
 10
-16.0893
 20
1.9443
 30
0.0
 10
-16.0893
 20
1.9443
 30
0.0
 10
-16.0893
 20
1.9443
 30
0.0
 10
-16.0893
 20
1.9443
 30
0.0
 10
-16.2621
 20
1.9055
 30
0.0
 10
-16.2621
 20
1.9055
 30
0.0
 10
-16.2621
 20
1.9055
 30
0.0
 10
-16.2621
 20
1.9055
 30
0.0
 10
-18.4809
 20
1.9055
 30
0.0
 10
-18.4809
 20
1.9055
 30
0.0
 10
-18.4809
 20
1.9055
 30
0.0
 10
-18.4809
 20
1.9055
 30
0.0
 10
-18.4673
 20
-2.1124
 30
0.0
 10
-18.4673
 20
-2.1124
 30
0.0
 10
-18.4673
 20
-2.1124
 30
0.0
 10
-18.4673
 20
-2.1124
 30
0.0
 10
-16.3419
 20
-2.1124
 30
0.0
 10
-16.3419
 20
-2.1124
 30
0.0
 10
-16.3419
 20
-2.1124
 30
0.0
 10
-16.3419
 20
-2.1124
 30
0.0
 10
-16.1161
 20
-2.2161
 30
0.0
 10
-16.1161
 20
-2.2161
 30
0.0
 10
-16.1161
 20
-2.2161
 30
0.0
 10
-16.1161
 20
-2.2161
 30
0.0
 10
-15.93
 20
-2.3586
 30
0.0
 10
-15.93
 20
-2.3586
 30
0.0
 10
-15.93
 20
-2.3586
 30
0.0
 10
-15.93
 20
-2.3586
 30
0.0
 10
-15.837
 20
-2.5658
 30
0.0
 10
-15.837
 20
-2.5658
 30
0.0
 10
-15.837
 20
-2.5658
 30
0.0
 10
-15.837
 20
-2.5658
 30
0.0
 10
-15.877
 20
-2.7863
 30
0.0
 10
-15.877
 20
-2.7863
 30
0.0
 10
-15.877
 20
-2.7863
 30
0.0
 10
-15.877
 20
-2.7863
 30
0.0
 10
-15.983
 20
-2.9807
 30
0.0
 10
-15.983
 20
-2.9807
 30
0.0
 10
-15.983
 20
-2.9807
 30
0.0
 10
-15.983
 20
-2.9807
 30
0.0
 10
-16.1956
 20
-3.0972
 30
0.0
 10
-16.1956
 20
-3.0972
 30
0.0
 10
-16.1956
 20
-3.0972
 30
0.0
 10
-16.1956
 20
-3.0972
 30
0.0
 10
-16.3817
 20
-3.162
 30
0.0
 10
-16.3817
 20
-3.162
 30
0.0
 10
-16.3817
 20
-3.162
 30
0.0
 10
-16.3817
 20
-3.162
 30
0.0
 10
-16.581
 20
-3.1879
 30
0.0
 10
-16.581
 20
-3.1879
 30
0.0
 10
-16.581
 20
-3.1879
 30
0.0
 10
-16.581
 20
-3.1879
 30
0.0
 10
-18.5074
 20
-3.1879
 30
0.0
 10
-18.5074
 20
-3.1879
 30
0.0
 10
-18.5074
 20
-3.1879
 30
0.0
 10
-18.5074
 20
-3.1879
 30
0.0
 10
-18.5149
 20
-7.1492
 30
0.0
 10
-18.5149
 20
-7.1492
 30
0.0
 10
-18.5149
 20
-7.1492
 30
0.0
 10
-18.5149
 20
-7.1492
 30
0.0
 10
-16.3486
 20
-7.1492
 30
0.0
 10
-16.3486
 20
-7.1492
 30
0.0
 10
-16.3486
 20
-7.1492
 30
0.0
 10
-16.3486
 20
-7.1492
 30
0.0
 10
-16.0302
 20
-7.2526
 30
0.0
 10
-16.0302
 20
-7.2526
 30
0.0
 10
-16.0302
 20
-7.2526
 30
0.0
 10
-16.0302
 20
-7.2526
 30
0.0
 10
-15.8787
 20
-7.5038
 30
0.0
 10
-15.8787
 20
-7.5038
 30
0.0
 10
-15.8787
 20
-7.5038
 30
0.0
 10
-15.8787
 20
-7.5038
 30
0.0
 10
-15.894
 20
-7.7699
 30
0.0
 10
-15.894
 20
-7.7699
 30
0.0
 10
-15.894
 20
-7.7699
 30
0.0
 10
-15.894
 20
-7.7699
 30
0.0
 10
-16.0605
 20
-7.9028
 30
0.0
 10
-16.0605
 20
-7.9028
 30
0.0
 10
-16.0605
 20
-7.9028
 30
0.0
 10
-16.0605
 20
-7.9028
 30
0.0
 10
-16.2728
 20
-7.9769
 30
0.0
 10
-16.2728
 20
-7.9769
 30
0.0
 10
-16.2728
 20
-7.9769
 30
0.0
 10
-16.2728
 20
-7.9769
 30
0.0
 10
-18.5149
 20
-7.9915
 30
0.0
 10
-18.5149
 20
-7.9915
 30
0.0
 10
-18.5149
 20
-7.9915
 30
0.0
 10
-18.5149
 20
-7.9915
 30
0.0
 10
-18.4996
 20
-9.6469
 30
0.0
 10
-18.4996
 20
-9.6469
 30
0.0
  0
SPLINE
  5
7F
330
1F
100
AcDbEntity
  8
VRSTVA_1
 62
   250
100
AcDbSpline
210
0.0
220
0.0
230
1.0
 70
     8
 71
     3
 72
    28
 73
    24
 74
     0
 42
0.0000000001
 43
0.0000000001
 40
0.0
 40
0.0
 40
0.0
 40
0.0
 40
0.1428571428571428
 40
0.1428571428571428
 40
0.1428571428571428
 40
0.1428571428571428
 40
0.2857142857142857
 40
0.2857142857142857
 40
0.2857142857142857
 40
0.2857142857142857
 40
0.4285714285714285
 40
0.4285714285714285
 40
0.4285714285714285
 40
0.4285714285714285
 40
0.5714285714285714
 40
0.5714285714285714
 40
0.5714285714285714
 40
0.5714285714285714
 40
0.7142857142857143
 40
0.7142857142857143
 40
0.7142857142857143
 40
0.7142857142857143
 40
1.0
 40
1.0
 40
1.0
 40
1.0
 10
-37.1375
 20
-22.5855
 30
0.0
 10
-37.1375
 20
-22.5855
 30
0.0
 10
-36.4155
 20
-22.6245
 30
0.0
 10
-36.4155
 20
-22.6245
 30
0.0
 10
-36.4155
 20
-22.6245
 30
0.0
 10
-36.4155
 20
-22.6245
 30
0.0
 10
-36.389
 20
-23.0008
 30
0.0
 10
-36.389
 20
-23.0008
 30
0.0
 10
-36.389
 20
-23.0008
 30
0.0
 10
-36.1403
 20
-26.9728
 30
0.0
 10
-32.8464
 20
-30.0668
 30
0.0
 10
-28.8668
 20
-30.0668
 30
0.0
 10
-28.8668
 20
-30.0668
 30
0.0
 10
-24.8869
 20
-30.0668
 30
0.0
 10
-21.593
 20
-26.9728
 30
0.0
 10
-21.3443
 20
-23.0008
 30
0.0
 10
-21.3443
 20
-23.0008
 30
0.0
 10
-21.3443
 20
-23.0008
 30
0.0
 10
-21.2543
 20
-22.6374
 30
0.0
 10
-21.2543
 20
-22.6374
 30
0.0
 10
-21.2543
 20
-22.6374
 30
0.0
 10
-21.2543
 20
-22.6374
 30
0.0
 10
-20.5762
 20
-22.6163
 30
0.0
 10
-20.5762
 20
-22.6163
 30
0.0
  0
SPLINE
  5
80
330
1F
100
AcDbEntity
  8
VRSTVA_1
 62
   250
100
AcDbSpline
210
0.0
220
0.0
230
1.0
 70
     8
 71
     3
 72
   128
 73
   124
 74
     0
 42
0.0000000001
 43
0.0000000001
 40
0.0
 40
0.0
 40
0.0
 40
0.0
 40
0.03125
 40
0.03125
 40
0.03125
 40
0.03125
 40
0.0625
 40
0.0625
 40
0.0625
 40
0.0625
 40
0.09375
 40
0.09375
 40
0.09375
 40
0.09375
 40
0.125
 40
0.125
 40
0.125
 40
0.125
 40
0.15625
 40
0.15625
 40
0.15625
 40
0.15625
 40
0.1875
 40
0.1875
 40
0.1875
 40
0.1875
 40
0.21875
 40
0.21875
 40
0.21875
 40
0.21875
 40
0.25
 40
0.25
 40
0.25
 40
0.25
 40
0.28125
 40
0.28125
 40
0.28125
 40
0.28125
 40
0.3125
 40
0.3125
 40
0.3125
 40
0.3125
 40
0.34375
 40
0.34375
 40
0.34375
 40
0.34375
 40
0.375
 40
0.375
 40
0.375
 40
0.375
 40
0.40625
 40
0.40625
 40
0.40625
 40
0.40625
 40
0.4375
 40
0.4375
 40
0.4375
 40
0.4375
 40
0.46875
 40
0.46875
 40
0.46875
 40
0.46875
 40
0.5
 40
0.5
 40
0.5
 40
0.5
 40
0.53125
 40
0.53125
 40
0.53125
 40
0.53125
 40
0.5625
 40
0.5625
 40
0.5625
 40
0.5625
 40
0.59375
 40
0.59375
 40
0.59375
 40
0.59375
 40
0.625
 40
0.625
 40
0.625
 40
0.625
 40
0.65625
 40
0.65625
 40
0.65625
 40
0.65625
 40
0.6875
 40
0.6875
 40
0.6875
 40
0.6875
 40
0.71875
 40
0.71875
 40
0.71875
 40
0.71875
 40
0.75
 40
0.75
 40
0.75
 40
0.75
 40
0.78125
 40
0.78125
 40
0.78125
 40
0.78125
 40
0.8125
 40
0.8125
 40
0.8125
 40
0.8125
 40
0.84375
 40
0.84375
 40
0.84375
 40
0.84375
 40
0.875
 40
0.875
 40
0.875
 40
0.875
 40
0.90625
 40
0.90625
 40
0.90625
 40
0.90625
 40
0.9375
 40
0.9375
 40
0.9375
 40
0.9375
 40
1.0
 40
1.0
 40
1.0
 40
1.0
 10
-36.8308
 20
-22.4435
 30
0.0
 10
-36.8308
 20
-22.4435
 30
0.0
 10
-36.8484
 20
-20.0191
 30
0.0
 10
-36.8484
 20
-20.0191
 30
0.0
 10
-36.8484
 20
-20.0191
 30
0.0
 10
-36.8484
 20
-20.0191
 30
0.0
 10
-34.9765
 20
-20.0546
 30
0.0
 10
-34.9765
 20
-20.0546
 30
0.0
 10
-34.9765
 20
-20.0546
 30
0.0
 10
-34.9765
 20
-20.0546
 30
0.0
 10
-34.9846
 20
-22.0272
 30
0.0
 10
-34.9846
 20
-22.0272
 30
0.0
 10
-34.9846
 20
-22.0272
 30
0.0
 10
-34.9846
 20
-22.0272
 30
0.0
 10
-34.9732
 20
-22.1574
 30
0.0
 10
-34.9732
 20
-22.1574
 30
0.0
 10
-34.9732
 20
-22.1574
 30
0.0
 10
-34.9732
 20
-22.1574
 30
0.0
 10
-34.9398
 20
-22.2786
 30
0.0
 10
-34.9398
 20
-22.2786
 30
0.0
 10
-34.9398
 20
-22.2786
 30
0.0
 10
-34.9398
 20
-22.2786
 30
0.0
 10
-34.886
 20
-22.3827
 30
0.0
 10
-34.886
 20
-22.3827
 30
0.0
 10
-34.886
 20
-22.3827
 30
0.0
 10
-34.886
 20
-22.3827
 30
0.0
 10
-34.8151
 20
-22.4626
 30
0.0
 10
-34.8151
 20
-22.4626
 30
0.0
 10
-34.8151
 20
-22.4626
 30
0.0
 10
-34.8151
 20
-22.4626
 30
0.0
 10
-34.7315
 20
-22.5126
 30
0.0
 10
-34.7315
 20
-22.5126
 30
0.0
 10
-34.7315
 20
-22.5126
 30
0.0
 10
-34.7315
 20
-22.5126
 30
0.0
 10
-34.6455
 20
-22.5288
 30
0.0
 10
-34.6455
 20
-22.5288
 30
0.0
 10
-34.6455
 20
-22.5288
 30
0.0
 10
-34.6455
 20
-22.5288
 30
0.0
 10
-34.6403
 20
-22.5298
 30
0.0
 10
-34.6403
 20
-22.5298
 30
0.0
 10
-34.6403
 20
-22.5298
 30
0.0
 10
-34.6403
 20
-22.5298
 30
0.0
 10
-34.6378
 20
-22.5288
 30
0.0
 10
-34.6378
 20
-22.5288
 30
0.0
 10
-34.6378
 20
-22.5288
 30
0.0
 10
-34.6378
 20
-22.5288
 30
0.0
 10
-34.429
 20
-22.4435
 30
0.0
 10
-34.429
 20
-22.4435
 30
0.0
 10
-34.429
 20
-22.4435
 30
0.0
 10
-34.429
 20
-22.4435
 30
0.0
 10
-34.2525
 20
-22.2134
 30
0.0
 10
-34.2525
 20
-22.2134
 30
0.0
 10
-34.2525
 20
-22.2134
 30
0.0
 10
-34.2525
 20
-22.2134
 30
0.0
 10
-34.2701
 20
-22.0366
 30
0.0
 10
-34.2701
 20
-22.0366
 30
0.0
 10
-34.2701
 20
-22.0366
 30
0.0
 10
-34.2701
 20
-22.0366
 30
0.0
 10
-34.2701
 20
-20.037
 30
0.0
 10
-34.2701
 20
-20.037
 30
0.0
 10
-34.2701
 20
-20.037
 30
0.0
 10
-34.2701
 20
-20.037
 30
0.0
 10
-29.3785
 20
-20.0015
 30
0.0
 10
-29.3785
 20
-20.0015
 30
0.0
 10
-29.3785
 20
-20.0015
 30
0.0
 10
-29.3785
 20
-20.0015
 30
0.0
 10
-29.3785
 20
-22.1251
 30
0.0
 10
-29.3785
 20
-22.1251
 30
0.0
 10
-29.3785
 20
-22.1251
 30
0.0
 10
-29.3785
 20
-22.1251
 30
0.0
 10
-29.0783
 20
-22.4435
 30
0.0
 10
-29.0783
 20
-22.4435
 30
0.0
 10
-29.0783
 20
-22.4435
 30
0.0
 10
-29.0783
 20
-22.4435
 30
0.0
 10
-28.6191
 20
-22.4965
 30
0.0
 10
-28.6191
 20
-22.4965
 30
0.0
 10
-28.6191
 20
-22.4965
 30
0.0
 10
-28.6191
 20
-22.4965
 30
0.0
 10
-28.4602
 20
-22.2488
 30
0.0
 10
-28.4602
 20
-22.2488
 30
0.0
 10
-28.4602
 20
-22.2488
 30
0.0
 10
-28.4602
 20
-22.2488
 30
0.0
 10
-28.3543
 20
-21.9481
 30
0.0
 10
-28.3543
 20
-21.9481
 30
0.0
 10
-28.3543
 20
-21.9481
 30
0.0
 10
-28.3543
 20
-21.9481
 30
0.0
 10
-28.3719
 20
-19.9485
 30
0.0
 10
-28.3719
 20
-19.9485
 30
0.0
 10
-28.3719
 20
-19.9485
 30
0.0
 10
-28.3719
 20
-19.9485
 30
0.0
 10
-23.4273
 20
-19.9661
 30
0.0
 10
-23.4273
 20
-19.9661
 30
0.0
 10
-23.4273
 20
-19.9661
 30
0.0
 10
-23.4273
 20
-19.9661
 30
0.0
 10
-23.4925
 20
-22.1531
 30
0.0
 10
-23.4925
 20
-22.1531
 30
0.0
 10
-23.4925
 20
-22.1531
 30
0.0
 10
-23.4925
 20
-22.1531
 30
0.0
 10
-23.3675
 20
-22.4209
 30
0.0
 10
-23.3675
 20
-22.4209
 30
0.0
 10
-23.3675
 20
-22.4209
 30
0.0
 10
-23.3675
 20
-22.4209
 30
0.0
 10
-23.064
 20
-22.528
 30
0.0
 10
-23.064
 20
-22.528
 30
0.0
 10
-23.064
 20
-22.528
 30
0.0
 10
-23.064
 20
-22.528
 30
0.0
 10
-22.7606
 20
-22.3317
 30
0.0
 10
-22.7606
 20
-22.3317
 30
0.0
 10
-22.7606
 20
-22.3317
 30
0.0
 10
-22.7606
 20
-22.3317
 30
0.0
 10
-22.7427
 20
-22.046
 30
0.0
 10
-22.7427
 20
-22.046
 30
0.0
 10
-22.7427
 20
-22.046
 30
0.0
 10
-22.7427
 20
-22.046
 30
0.0
 10
-22.7784
 20
-19.9574
 30
0.0
 10
-22.7784
 20
-19.9574
 30
0.0
 10
-22.7784
 20
-19.9574
 30
0.0
 10
-22.7784
 20
-19.9574
 30
0.0
 10
-20.9219
 20
-20.0288
 30
0.0
 10
-20.9219
 20
-20.0288
 30
0.0
 10
-20.9219
 20
-20.0288
 30
0.0
 10
-20.9219
 20
-20.0288
 30
0.0
 10
-20.9219
 20
-22.3317
 30
0.0
 10
-20.9219
 20
-22.3317
 30
0.0
  0
SPLINE
  5
81
330
1F
100
AcDbEntity
  8
VRSTVA_1
 62
   250
100
AcDbSpline
210
0.0
220
0.0
230
1.0
 70
    27
 71
     3
 72
    12
 73
     8
 74
     0
 42
0.0000000001
 43
0.0000000001
 40
0.0
 40
0.0
 40
0.0
 40
0.0
 40
0.3333333333333333
 40
0.3333333333333333
 40
0.3333333333333333
 40
0.3333333333333333
 40
1.0
 40
1.0
 40
1.0
 40
1.0
 10
-36.5295
 20
-18.6361
 30
0.0
 10
-36.5295
 20
-18.6361
 30
0.0
 10
-21.2035
 20
-18.6361
 30
0.0
 10
-21.2035
 20
-18.6361
 30
0.0
 10
-21.2035
 20
-18.6361
 30
0.0
 10
-21.2035
 20
-18.6361
 30
0.0
 10
-36.5295
 20
-18.6361
 30
0.0
 10
-36.5295
 20
-18.6361
 30
0.0
  0
SPLINE
  5
82
330
1F
100
AcDbEntity
  8
VRSTVA_1
 62
   250
100
AcDbSpline
210
0.0
220
0.0
230
1.0
 70
    27
 71
     3
 72
    12
 73
     8
 74
     0
 42
0.0000000001
 43
0.0000000001
 40
0.0
 40
0.0
 40
0.0
 40
0.0
 40
0.3333333333333333
 40
0.3333333333333333
 40
0.3333333333333333
 40
0.3333333333333333
 40
1.0
 40
1.0
 40
1.0
 40
1.0
 10
-20.7022
 20
-19.2637
 30
0.0
 10
-20.7022
 20
-19.2637
 30
0.0
 10
-37.0316
 20
-19.2637
 30
0.0
 10
-37.0316
 20
-19.2637
 30
0.0
 10
-37.0316
 20
-19.2637
 30
0.0
 10
-37.0316
 20
-19.2637
 30
0.0
 10
-20.7022
 20
-19.2637
 30
0.0
 10
-20.7022
 20
-19.2637
 30
0.0
  0
SPLINE
  5
83
330
1F
100
AcDbEntity
  8
VRSTVA_1
 62
   250
100
AcDbSpline
210
0.0
220
0.0
230
1.0
 70
    27
 71
     3
 72
    20
 73
    16
 74
     0
 42
0.0000000001
 43
0.0000000001
 40
0.0
 40
0.0
 40
0.0
 40
0.0
 40
0.2
 40
0.2
 40
0.2
 40
0.2
 40
0.4
 40
0.4
 40
0.4
 40
0.4
 40
0.6
 40
0.6
 40
0.6
 40
0.6
 40
1.0
 40
1.0
 40
1.0
 40
1.0
 10
-37.0316
 20
-22.5288
 30
0.0
 10
-37.0316
 20
-22.5288
 30
0.0
 10
-34.6455
 20
-22.5288
 30
0.0
 10
-34.6455
 20
-22.5288
 30
0.0
 10
-34.6455
 20
-22.5288
 30
0.0
 10
-34.6455
 20
-22.5288
 30
0.0
 10
-34.6378
 20
-22.5288
 30
0.0
 10
-34.6378
 20
-22.5288
 30
0.0
 10
-34.6378
 20
-22.5288
 30
0.0
 10
-34.6378
 20
-22.5288
 30
0.0
 10
-20.7022
 20
-22.5288
 30
0.0
 10
-20.7022
 20
-22.5288
 30
0.0
 10
-20.7022
 20
-22.5288
 30
0.0
 10
-20.7022
 20
-22.5288
 30
0.0
 10
-37.0316
 20
-22.5288
 30
0.0
 10
-37.0316
 20
-22.5288
 30
0.0
  0
SPLINE
  5
84
330
1F
100
AcDbEntity
  8
VRSTVA_1
 62
   250
100
AcDbSpline
210
0.0
220
0.0
230
1.0
 70
     8
 71
     3
 72
    76
 73
    72
 74
     0
 42
0.0000000001
 43
0.0000000001
 40
0.0
 40
0.0
 40
0.0
 40
0.0
 40
0.0526315789473684
 40
0.0526315789473684
 40
0.0526315789473684
 40
0.0526315789473684
 40
0.1052631578947368
 40
0.1052631578947368
 40
0.1052631578947368
 40
0.1052631578947368
 40
0.1578947368421053
 40
0.1578947368421053
 40
0.1578947368421053
 40
0.1578947368421053
 40
0.2105263157894737
 40
0.2105263157894737
 40
0.2105263157894737
 40
0.2105263157894737
 40
0.2631578947368421
 40
0.2631578947368421
 40
0.2631578947368421
 40
0.2631578947368421
 40
0.3157894736842105
 40
0.3157894736842105
 40
0.3157894736842105
 40
0.3157894736842105
 40
0.3684210526315789
 40
0.3684210526315789
 40
0.3684210526315789
 40
0.3684210526315789
 40
0.4210526315789473
 40
0.4210526315789473
 40
0.4210526315789473
 40
0.4210526315789473
 40
0.4736842105263158
 40
0.4736842105263158
 40
0.4736842105263158
 40
0.4736842105263158
 40
0.5263157894736842
 40
0.5263157894736842
 40
0.5263157894736842
 40
0.5263157894736842
 40
0.5789473684210527
 40
0.5789473684210527
 40
0.5789473684210527
 40
0.5789473684210527
 40
0.631578947368421
 40
0.631578947368421
 40
0.631578947368421
 40
0.631578947368421
 40
0.6842105263157895
 40
0.6842105263157895
 40
0.6842105263157895
 40
0.6842105263157895
 40
0.7368421052631579
 40
0.7368421052631579
 40
0.7368421052631579
 40
0.7368421052631579
 40
0.7894736842105263
 40
0.7894736842105263
 40
0.7894736842105263
 40
0.7894736842105263
 40
0.8421052631578947
 40
0.8421052631578947
 40
0.8421052631578947
 40
0.8421052631578947
 40
0.8947368421052632
 40
0.8947368421052632
 40
0.8947368421052632
 40
0.8947368421052632
 40
1.0
 40
1.0
 40
1.0
 40
1.0
 10
-37.04
 20
-22.5483
 30
0.0
 10
-37.04
 20
-22.5483
 30
0.0
 10
-37.0319
 20
-19.138
 30
0.0
 10
-37.0319
 20
-19.138
 30
0.0
 10
-37.0319
 20
-19.138
 30
0.0
 10
-37.0319
 20
-18.8605
 30
0.0
 10
-36.807
 20
-18.6354
 30
0.0
 10
-36.5293
 20
-18.6354
 30
0.0
 10
-36.5293
 20
-18.6354
 30
0.0
 10
-36.5293
 20
-18.6354
 30
0.0
 10
-36.3081
 20
-18.5094
 30
0.0
 10
-36.3081
 20
-18.5094
 30
0.0
 10
-36.3081
 20
-18.5094
 30
0.0
 10
-36.3081
 20
-18.5094
 30
0.0
 10
-36.1519
 20
-18.3723
 30
0.0
 10
-36.1519
 20
-18.3723
 30
0.0
 10
-36.1519
 20
-18.3723
 30
0.0
 10
-36.1519
 20
-18.3723
 30
0.0
 10
-36.1128
 20
-18.177
 30
0.0
 10
-36.1128
 20
-18.177
 30
0.0
 10
-36.1128
 20
-18.177
 30
0.0
 10
-36.1128
 20
-18.177
 30
0.0
 10
-36.1333
 20
2.9218
 30
0.0
 10
-36.1333
 20
2.9218
 30
0.0
 10
-36.1333
 20
2.9218
 30
0.0
 10
-36.1333
 20
2.9218
 30
0.0
 10
-36.0374
 20
3.3411
 30
0.0
 10
-36.0374
 20
3.3411
 30
0.0
 10
-36.0374
 20
3.3411
 30
0.0
 10
-36.0374
 20
3.3411
 30
0.0
 10
-35.6952
 20
3.5127
 30
0.0
 10
-35.6952
 20
3.5127
 30
0.0
 10
-35.6952
 20
3.5127
 30
0.0
 10
-35.6952
 20
3.5127
 30
0.0
 10
-35.2767
 20
3.5699
 30
0.0
 10
-35.2767
 20
3.5699
 30
0.0
 10
-35.2767
 20
3.5699
 30
0.0
 10
-35.2767
 20
3.5699
 30
0.0
 10
-26.7308
 20
4.0455
 30
0.0
 10
-26.7308
 20
4.0455
 30
0.0
 10
-26.7308
 20
4.0455
 30
0.0
 10
-26.7308
 20
4.0455
 30
0.0
 10
-26.7186
 20
4.0462
 30
0.0
 10
-26.7186
 20
4.0462
 30
0.0
 10
-26.7186
 20
4.0462
 30
0.0
 10
-26.7186
 20
4.0462
 30
0.0
 10
-22.0782
 20
3.5888
 30
0.0
 10
-22.0782
 20
3.5888
 30
0.0
 10
-22.0782
 20
3.5888
 30
0.0
 10
-22.0782
 20
3.5888
 30
0.0
 10
-21.7358
 20
3.3793
 30
0.0
 10
-21.7358
 20
3.3793
 30
0.0
 10
-21.7358
 20
3.3793
 30
0.0
 10
-21.7358
 20
3.3793
 30
0.0
 10
-21.6218
 20
3.0552
 30
0.0
 10
-21.6218
 20
3.0552
 30
0.0
 10
-21.6218
 20
3.0552
 30
0.0
 10
-21.6218
 20
3.0552
 30
0.0
 10
-21.6218
 20
2.8837
 30
0.0
 10
-21.6218
 20
2.8837
 30
0.0
 10
-21.6218
 20
2.8837
 30
0.0
 10
-21.6218
 20
2.8837
 30
0.0
 10
-19.853
 20
2.8457
 30
0.0
 10
-19.853
 20
2.8457
 30
0.0
 10
-19.853
 20
2.8457
 30
0.0
 10
-19.853
 20
2.8457
 30
0.0
 10
-19.853
 20
3.3411
 30
0.0
 10
-19.853
 20
3.3411
 30
0.0
 10
-19.853
 20
3.3411
 30
0.0
 10
-19.853
 20
3.3411
 30
0.0
 10
-19.3204
 20
3.3411
 30
0.0
 10
-19.3204
 20
3.3411
 30
0.0
  0
SPLINE
  5
85
330
1F
100
AcDbEntity
  8
VRSTVA_1
 62
   250
100
AcDbSpline
210
0.0
220
0.0
230
1.0
 70
     8
 71
     3
 72
    16
 73
    12
 74
     0
 42
0.0000000001
 43
0.0000000001
 40
0.0
 40
0.0
 40
0.0
 40
0.0
 40
0.25
 40
0.25
 40
0.25
 40
0.25
 40
0.5
 40
0.5
 40
0.5
 40
0.5
 40
1.0
 40
1.0
 40
1.0
 40
1.0
 10
-36.5127
 20
6.8958
 30
0.0
 10
-36.5127
 20
6.8958
 30
0.0
 10
-36.5169
 20
6.1113
 30
0.0
 10
-36.5169
 20
6.1113
 30
0.0
 10
-36.5169
 20
6.1113
 30
0.0
 10
-36.5169
 20
6.1113
 30
0.0
 10
-25.99
 20
6.1113
 30
0.0
 10
-25.99
 20
6.1113
 30
0.0
 10
-25.99
 20
6.1113
 30
0.0
 10
-25.99
 20
6.1113
 30
0.0
 10
-25.9897
 20
6.8648
 30
0.0
 10
-25.9897
 20
6.8648
 30
0.0
  0
SPLINE
  5
86
330
1F
100
AcDbEntity
  8
VRSTVA_1
 62
   250
100
AcDbSpline
210
0.0
220
0.0
230
1.0
 70
     8
 71
     3
 72
    40
 73
    36
 74
     0
 42
0.0000000001
 43
0.0000000001
 40
0.0
 40
0.0
 40
0.0
 40
0.0
 40
0.1
 40
0.1
 40
0.1
 40
0.1
 40
0.2
 40
0.2
 40
0.2
 40
0.2
 40
0.3
 40
0.3
 40
0.3
 40
0.3
 40
0.4
 40
0.4
 40
0.4
 40
0.4
 40
0.5
 40
0.5
 40
0.5
 40
0.5
 40
0.6
 40
0.6
 40
0.6
 40
0.6
 40
0.7
 40
0.7
 40
0.7
 40
0.7
 40
0.8
 40
0.8
 40
0.8
 40
0.8
 40
1.0
 40
1.0
 40
1.0
 40
1.0
 10
-20.6898
 20
-22.5196
 30
0.0
 10
-20.6898
 20
-22.5196
 30
0.0
 10
-20.6707
 20
-19.2989
 30
0.0
 10
-20.6707
 20
-19.2989
 30
0.0
 10
-20.6707
 20
-19.2989
 30
0.0
 10
-20.6707
 20
-19.2989
 30
0.0
 10
-20.728
 20
-19.0321
 30
0.0
 10
-20.728
 20
-19.0321
 30
0.0
 10
-20.728
 20
-19.0321
 30
0.0
 10
-20.728
 20
-19.0321
 30
0.0
 10
-20.9752
 20
-18.6701
 30
0.0
 10
-20.9752
 20
-18.6701
 30
0.0
 10
-20.9752
 20
-18.6701
 30
0.0
 10
-20.9752
 20
-18.6701
 30
0.0
 10
-21.2291
 20
-18.6354
 30
0.0
 10
-21.2291
 20
-18.6354
 30
0.0
 10
-21.2291
 20
-18.6354
 30
0.0
 10
-21.4373
 20
-18.6354
 30
0.0
 10
-21.6059
 20
-18.4668
 30
0.0
 10
-21.6059
 20
-18.2588
 30
0.0
 10
-21.6059
 20
-18.2588
 30
0.0
 10
-21.6059
 20
-18.2588
 30
0.0
 10
-21.6094
 20
-8.2555
 30
0.0
 10
-21.6094
 20
-8.2555
 30
0.0
 10
-21.6094
 20
-8.2555
 30
0.0
 10
-21.6094
 20
-8.2555
 30
0.0
 10
-19.9405
 20
-8.2555
 30
0.0
 10
-19.9405
 20
-8.2555
 30
0.0
 10
-19.9405
 20
-8.2555
 30
0.0
 10
-19.9405
 20
-8.2555
 30
0.0
 10
-19.9175
 20
-8.7198
 30
0.0
 10
-19.9175
 20
-8.7198
 30
0.0
 10
-19.9175
 20
-8.7198
 30
0.0
 10
-19.9175
 20
-8.7198
 30
0.0
 10
-19.4538
 20
-8.7432
 30
0.0
 10
-19.4538
 20
-8.7432
 30
0.0
  0
SPLINE
  5
87
330
1F
100
AcDbEntity
  8
VRSTVA_1
 62
   250
100
AcDbSpline
210
0.0
220
0.0
230
1.0
 70
     8
 71
     3
 72
    92
 73
    88
 74
     0
 42
0.0000000001
 43
0.0000000001
 40
0.0
 40
0.0
 40
0.0
 40
0.0
 40
0.0434782608695652
 40
0.0434782608695652
 40
0.0434782608695652
 40
0.0434782608695652
 40
0.0869565217391304
 40
0.0869565217391304
 40
0.0869565217391304
 40
0.0869565217391304
 40
0.1304347826086956
 40
0.1304347826086956
 40
0.1304347826086956
 40
0.1304347826086956
 40
0.1739130434782609
 40
0.1739130434782609
 40
0.1739130434782609
 40
0.1739130434782609
 40
0.2173913043478261
 40
0.2173913043478261
 40
0.2173913043478261
 40
0.2173913043478261
 40
0.2608695652173913
 40
0.2608695652173913
 40
0.2608695652173913
 40
0.2608695652173913
 40
0.3043478260869565
 40
0.3043478260869565
 40
0.3043478260869565
 40
0.3043478260869565
 40
0.3478260869565217
 40
0.3478260869565217
 40
0.3478260869565217
 40
0.3478260869565217
 40
0.391304347826087
 40
0.391304347826087
 40
0.391304347826087
 40
0.391304347826087
 40
0.4347826086956522
 40
0.4347826086956522
 40
0.4347826086956522
 40
0.4347826086956522
 40
0.4782608695652174
 40
0.4782608695652174
 40
0.4782608695652174
 40
0.4782608695652174
 40
0.5217391304347826
 40
0.5217391304347826
 40
0.5217391304347826
 40
0.5217391304347826
 40
0.5652173913043478
 40
0.5652173913043478
 40
0.5652173913043478
 40
0.5652173913043478
 40
0.6086956521739131
 40
0.6086956521739131
 40
0.6086956521739131
 40
0.6086956521739131
 40
0.6521739130434783
 40
0.6521739130434783
 40
0.6521739130434783
 40
0.6521739130434783
 40
0.6956521739130435
 40
0.6956521739130435
 40
0.6956521739130435
 40
0.6956521739130435
 40
0.7391304347826086
 40
0.7391304347826086
 40
0.7391304347826086
 40
0.7391304347826086
 40
0.782608695652174
 40
0.782608695652174
 40
0.782608695652174
 40
0.782608695652174
 40
0.8260869565217391
 40
0.8260869565217391
 40
0.8260869565217391
 40
0.8260869565217391
 40
0.8695652173913043
 40
0.8695652173913043
 40
0.8695652173913043
 40
0.8695652173913043
 40
0.9130434782608695
 40
0.9130434782608695
 40
0.9130434782608695
 40
0.9130434782608695
 40
1.0
 40
1.0
 40
1.0
 40
1.0
 10
-19.9023
 20
2.8817
 30
0.0
 10
-19.9023
 20
2.8817
 30
0.0
 10
-21.6059
 20
2.8703
 30
0.0
 10
-21.6059
 20
2.8703
 30
0.0
 10
-21.6059
 20
2.8703
 30
0.0
 10
-21.6059
 20
2.8703
 30
0.0
 10
-21.6389
 20
2.8274
 30
0.0
 10
-21.6389
 20
2.8274
 30
0.0
 10
-21.6389
 20
2.8274
 30
0.0
 10
-21.6389
 20
2.8274
 30
0.0
 10
-21.7673
 20
2.6575
 30
0.0
 10
-21.7673
 20
2.6575
 30
0.0
 10
-21.7673
 20
2.6575
 30
0.0
 10
-21.7673
 20
2.6575
 30
0.0
 10
-22.0148
 20
2.3238
 30
0.0
 10
-22.0148
 20
2.3238
 30
0.0
 10
-22.0148
 20
2.3238
 30
0.0
 10
-22.0148
 20
2.3238
 30
0.0
 10
-22.3631
 20
1.8354
 30
0.0
 10
-22.3631
 20
1.8354
 30
0.0
 10
-22.3631
 20
1.8354
 30
0.0
 10
-22.3631
 20
1.8354
 30
0.0
 10
-22.7695
 20
1.2279
 30
0.0
 10
-22.7695
 20
1.2279
 30
0.0
 10
-22.7695
 20
1.2279
 30
0.0
 10
-22.7695
 20
1.2279
 30
0.0
 10
-23.1888
 20
0.5352
 30
0.0
 10
-23.1888
 20
0.5352
 30
0.0
 10
-23.1888
 20
0.5352
 30
0.0
 10
-23.1888
 20
0.5352
 30
0.0
 10
-23.577
 20
-0.2138
 30
0.0
 10
-23.577
 20
-0.2138
 30
0.0
 10
-23.577
 20
-0.2138
 30
0.0
 10
-23.577
 20
-0.2138
 30
0.0
 10
-23.8936
 20
-0.9961
 30
0.0
 10
-23.8936
 20
-0.9961
 30
0.0
 10
-23.8936
 20
-0.9961
 30
0.0
 10
-23.8936
 20
-0.9961
 30
0.0
 10
-24.1086
 20
-1.8165
 30
0.0
 10
-24.1086
 20
-1.8165
 30
0.0
 10
-24.1086
 20
-1.8165
 30
0.0
 10
-24.1086
 20
-1.8165
 30
0.0
 10
-24.1879
 20
-2.6796
 30
0.0
 10
-24.1879
 20
-2.6796
 30
0.0
 10
-24.1879
 20
-2.6796
 30
0.0
 10
-24.1879
 20
-2.6796
 30
0.0
 10
-24.1094
 20
-3.5436
 30
0.0
 10
-24.1094
 20
-3.5436
 30
0.0
 10
-24.1094
 20
-3.5436
 30
0.0
 10
-24.1094
 20
-3.5436
 30
0.0
 10
-23.8939
 20
-4.367
 30
0.0
 10
-23.8939
 20
-4.367
 30
0.0
 10
-23.8939
 20
-4.367
 30
0.0
 10
-23.8939
 20
-4.367
 30
0.0
 10
-23.5765
 20
-5.151
 30
0.0
 10
-23.5765
 20
-5.151
 30
0.0
 10
-23.5765
 20
-5.151
 30
0.0
 10
-23.5765
 20
-5.151
 30
0.0
 10
-23.1873
 20
-5.9018
 30
0.0
 10
-23.1873
 20
-5.9018
 30
0.0
 10
-23.1873
 20
-5.9018
 30
0.0
 10
-23.1873
 20
-5.9018
 30
0.0
 10
-22.7678
 20
-6.5945
 30
0.0
 10
-22.7678
 20
-6.5945
 30
0.0
 10
-22.7678
 20
-6.5945
 30
0.0
 10
-22.7678
 20
-6.5945
 30
0.0
 10
-22.3621
 20
-7.2007
 30
0.0
 10
-22.3621
 20
-7.2007
 30
0.0
 10
-22.3621
 20
-7.2007
 30
0.0
 10
-22.3621
 20
-7.2007
 30
0.0
 10
-22.0153
 20
-7.6872
 30
0.0
 10
-22.0153
 20
-7.6872
 30
0.0
 10
-22.0153
 20
-7.6872
 30
0.0
 10
-22.0153
 20
-7.6872
 30
0.0
 10
-21.7683
 20
-8.0204
 30
0.0
 10
-21.7683
 20
-8.0204
 30
0.0
 10
-21.7683
 20
-8.0204
 30
0.0
 10
-21.7683
 20
-8.0204
 30
0.0
 10
-21.6391
 20
-8.1907
 30
0.0
 10
-21.6391
 20
-8.1907
 30
0.0
 10
-21.6391
 20
-8.1907
 30
0.0
 10
-21.6391
 20
-8.1907
 30
0.0
 10
-21.6059
 20
-8.2344
 30
0.0
 10
-21.6059
 20
-8.2344
 30
0.0
 10
-21.6059
 20
-8.2344
 30
0.0
 10
-21.6059
 20
-8.2344
 30
0.0
 10
-19.8498
 20
-8.2617
 30
0.0
 10
-19.8498
 20
-8.2617
 30
0.0
  0
SPLINE
  5
88
330
1F
100
AcDbEntity
  8
VRSTVA_1
 62
   250
100
AcDbSpline
210
0.0
220
0.0
230
1.0
 70
    27
 71
     3
 72
    12
 73
     8
 74
     0
 42
0.0000000001
 43
0.0000000001
 40
0.0
 40
0.0
 40
0.0
 40
0.0
 40
0.3333333333333333
 40
0.3333333333333333
 40
0.3333333333333333
 40
0.3333333333333333
 40
1.0
 40
1.0
 40
1.0
 40
1.0
 10
-35.7758
 20
3.5347
 30
0.0
 10
-35.7758
 20
3.5347
 30
0.0
 10
-35.7758
 20
6.1116
 30
0.0
 10
-35.7758
 20
6.1116
 30
0.0
 10
-35.7758
 20
6.1116
 30
0.0
 10
-35.7758
 20
6.1116
 30
0.0
 10
-35.7758
 20
3.5347
 30
0.0
 10
-35.7758
 20
3.5347
 30
0.0
  0
SPLINE
  5
89
330
1F
100
AcDbEntity
  8
VRSTVA_1
 62
   250
100
AcDbSpline
210
0.0
220
0.0
230
1.0
 70
    27
 71
     3
 72
    36
 73
    32
 74
     0
 42
0.0000000001
 43
0.0000000001
 40
0.0
 40
0.0
 40
0.0
 40
0.0
 40
0.1111111111111111
 40
0.1111111111111111
 40
0.1111111111111111
 40
0.1111111111111111
 40
0.2222222222222222
 40
0.2222222222222222
 40
0.2222222222222222
 40
0.2222222222222222
 40
0.3333333333333333
 40
0.3333333333333333
 40
0.3333333333333333
 40
0.3333333333333333
 40
0.4444444444444444
 40
0.4444444444444444
 40
0.4444444444444444
 40
0.4444444444444444
 40
0.5555555555555556
 40
0.5555555555555556
 40
0.5555555555555556
 40
0.5555555555555556
 40
0.6666666666666666
 40
0.6666666666666666
 40
0.6666666666666666
 40
0.6666666666666666
 40
0.7777777777777778
 40
0.7777777777777778
 40
0.7777777777777778
 40
0.7777777777777778
 40
1.0
 40
1.0
 40
1.0
 40
1.0
 10
-19.8213
 20
3.3223
 30
0.0
 10
-19.8213
 20
3.3223
 30
0.0
 10
-19.8213
 20
2.8817
 30
0.0
 10
-19.8213
 20
2.8817
 30
0.0
 10
-19.8213
 20
2.8817
 30
0.0
 10
-19.8213
 20
2.8817
 30
0.0
 10
-19.8213
 20
2.599
 30
0.0
 10
-19.8213
 20
2.599
 30
0.0
 10
-19.8213
 20
2.599
 30
0.0
 10
-19.8213
 20
2.599
 30
0.0
 10
-19.8213
 20
-6.6354
 30
0.0
 10
-19.8213
 20
-6.6354
 30
0.0
 10
-19.8213
 20
-6.6354
 30
0.0
 10
-19.8213
 20
-6.6354
 30
0.0
 10
-19.8213
 20
-8.6866
 30
0.0
 10
-19.8213
 20
-8.6866
 30
0.0
 10
-19.8213
 20
-8.6866
 30
0.0
 10
-19.8213
 20
-8.6866
 30
0.0
 10
-19.8213
 20
-6.6354
 30
0.0
 10
-19.8213
 20
-6.6354
 30
0.0
 10
-19.8213
 20
-6.6354
 30
0.0
 10
-19.8213
 20
-6.6354
 30
0.0
 10
-19.8213
 20
2.599
 30
0.0
 10
-19.8213
 20
2.599
 30
0.0
 10
-19.8213
 20
2.599
 30
0.0
 10
-19.8213
 20
2.599
 30
0.0
 10
-19.8213
 20
2.8817
 30
0.0
 10
-19.8213
 20
2.8817
 30
0.0
 10
-19.8213
 20
2.8817
 30
0.0
 10
-19.8213
 20
2.8817
 30
0.0
 10
-19.8213
 20
3.3223
 30
0.0
 10
-19.8213
 20
3.3223
 30
0.0
  0
SPLINE
  5
8A
330
1F
100
AcDbEntity
  8
VRSTVA_1
 62
   250
100
AcDbSpline
210
0.0
220
0.0
230
1.0
 70
    27
 71
     3
 72
    20
 73
    16
 74
     0
 42
0.0000000001
 43
0.0000000001
 40
0.0
 40
0.0
 40
0.0
 40
0.0
 40
0.2
 40
0.2
 40
0.2
 40
0.2
 40
0.4
 40
0.4
 40
0.4
 40
0.4
 40
0.6
 40
0.6
 40
0.6
 40
0.6
 40
1.0
 40
1.0
 40
1.0
 40
1.0
 10
-26.7308
 20
4.0452
 30
0.0
 10
-26.7308
 20
4.0452
 30
0.0
 10
-26.7308
 20
4.0455
 30
0.0
 10
-26.7308
 20
4.0455
 30
0.0
 10
-26.7308
 20
4.0455
 30
0.0
 10
-26.7308
 20
4.0455
 30
0.0
 10
-26.7308
 20
6.1116
 30
0.0
 10
-26.7308
 20
6.1116
 30
0.0
 10
-26.7308
 20
6.1116
 30
0.0
 10
-26.7308
 20
6.1116
 30
0.0
 10
-26.7308
 20
4.0455
 30
0.0
 10
-26.7308
 20
4.0455
 30
0.0
 10
-26.7308
 20
4.0455
 30
0.0
 10
-26.7308
 20
4.0455
 30
0.0
 10
-26.7308
 20
4.0452
 30
0.0
 10
-26.7308
 20
4.0452
 30
0.0
  0
SPLINE
  5
8B
330
1F
100
AcDbEntity
  8
VRSTVA_1
 62
   250
100
AcDbSpline
210
0.0
220
0.0
230
1.0
 70
     8
 71
     3
 72
    16
 73
    12
 74
     0
 42
0.0000000001
 43
0.0000000001
 40
0.0
 40
0.0
 40
0.0
 40
0.0
 40
0.25
 40
0.25
 40
0.25
 40
0.25
 40
0.5
 40
0.5
 40
0.5
 40
0.5
 40
1.0
 40
1.0
 40
1.0
 40
1.0
 10
24.8978
 20
2.3427
 30
0.0
 10
24.8978
 20
2.3427
 30
0.0
 10
31.1788
 20
2.3427
 30
0.0
 10
31.1788
 20
2.3427
 30
0.0
 10
31.1788
 20
2.3427
 30
0.0
 10
31.1788
 20
2.3427
 30
0.0
 10
31.1399
 20
-7.796
 30
0.0
 10
31.1399
 20
-7.796
 30
0.0
 10
31.1399
 20
-7.796
 30
0.0
 10
31.1399
 20
-7.796
 30
0.0
 10
24.9632
 20
-7.7531
 30
0.0
 10
24.9632
 20
-7.7531
 30
0.0
  0
SPLINE
  5
8C
330
1F
100
AcDbEntity
  8
VRSTVA_1
 62
   250
100
AcDbSpline
210
0.0
220
0.0
230
1.0
 70
    27
 71
     3
 72
    12
 73
     8
 74
     0
 42
0.0000000001
 43
0.0000000001
 40
0.0
 40
0.0
 40
0.0
 40
0.0
 40
0.3333333333333333
 40
0.3333333333333333
 40
0.3333333333333333
 40
0.3333333333333333
 40
1.0
 40
1.0
 40
1.0
 40
1.0
 10
18.3654
 20
-7.707
 30
0.0
 10
18.3654
 20
-7.707
 30
0.0
 10
-15.1752
 20
-7.707
 30
0.0
 10
-15.1752
 20
-7.707
 30
0.0
 10
-15.1752
 20
-7.707
 30
0.0
 10
-15.1752
 20
-7.707
 30
0.0
 10
18.3654
 20
-7.707
 30
0.0
 10
18.3654
 20
-7.707
 30
0.0
  0
SPLINE
  5
8D
330
1F
100
AcDbEntity
  8
VRSTVA_1
 62
   250
100
AcDbSpline
210
0.0
220
0.0
230
1.0
 70
    27
 71
     3
 72
    12
 73
     8
 74
     0
 42
0.0000000001
 43
0.0000000001
 40
0.0
 40
0.0
 40
0.0
 40
0.0
 40
0.3333333333333333
 40
0.3333333333333333
 40
0.3333333333333333
 40
0.3333333333333333
 40
1.0
 40
1.0
 40
1.0
 40
1.0
 10
18.3654
 20
2.3422
 30
0.0
 10
18.3654
 20
2.3422
 30
0.0
 10
-15.1752
 20
2.3422
 30
0.0
 10
-15.1752
 20
2.3422
 30
0.0
 10
-15.1752
 20
2.3422
 30
0.0
 10
-15.1752
 20
2.3422
 30
0.0
 10
18.3654
 20
2.3422
 30
0.0
 10
18.3654
 20
2.3422
 30
0.0
  0
SPLINE
  5
8E
330
1F
100
AcDbEntity
  8
VRSTVA_1
 62
   250
100
AcDbSpline
210
0.0
220
0.0
230
1.0
 70
     8
 71
     3
 72
     8
 73
     4
 74
     0
 42
0.0000000001
 43
0.0000000001
 40
0.0
 40
0.0
 40
0.0
 40
0.0
 40
1.0
 40
1.0
 40
1.0
 40
1.0
 10
21.8831
 20
-11.7266
 30
0.0
 10
19.9405
 20
-11.7266
 30
0.0
 10
18.3656
 20
-10.1517
 30
0.0
 10
18.3656
 20
-8.2091
 30
0.0
  0
SPLINE
  5
8F
330
1F
100
AcDbEntity
  8
VRSTVA_1
 62
   250
100
AcDbSpline
210
0.0
220
0.0
230
1.0
 70
     8
 71
     3
 72
    60
 73
    56
 74
     0
 42
0.0000000001
 43
0.0000000001
 40
0.0
 40
0.0
 40
0.0
 40
0.0
 40
0.0666666666666667
 40
0.0666666666666667
 40
0.0666666666666667
 40
0.0666666666666667
 40
0.1333333333333333
 40
0.1333333333333333
 40
0.1333333333333333
 40
0.1333333333333333
 40
0.2
 40
0.2
 40
0.2
 40
0.2
 40
0.2666666666666667
 40
0.2666666666666667
 40
0.2666666666666667
 40
0.2666666666666667
 40
0.3333333333333333
 40
0.3333333333333333
 40
0.3333333333333333
 40
0.3333333333333333
 40
0.4
 40
0.4
 40
0.4
 40
0.4
 40
0.4666666666666667
 40
0.4666666666666667
 40
0.4666666666666667
 40
0.4666666666666667
 40
0.5333333333333333
 40
0.5333333333333333
 40
0.5333333333333333
 40
0.5333333333333333
 40
0.6
 40
0.6
 40
0.6
 40
0.6
 40
0.6666666666666666
 40
0.6666666666666666
 40
0.6666666666666666
 40
0.6666666666666666
 40
0.7333333333333333
 40
0.7333333333333333
 40
0.7333333333333333
 40
0.7333333333333333
 40
0.8
 40
0.8
 40
0.8
 40
0.8
 40
0.8666666666666667
 40
0.8666666666666667
 40
0.8666666666666667
 40
0.8666666666666667
 40
1.0
 40
1.0
 40
1.0
 40
1.0
 10
18.3656
 20
-8.2091
 30
0.0
 10
18.3656
 20
-8.2091
 30
0.0
 10
18.3425
 20
3.1127
 30
0.0
 10
18.3425
 20
3.1127
 30
0.0
 10
18.3425
 20
3.1127
 30
0.0
 10
18.3425
 20
3.1127
 30
0.0
 10
18.4883
 20
3.8781
 30
0.0
 10
18.4883
 20
3.8781
 30
0.0
 10
18.4883
 20
3.8781
 30
0.0
 10
18.4883
 20
3.8781
 30
0.0
 10
18.8893
 20
4.6435
 30
0.0
 10
18.8893
 20
4.6435
 30
0.0
 10
18.8893
 20
4.6435
 30
0.0
 10
18.8893
 20
4.6435
 30
0.0
 10
19.2902
 20
5.2996
 30
0.0
 10
19.2902
 20
5.2996
 30
0.0
 10
19.2902
 20
5.2996
 30
0.0
 10
19.2902
 20
5.2996
 30
0.0
 10
19.8733
 20
5.7734
 30
0.0
 10
19.8733
 20
5.7734
 30
0.0
 10
19.8733
 20
5.7734
 30
0.0
 10
19.8733
 20
5.7734
 30
0.0
 10
20.6751
 20
6.1743
 30
0.0
 10
20.6751
 20
6.1743
 30
0.0
 10
20.6751
 20
6.1743
 30
0.0
 10
20.6751
 20
6.1743
 30
0.0
 10
21.5134
 20
6.3565
 30
0.0
 10
21.5134
 20
6.3565
 30
0.0
 10
21.5134
 20
6.3565
 30
0.0
 10
21.5134
 20
6.3565
 30
0.0
 10
24.0647
 20
6.3565
 30
0.0
 10
24.0647
 20
6.3565
 30
0.0
 10
24.0647
 20
6.3565
 30
0.0
 10
24.0647
 20
6.3565
 30
0.0
 10
24.7936
 20
7.0126
 30
0.0
 10
24.7936
 20
7.0126
 30
0.0
 10
24.7936
 20
7.0126
 30
0.0
 10
24.7936
 20
7.0126
 30
0.0
 10
24.903
 20
7.0126
 30
0.0
 10
24.903
 20
7.0126
 30
0.0
 10
24.903
 20
7.0126
 30
0.0
 10
24.903
 20
7.0126
 30
0.0
 10
24.8665
 20
-12.523
 30
0.0
 10
24.8665
 20
-12.523
 30
0.0
 10
24.8665
 20
-12.523
 30
0.0
 10
24.8665
 20
-12.523
 30
0.0
 10
24.6479
 20
-12.4501
 30
0.0
 10
24.6479
 20
-12.4501
 30
0.0
 10
24.6479
 20
-12.4501
 30
0.0
 10
24.6479
 20
-12.4501
 30
0.0
 10
24.0283
 20
-11.7211
 30
0.0
 10
24.0283
 20
-11.7211
 30
0.0
 10
24.0283
 20
-11.7211
 30
0.0
 10
24.0283
 20
-11.7211
 30
0.0
 10
21.8831
 20
-11.7266
 30
0.0
 10
21.8831
 20
-11.7266
 30
0.0
  0
SPLINE
  5
90
330
1F
100
AcDbEntity
  8
VRSTVA_1
 62
   250
100
AcDbSpline
210
0.0
220
0.0
230
1.0
 70
    27
 71
     3
 72
    12
 73
     8
 74
     0
 42
0.0000000001
 43
0.0000000001
 40
0.0
 40
0.0
 40
0.0
 40
0.0
 40
0.3333333333333333
 40
0.3333333333333333
 40
0.3333333333333333
 40
0.3333333333333333
 40
1.0
 40
1.0
 40
1.0
 40
1.0
 10
24.1438
 20
6.3627
 30
0.0
 10
24.1438
 20
6.3627
 30
0.0
 10
24.1438
 20
-11.7266
 30
0.0
 10
24.1438
 20
-11.7266
 30
0.0
 10
24.1438
 20
-11.7266
 30
0.0
 10
24.1438
 20
-11.7266
 30
0.0
 10
24.1438
 20
6.3627
 30
0.0
 10
24.1438
 20
6.3627
 30
0.0
  0
SPLINE
  5
91
330
1F
100
AcDbEntity
  8
VRSTVA_1
 62
   250
100
AcDbSpline
210
0.0
220
0.0
230
1.0
 70
    24
 71
     3
 72
     8
 73
     4
 74
     0
 42
0.0000000001
 43
0.0000000001
 40
0.0
 40
0.0
 40
0.0
 40
0.0
 40
1.0
 40
1.0
 40
1.0
 40
1.0
 10
-35.2725
 20
10.3828
 30
0.0
 10
-35.2725
 20
10.3828
 30
0.0
 10
-35.2725
 20
26.1559
 30
0.0
 10
-35.2725
 20
26.1559
 30
0.0
  0
SPLINE
  5
92
330
1F
100
AcDbEntity
  8
VRSTVA_1
 62
   250
100
AcDbSpline
210
0.0
220
0.0
230
1.0
 70
    27
 71
     3
 72
    20
 73
    16
 74
     0
 42
0.0000000001
 43
0.0000000001
 40
0.0
 40
0.0
 40
0.0
 40
0.0
 40
0.2
 40
0.2
 40
0.2
 40
0.2
 40
0.4
 40
0.4
 40
0.4
 40
0.4
 40
0.6
 40
0.6
 40
0.6
 40
0.6
 40
1.0
 40
1.0
 40
1.0
 40
1.0
 10
-27.2346
 20
26.2109
 30
0.0
 10
-27.2346
 20
26.2109
 30
0.0
 10
-27.2346
 20
26.141
 30
0.0
 10
-27.2346
 20
26.141
 30
0.0
 10
-27.2346
 20
26.141
 30
0.0
 10
-27.2346
 20
26.141
 30
0.0
 10
-27.2346
 20
26.0324
 30
0.0
 10
-27.2346
 20
26.0324
 30
0.0
 10
-27.2346
 20
26.0324
 30
0.0
 10
-27.2346
 20
26.0324
 30
0.0
 10
-27.2346
 20
10.3818
 30
0.0
 10
-27.2346
 20
10.3818
 30
0.0
 10
-27.2346
 20
10.3818
 30
0.0
 10
-27.2346
 20
10.3818
 30
0.0
 10
-27.2346
 20
26.2109
 30
0.0
 10
-27.2346
 20
26.2109
 30
0.0
  0
SPLINE
  5
93
330
1F
100
AcDbEntity
  8
VRSTVA_1
 62
   250
100
AcDbSpline
210
0.0
220
0.0
230
1.0
 70
    24
 71
     3
 72
     8
 73
     4
 74
     0
 42
0.0000000001
 43
0.0000000001
 40
0.0
 40
0.0
 40
0.0
 40
0.0
 40
1.0
 40
1.0
 40
1.0
 40
1.0
 10
-43.2735
 20
-2.7206
 30
0.0
 10
-43.2735
 20
-2.7206
 30
0.0
 10
-34.0313
 20
-2.7206
 30
0.0
 10
-34.0313
 20
-2.7206
 30
0.0
  0
SPLINE
  5
94
330
1F
100
AcDbEntity
  8
VRSTVA_1
 62
   250
100
AcDbSpline
210
0.0
220
0.0
230
1.0
 70
    24
 71
     3
 72
     8
 73
     4
 74
     0
 42
0.0000000001
 43
0.0000000001
 40
0.0
 40
0.0
 40
0.0
 40
0.0
 40
1.0
 40
1.0
 40
1.0
 40
1.0
 10
-42.9089
 20
-30.2038
 30
0.0
 10
-42.9089
 20
-30.2038
 30
0.0
 10
-32.2048
 20
-30.2038
 30
0.0
 10
-32.2048
 20
-30.2038
 30
0.0
  0
SPLINE
  5
95
330
1F
100
AcDbEntity
  8
VRSTVA_1
 62
   250
100
AcDbSpline
210
0.0
220
0.0
230
1.0
 70
    11
 71
     3
 72
    20
 73
    16
 74
     0
 42
0.0000000001
 43
0.0000000001
 40
0.0
 40
0.0
 40
0.0
 40
0.0
 40
0.2
 40
0.2
 40
0.2
 40
0.2
 40
0.4
 40
0.4
 40
0.4
 40
0.4
 40
0.6
 40
0.6
 40
0.6
 40
0.6
 40
1.0
 40
1.0
 40
1.0
 40
1.0
 10
-42.4536
 20
-27.1051
 30
0.0
 10
-42.4536
 20
-27.1051
 30
0.0
 10
-42.0597
 20
-30.1045
 30
0.0
 10
-42.0597
 20
-30.1045
 30
0.0
 10
-42.0597
 20
-30.1045
 30
0.0
 10
-42.0597
 20
-30.1045
 30
0.0
 10
-41.9014
 20
-30.1038
 30
0.0
 10
-41.9014
 20
-30.1038
 30
0.0
 10
-41.9014
 20
-30.1038
 30
0.0
 10
-41.9014
 20
-30.1038
 30
0.0
 10
-41.4467
 20
-27.0951
 30
0.0
 10
-41.4467
 20
-27.0951
 30
0.0
 10
-41.4467
 20
-27.0951
 30
0.0
 10
-41.4467
 20
-27.0951
 30
0.0
 10
-42.4536
 20
-27.1051
 30
0.0
 10
-42.4536
 20
-27.1051
 30
0.0
  0
SPLINE
  5
96
330
1F
100
AcDbEntity
  8
VRSTVA_1
 62
   250
100
AcDbSpline
210
0.0
220
0.0
230
1.0
 70
    11
 71
     3
 72
    20
 73
    16
 74
     0
 42
0.0000000001
 43
0.0000000001
 40
0.0
 40
0.0
 40
0.0
 40
0.0
 40
0.2
 40
0.2
 40
0.2
 40
0.2
 40
0.4
 40
0.4
 40
0.4
 40
0.4
 40
0.6
 40
0.6
 40
0.6
 40
0.6
 40
1.0
 40
1.0
 40
1.0
 40
1.0
 10
-41.5095
 20
-5.9763
 30
0.0
 10
-41.5095
 20
-5.9763
 30
0.0
 10
-41.9035
 20
-2.9769
 30
0.0
 10
-41.9035
 20
-2.9769
 30
0.0
 10
-41.9035
 20
-2.9769
 30
0.0
 10
-41.9035
 20
-2.9769
 30
0.0
 10
-42.0618
 20
-2.9776
 30
0.0
 10
-42.0618
 20
-2.9776
 30
0.0
 10
-42.0618
 20
-2.9776
 30
0.0
 10
-42.0618
 20
-2.9776
 30
0.0
 10
-42.5165
 20
-5.9863
 30
0.0
 10
-42.5165
 20
-5.9863
 30
0.0
 10
-42.5165
 20
-5.9863
 30
0.0
 10
-42.5165
 20
-5.9863
 30
0.0
 10
-41.5095
 20
-5.9763
 30
0.0
 10
-41.5095
 20
-5.9763
 30
0.0
  0
SPLINE
  5
97
330
1F
100
AcDbEntity
  8
VRSTVA_1
 62
   250
100
AcDbSpline
210
0.0
220
0.0
230
1.0
 70
    11
 71
     3
 72
    40
 73
    36
 74
     0
 42
0.0000000001
 43
0.0000000001
 40
0.0
 40
0.0
 40
0.0
 40
0.0
 40
0.1
 40
0.1
 40
0.1
 40
0.1
 40
0.2
 40
0.2
 40
0.2
 40
0.2
 40
0.3
 40
0.3
 40
0.3
 40
0.3
 40
0.4
 40
0.4
 40
0.4
 40
0.4
 40
0.5
 40
0.5
 40
0.5
 40
0.5
 40
0.6
 40
0.6
 40
0.6
 40
0.6
 40
0.7
 40
0.7
 40
0.7
 40
0.7
 40
0.8
 40
0.8
 40
0.8
 40
0.8
 40
1.0
 40
1.0
 40
1.0
 40
1.0
 10
-42.4918
 20
-17.5893
 30
0.0
 10
-42.4918
 20
-17.5893
 30
0.0
 10
-42.4921
 20
-17.8682
 30
0.0
 10
-42.4921
 20
-17.8682
 30
0.0
 10
-42.4921
 20
-17.8682
 30
0.0
 10
-42.4921
 20
-17.8682
 30
0.0
 10
-44.2701
 20
-17.8664
 30
0.0
 10
-44.2701
 20
-17.8664
 30
0.0
 10
-44.2701
 20
-17.8664
 30
0.0
 10
-44.2061
 20
-17.9336
 30
0.0
 10
-44.1421
 20
-18.0215
 30
0.0
 10
-44.0782
 20
-18.1306
 30
0.0
 10
-44.0782
 20
-18.1306
 30
0.0
 10
-44.0144
 20
-18.2402
 30
0.0
 10
-43.9663
 20
-18.3382
 30
0.0
 10
-43.9346
 20
-18.425
 30
0.0
 10
-43.9346
 20
-18.425
 30
0.0
 10
-43.9346
 20
-18.425
 30
0.0
 10
-44.2039
 20
-18.4247
 30
0.0
 10
-44.2039
 20
-18.4247
 30
0.0
 10
-44.2039
 20
-18.4247
 30
0.0
 10
-44.2774
 20
-18.2685
 30
0.0
 10
-44.3661
 20
-18.1319
 30
0.0
 10
-44.4702
 20
-18.0149
 30
0.0
 10
-44.4702
 20
-18.0149
 30
0.0
 10
-44.5749
 20
-17.8984
 30
0.0
 10
-44.6759
 20
-17.8151
 30
0.0
 10
-44.7743
 20
-17.7663
 30
0.0
 10
-44.7743
 20
-17.7663
 30
0.0
 10
-44.7743
 20
-17.7663
 30
0.0
 10
-44.7741
 20
-17.5869
 30
0.0
 10
-44.7741
 20
-17.5869
 30
0.0
 10
-44.7741
 20
-17.5869
 30
0.0
 10
-44.7741
 20
-17.5869
 30
0.0
 10
-42.4918
 20
-17.5893
 30
0.0
 10
-42.4918
 20
-17.5893
 30
0.0
  0
SPLINE
  5
98
330
1F
100
AcDbEntity
  8
VRSTVA_1
 62
   250
100
AcDbSpline
210
0.0
220
0.0
230
1.0
 70
    11
 71
     3
 72
    40
 73
    36
 74
     0
 42
0.0000000001
 43
0.0000000001
 40
0.0
 40
0.0
 40
0.0
 40
0.0
 40
0.1
 40
0.1
 40
0.1
 40
0.1
 40
0.2
 40
0.2
 40
0.2
 40
0.2
 40
0.3
 40
0.3
 40
0.3
 40
0.3
 40
0.4
 40
0.4
 40
0.4
 40
0.4
 40
0.5
 40
0.5
 40
0.5
 40
0.5
 40
0.6
 40
0.6
 40
0.6
 40
0.6
 40
0.7
 40
0.7
 40
0.7
 40
0.7
 40
0.8
 40
0.8
 40
0.8
 40
0.8
 40
1.0
 40
1.0
 40
1.0
 40
1.0
 10
-42.4902
 20
-16.059
 30
0.0
 10
-42.4902
 20
-16.059
 30
0.0
 10
-42.4905
 20
-16.3379
 30
0.0
 10
-42.4905
 20
-16.3379
 30
0.0
 10
-42.4905
 20
-16.3379
 30
0.0
 10
-42.4905
 20
-16.3379
 30
0.0
 10
-44.2685
 20
-16.3361
 30
0.0
 10
-44.2685
 20
-16.3361
 30
0.0
 10
-44.2685
 20
-16.3361
 30
0.0
 10
-44.2046
 20
-16.4033
 30
0.0
 10
-44.1405
 20
-16.4912
 30
0.0
 10
-44.0767
 20
-16.6003
 30
0.0
 10
-44.0767
 20
-16.6003
 30
0.0
 10
-44.0128
 20
-16.7099
 30
0.0
 10
-43.9647
 20
-16.8079
 30
0.0
 10
-43.9331
 20
-16.8947
 30
0.0
 10
-43.9331
 20
-16.8947
 30
0.0
 10
-43.9331
 20
-16.8947
 30
0.0
 10
-44.2024
 20
-16.8944
 30
0.0
 10
-44.2024
 20
-16.8944
 30
0.0
 10
-44.2024
 20
-16.8944
 30
0.0
 10
-44.2758
 20
-16.7382
 30
0.0
 10
-44.3646
 20
-16.6016
 30
0.0
 10
-44.4686
 20
-16.4846
 30
0.0
 10
-44.4686
 20
-16.4846
 30
0.0
 10
-44.5733
 20
-16.3681
 30
0.0
 10
-44.6743
 20
-16.2848
 30
0.0
 10
-44.7727
 20
-16.236
 30
0.0
 10
-44.7727
 20
-16.236
 30
0.0
 10
-44.7727
 20
-16.236
 30
0.0
 10
-44.7725
 20
-16.0566
 30
0.0
 10
-44.7725
 20
-16.0566
 30
0.0
 10
-44.7725
 20
-16.0566
 30
0.0
 10
-44.7725
 20
-16.0566
 30
0.0
 10
-42.4902
 20
-16.059
 30
0.0
 10
-42.4902
 20
-16.059
 30
0.0
  0
SPLINE
  5
99
330
1F
100
AcDbEntity
  8
VRSTVA_1
 62
   250
100
AcDbSpline
210
0.0
220
0.0
230
1.0
 70
    11
 71
     3
 72
    52
 73
    48
 74
     0
 42
0.0000000001
 43
0.0000000001
 40
0.0
 40
0.0
 40
0.0
 40
0.0
 40
0.0769230769230769
 40
0.0769230769230769
 40
0.0769230769230769
 40
0.0769230769230769
 40
0.1538461538461539
 40
0.1538461538461539
 40
0.1538461538461539
 40
0.1538461538461539
 40
0.2307692307692308
 40
0.2307692307692308
 40
0.2307692307692308
 40
0.2307692307692308
 40
0.3076923076923077
 40
0.3076923076923077
 40
0.3076923076923077
 40
0.3076923076923077
 40
0.3846153846153846
 40
0.3846153846153846
 40
0.3846153846153846
 40
0.3846153846153846
 40
0.4615384615384616
 40
0.4615384615384616
 40
0.4615384615384616
 40
0.4615384615384616
 40
0.5384615384615384
 40
0.5384615384615384
 40
0.5384615384615384
 40
0.5384615384615384
 40
0.6153846153846154
 40
0.6153846153846154
 40
0.6153846153846154
 40
0.6153846153846154
 40
0.6923076923076923
 40
0.6923076923076923
 40
0.6923076923076923
 40
0.6923076923076923
 40
0.7692307692307693
 40
0.7692307692307693
 40
0.7692307692307693
 40
0.7692307692307693
 40
0.8461538461538461
 40
0.8461538461538461
 40
0.8461538461538461
 40
0.8461538461538461
 40
1.0
 40
1.0
 40
1.0
 40
1.0
 10
-43.6103
 20
-15.3429
 30
0.0
 10
-43.8791
 20
-15.3427
 30
0.0
 10
-44.0954
 20
-15.3149
 30
0.0
 10
-44.2589
 20
-15.2593
 30
0.0
 10
-44.2589
 20
-15.2593
 30
0.0
 10
-44.4229
 20
-15.204
 30
0.0
 10
-44.5492
 20
-15.1214
 30
0.0
 10
-44.638
 20
-15.0123
 30
0.0
 10
-44.638
 20
-15.0123
 30
0.0
 10
-44.7268
 20
-14.9032
 30
0.0
 10
-44.7712
 20
-14.766
 30
0.0
 10
-44.771
 20
-14.6009
 30
0.0
 10
-44.771
 20
-14.6009
 30
0.0
 10
-44.7709
 20
-14.4787
 30
0.0
 10
-44.7459
 20
-14.3719
 30
0.0
 10
-44.6966
 20
-14.2798
 30
0.0
 10
-44.6966
 20
-14.2798
 30
0.0
 10
-44.6478
 20
-14.1878
 30
0.0
 10
-44.5768
 20
-14.1122
 30
0.0
 10
-44.4841
 20
-14.0519
 30
0.0
 10
-44.4841
 20
-14.0519
 30
0.0
 10
-44.3915
 20
-13.9922
 30
0.0
 10
-44.2787
 20
-13.9453
 30
0.0
 10
-44.1459
 20
-13.9116
 30
0.0
 10
-44.1459
 20
-13.9116
 30
0.0
 10
-44.0131
 20
-13.8773
 30
0.0
 10
-43.8341
 20
-13.8605
 30
0.0
 10
-43.6087
 20
-13.8607
 30
0.0
 10
-43.6087
 20
-13.8607
 30
0.0
 10
-43.342
 20
-13.861
 30
0.0
 10
-43.1272
 20
-13.8888
 30
0.0
 10
-42.9632
 20
-13.9435
 30
0.0
 10
-42.9632
 20
-13.9435
 30
0.0
 10
-42.7993
 20
-13.9987
 30
0.0
 10
-42.6729
 20
-14.0808
 30
0.0
 10
-42.5836
 20
-14.1899
 30
0.0
 10
-42.5836
 20
-14.1899
 30
0.0
 10
-42.4942
 20
-14.299
 30
0.0
 10
-42.4499
 20
-14.4366
 30
0.0
 10
-42.4501
 20
-14.6033
 30
0.0
 10
-42.4501
 20
-14.6033
 30
0.0
 10
-42.4503
 20
-14.8224
 30
0.0
 10
-42.5288
 20
-14.9944
 30
0.0
 10
-42.6861
 20
-15.119
 30
0.0
 10
-42.6861
 20
-15.119
 30
0.0
 10
-42.8752
 20
-15.2686
 30
0.0
 10
-43.1838
 20
-15.3434
 30
0.0
 10
-43.6103
 20
-15.3429
 30
0.0
  0
SPLINE
  5
9A
330
1F
100
AcDbEntity
  8
VRSTVA_1
 62
   250
100
AcDbSpline
210
0.0
220
0.0
230
1.0
 70
    11
 71
     3
 72
    36
 73
    32
 74
     0
 42
0.0000000001
 43
0.0000000001
 40
0.0
 40
0.0
 40
0.0
 40
0.0
 40
0.1111111111111111
 40
0.1111111111111111
 40
0.1111111111111111
 40
0.1111111111111111
 40
0.2222222222222222
 40
0.2222222222222222
 40
0.2222222222222222
 40
0.2222222222222222
 40
0.3333333333333333
 40
0.3333333333333333
 40
0.3333333333333333
 40
0.3333333333333333
 40
0.4444444444444444
 40
0.4444444444444444
 40
0.4444444444444444
 40
0.4444444444444444
 40
0.5555555555555556
 40
0.5555555555555556
 40
0.5555555555555556
 40
0.5555555555555556
 40
0.6666666666666666
 40
0.6666666666666666
 40
0.6666666666666666
 40
0.6666666666666666
 40
0.7777777777777778
 40
0.7777777777777778
 40
0.7777777777777778
 40
0.7777777777777778
 40
1.0
 40
1.0
 40
1.0
 40
1.0
 10
-43.61
 20
-15.0561
 30
0.0
 10
-43.2369
 20
-15.0565
 30
0.0
 10
-42.9886
 20
-15.0129
 30
0.0
 10
-42.8647
 20
-14.9257
 30
0.0
 10
-42.8647
 20
-14.9257
 30
0.0
 10
-42.7413
 20
-14.8385
 30
0.0
 10
-42.6793
 20
-14.7312
 30
0.0
 10
-42.6792
 20
-14.6031
 30
0.0
 10
-42.6792
 20
-14.6031
 30
0.0
 10
-42.6791
 20
-14.4745
 30
0.0
 10
-42.7414
 20
-14.367
 30
0.0
 10
-42.8652
 20
-14.2796
 30
0.0
 10
-42.8652
 20
-14.2796
 30
0.0
 10
-42.9889
 20
-14.1922
 30
0.0
 10
-43.237
 20
-14.1479
 30
0.0
 10
-43.609
 20
-14.1475
 30
0.0
 10
-43.609
 20
-14.1475
 30
0.0
 10
-43.9831
 20
-14.1472
 30
0.0
 10
-44.2319
 20
-14.1909
 30
0.0
 10
-44.3548
 20
-14.2781
 30
0.0
 10
-44.3548
 20
-14.2781
 30
0.0
 10
-44.4782
 20
-14.3653
 30
0.0
 10
-44.5397
 20
-14.4737
 30
0.0
 10
-44.5398
 20
-14.6038
 30
0.0
 10
-44.5398
 20
-14.6038
 30
0.0
 10
-44.5399
 20
-14.7324
 30
0.0
 10
-44.4854
 20
-14.8346
 30
0.0
 10
-44.3771
 20
-14.9115
 30
0.0
 10
-44.3771
 20
-14.9115
 30
0.0
 10
-44.2391
 20
-15.0074
 30
0.0
 10
-43.983
 20
-15.0558
 30
0.0
 10
-43.61
 20
-15.0561
 30
0.0
  0
SPLINE
  5
9B
330
1F
100
AcDbEntity
  8
VRSTVA_1
 62
   250
100
AcDbSpline
210
0.0
220
0.0
230
1.0
 70
    24
 71
     3
 72
     8
 73
     4
 74
     0
 42
0.0000000001
 43
0.0000000001
 40
0.0
 40
0.0
 40
0.0
 40
0.0
 40
1.0
 40
1.0
 40
1.0
 40
1.0
 10
-42.0086
 20
28.7834
 30
0.0
 10
-42.0086
 20
28.7834
 30
0.0
 10
-42.0086
 20
-2.6291
 30
0.0
 10
-42.0086
 20
-2.6291
 30
0.0
  0
ENDSEC
  0
SECTION
  2
OBJECTS
  0
DICTIONARY
  5
C
330
0
100
AcDbDictionary
  3
ACAD_GROUP
350
D
  3
ACAD_LAYOUT
350
1A
  3
ACAD_MATERIAL
350
3B
  3
ACAD_MLEADERSTYLE
350
BE
  3
ACAD_MLINESTYLE
350
17
  3
ACAD_PLOTSETTINGS
350
19
  3
ACAD_VISUALSTYLE
350
2A
  3
ACDBHEADERROUNDTRIPXREC
350
9C
  3
ACDBVARIABLEDICTIONARY
350
BC
  0
DICTIONARY
  5
D
102
{ACAD_REACTORS
330
C
102
}
330
C
100
AcDbDictionary
  0
DICTIONARY
  5
1A
102
{ACAD_REACTORS
330
C
102
}
330
C
100
AcDbDictionary
  0
DICTIONARY
  5
3B
102
{ACAD_REACTORS
330
C
102
}
330
C
100
AcDbDictionary
  3
BYBLOCK
350
3D
  3
BYLAYER
350
3C
  3
GLOBAL
350
3E
  0
DICTIONARY
  5
BE
102
{ACAD_REACTORS
330
C
102
}
330
C
100
AcDbDictionary
  0
DICTIONARY
  5
17
102
{ACAD_REACTORS
330
C
102
}
330
C
100
AcDbDictionary
  3
STANDARD
350
18
  0
DICTIONARY
  5
19
102
{ACAD_REACTORS
330
C
102
}
330
C
100
AcDbDictionary
  0
DICTIONARY
  5
2A
102
{ACAD_REACTORS
330
C
102
}
330
C
100
AcDbDictionary
  3
2DWIREFRAME
350
2F
  3
3D_HIDDEN
350
31
  3
3DWIREFRAME
350
30
  3
BASIC
350
32
  3
BRIGHTEN
350
36
  3
COLORCHANGE
350
3A
  3
CONCEPTUAL
350
34
  3
DIM
350
35
  3
FACEPATTERN
350
39
  3
FLAT
350
2B
  3
FLATWITHEDGES
350
2C
  3
GOURAUD
350
2D
  3
GOURAUDWITHEDGES
350
2E
  3
LINEPATTERN
350
38
  3
REALISTIC
350
33
  3
THICKEN
350
37
  0
DICTIONARY
  5
9C
102
{ACAD_REACTORS
330
C
102
}
330
C
100
AcDbDictionary
  3
CEPSNTYPE
350
A5
  3
DIMSTYLEDATA
350
BB
  3
FINGERPRINTGUID
350
A6
  3
HYPERLINKBASE
350
9F
  3
INSUNITS
350
A4
  3
LAYOUTDICT
350
A1
  3
LWETCUNION
350
A3
  3
PLOTSETDICT
350
A2
  3
PSVPSCALE
350
A8
  3
PUCSBASE
350
AB
  3
PUCSORGBACK
350
B1
  3
PUCSORGBOTTOM
350
AD
  3
PUCSORGFRONT
350
B0
  3
PUCSORGLEFT
350
AE
  3
PUCSORGRIGHT
350
AF
  3
PUCSORGTOP
350
AC
  3
PUCSORTHOREF
350
A9
  3
PUCSORTHOVIEW
350
AA
  3
STYLESHEET
350
A0
  3
TSTACKALIGN
350
9D
  3
TSTACKSIZE
350
9E
  3
UCSBASE
350
B4
  3
UCSORGBACK
350
BA
  3
UCSORGBOTTOM
350
B6
  3
UCSORGFRONT
350
B9
  3
UCSORGLEFT
350
B7
  3
UCSORGRIGHT
350
B8
  3
UCSORGTOP
350
B5
  3
UCSORTHOREF
350
B2
  3
UCSORTHOVIEW
350
B3
  3
VERSIONGUID
350
A7
  0
DICTIONARY
  5
BC
102
{ACAD_REACTORS
330
C
102
}
330
C
100
AcDbDictionary
  3
DIMASSOC
350
BF
  3
HIDETEXT
350
C0
  0
MATERIAL
  5
3D
102
{ACAD_REACTORS
330
3B
102
}
102
{ACAD_XDICTIONARY
360
C3
102
}
330
3B
100
AcDbMaterial
  1
ByBlock
  0
MATERIAL
  5
3C
102
{ACAD_REACTORS
330
3B
102
}
102
{ACAD_XDICTIONARY
360
C1
102
}
330
3B
100
AcDbMaterial
  1
ByLayer
  0
MATERIAL
  5
3E
102
{ACAD_REACTORS
330
3B
102
}
102
{ACAD_XDICTIONARY
360
C5
102
}
330
3B
100
AcDbMaterial
  1
Global
  0
MLINESTYLE
  5
18
102
{ACAD_REACTORS
330
17
102
}
330
17
100
AcDbMlineStyle
  2
Standard
 70
     0
  3

 62
   256
 51
90.0
 52
90.0
 71
     2
 49
0.5
 62
   256
  6
BYLAYER
 49
-0.5
 62
   256
  6
BYLAYER
  0
ACAD_PROXY_OBJECT
  5
2F
102
{ACAD_REACTORS
330
2A
102
}
330
2A
100
AcDbProxyObject
 90
      499
 91
      501
 93
      436
310
42CC9915DA5C99599C985B595049028333333333333E3BF0000000000000FB0107901411070040501600405405064090741402480A0340
1001
ACAD
1000
AcDbSavedByObjectVersion
1070
     0
  0
ACAD_PROXY_OBJECT
  5
31
102
{ACAD_REACTORS
330
2A
102
}
330
2A
100
AcDbProxyObject
 90
      499
 91
      501
 93
      500
310
424CD108121A5919195B90640502408333333333333E3BF0000000000000FB01079024090700405020000000000001110200405405064090740C02480A0340
1001
ACAD
1000
AcDbSavedByObjectVersion
1070
     0
  0
ACAD_PROXY_OBJECT
  5
30
102
{ACAD_REACTORS
330
2A
102
}
330
2A
100
AcDbProxyObject
 90
      499
 91
      501
 93
      436
310
42CCD915DA5C99599C985B595059028333333333333E3BF0000000000000FB0107901411070040501600405405064090741402480A0340
1001
ACAD
1000
AcDbSavedByObjectVersion
1070
     0
  0
ACAD_PROXY_OBJECT
  5
32
102
{ACAD_REACTORS
330
2A
102
}
330
2A
100
AcDbProxyObject
 90
      499
 91
      501
 93
      388
310
4150985CDA58D07406404333333333333E3BF0000000000000FB0107A41107004050150841D405064090741402480A0350
1001
ACAD
1000
AcDbSavedByObjectVersion
1070
     0
  0
ACAD_PROXY_OBJECT
  5
36
102
{ACAD_REACTORS
330
2A
102
}
330
2A
100
AcDbProxyObject
 90
      499
 91
      501
 93
      428
310
42109C9A59DA1D195B90C409028333333333333E3BF0000000000000FB010790141107004050150841D405064090741402480A029950
1001
ACAD
1000
AcDbSavedByObjectVersion
1070
     0
  0
ACAD_PROXY_OBJECT
  5
3A
102
{ACAD_REACTORS
330
2A
102
}
330
2A
100
AcDbProxyObject
 90
      499
 91
      501
 93
      452
310
42D0DBDB1BDC90DA185B99D95104090240C333333333333E3BF0000000000000FB0108901411070040501508421405064090741402480A0350
1001
ACAD
1000
AcDbSavedByObjectVersion
1070
     0
  0
ACAD_PROXY_OBJECT
  5
34
102
{ACAD_REACTORS
330
2A
102
}
330
2A
100
AcDbProxyObject
 90
      499
 91
      501
 93
      500
310
4290DBDB98D95C1D1D585B10940D028333333333333E3BF0000000000000FB0107902409070040501000000000000111010841D405064090740C02480A0340
1001
ACAD
1000
AcDbSavedByObjectVersion
1070
     0
  0
ACAD_PROXY_OBJECT
  5
35
102
{ACAD_REACTORS
330
2A
102
}
330
2A
100
AcDbProxyObject
 90
      499
 91
      501
 93
      412
310
40D11A5B50B409028333333333333E3BF0000000000000FB010790141107004050150841D405064090741402480A02677FFFFFD0
1001
ACAD
1000
AcDbSavedByObjectVersion
1070
     0
  0
ACAD_PROXY_OBJECT
  5
39
102
{ACAD_REACTORS
330
2A
102
}
330
2A
100
AcDbProxyObject
 90
      499
 91
      501
 93
      444
310
42D19858D95C185D1D195C9B90F409028333333333333E3BF0000000000000FB010790141107004050150841D405064090741402480A0350
1001
ACAD
1000
AcDbSavedByObjectVersion
1070
     0
  0
ACAD_PROXY_OBJECT
  5
2B
102
{ACAD_REACTORS
330
2A
102
}
330
2A
100
AcDbProxyObject
 90
      499
 91
      501
 93
      388
310
41119B185D240901404333333333333E3BF0000000000000F9010740A41107004050150841D405064090741402480A1B50
1001
ACAD
1000
AcDbSavedByObjectVersion
1070
     0
  0
ACAD_PROXY_OBJECT
  5
2C
102
{ACAD_REACTORS
330
2A
102
}
330
2A
100
AcDbProxyObject
 90
      499
 91
      501
 93
      476
310
43519B185D15DA5D1A115919D95CD0140901404333333333333E3BF0000000000000F9010740901411070040501600405405064090741402480A1B50
1001
ACAD
1000
AcDbSavedByObjectVersion
1070
     0
  0
ACAD_PROXY_OBJECT
  5
2D
102
{ACAD_REACTORS
330
2A
102
}
330
2A
100
AcDbProxyObject
 90
      499
 91
      501
 93
      412
310
41D1DBDD5C985D5910240902404333333333333E3BF0000000000000F9010740A411070040501641D405064090741402480A1B50
1001
ACAD
1000
AcDbSavedByObjectVersion
1070
     0
  0
ACAD_PROXY_OBJECT
  5
2E
102
{ACAD_REACTORS
330
2A
102
}
330
2A
100
AcDbProxyObject
 90
      499
 91
      501
 93
      500
310
4411DBDD5C985D5915DA5D1A115919D95CD0340902404333333333333E3BF0000000000000F9010740901411070040501600405405064090741402480A1B50
1001
ACAD
1000
AcDbSavedByObjectVersion
1070
     0
  0
ACAD_PROXY_OBJECT
  5
38
102
{ACAD_REACTORS
330
2A
102
}
330
2A
100
AcDbProxyObject
 90
      499
 91
      501
 93
      444
310
42D31A5B995C185D1D195C9B90E409028333333333333E3BF0000000000000FB010790141107004050750841D405064090741402483A0350
1001
ACAD
1000
AcDbSavedByObjectVersion
1070
     0
  0
ACAD_PROXY_OBJECT
  5
33
102
{ACAD_REACTORS
330
2A
102
}
330
2A
100
AcDbProxyObject
 90
      499
 91
      501
 93
      420
310
425499585B1A5CDD1A58D08409028333333333333E3BF0000000000000FB01079019070040501508421405064090741402480A1B40
1001
ACAD
1000
AcDbSavedByObjectVersion
1070
     0
  0
ACAD_PROXY_OBJECT
  5
37
102
{ACAD_REACTORS
330
2A
102
}
330
2A
100
AcDbProxyObject
 90
      499
 91
      501
 93
      412
310
41D51A1A58DAD95B90D409028333333333333E3BF0000000000000FB010790141107004050150C41D405064090741402480A0350
1001
ACAD
1000
AcDbSavedByObjectVersion
1070
     0
  0
XRECORD
  5
A5
102
{ACAD_REACTORS
330
9C
102
}
330
9C
100
AcDbXrecord
 90
        0
  0
XRECORD
  5
BB
102
{ACAD_REACTORS
330
9C
102
}
330
9C
100
AcDbXrecord
1000
DSTYLE
1002
{
1070
   340
340
11
1002
}
  0
XRECORD
  5
A6
102
{ACAD_REACTORS
330
9C
102
}
330
9C
100
AcDbXrecord
  1
{836AA18B-0F25-46A0-A492-5F3F89569F8F}
  0
XRECORD
  5
9F
102
{ACAD_REACTORS
330
9C
102
}
330
9C
100
AcDbXrecord
  1

  0
XRECORD
  5
A4
102
{ACAD_REACTORS
330
9C
102
}
330
9C
100
AcDbXrecord
 90
        4
  0
XRECORD
  5
A1
102
{ACAD_REACTORS
330
9C
102
}
330
9C
100
AcDbXrecord
340
1A
  0
XRECORD
  5
A3
102
{ACAD_REACTORS
330
9C
102
}
330
9C
100
AcDbXrecord
 90
    10781
  0
XRECORD
  5
A2
102
{ACAD_REACTORS
330
9C
102
}
330
9C
100
AcDbXrecord
340
19
  0
XRECORD
  5
A8
102
{ACAD_REACTORS
330
9C
102
}
330
9C
100
AcDbXrecord
 40
0.0
  0
XRECORD
  5
AB
102
{ACAD_REACTORS
330
9C
102
}
330
9C
100
AcDbXrecord
340
0
  0
XRECORD
  5
B1
102
{ACAD_REACTORS
330
9C
102
}
330
9C
100
AcDbXrecord
 10
0.0
 20
0.0
 30
0.0
  0
XRECORD
  5
AD
102
{ACAD_REACTORS
330
9C
102
}
330
9C
100
AcDbXrecord
 10
0.0
 20
0.0
 30
0.0
  0
XRECORD
  5
B0
102
{ACAD_REACTORS
330
9C
102
}
330
9C
100
AcDbXrecord
 10
0.0
 20
0.0
 30
0.0
  0
XRECORD
  5
AE
102
{ACAD_REACTORS
330
9C
102
}
330
9C
100
AcDbXrecord
 10
0.0
 20
0.0
 30
0.0
  0
XRECORD
  5
AF
102
{ACAD_REACTORS
330
9C
102
}
330
9C
100
AcDbXrecord
 10
0.0
 20
0.0
 30
0.0
  0
XRECORD
  5
AC
102
{ACAD_REACTORS
330
9C
102
}
330
9C
100
AcDbXrecord
 10
0.0
 20
0.0
 30
0.0
  0
XRECORD
  5
A9
102
{ACAD_REACTORS
330
9C
102
}
330
9C
100
AcDbXrecord
340
0
  0
XRECORD
  5
AA
102
{ACAD_REACTORS
330
9C
102
}
330
9C
100
AcDbXrecord
 70
     0
  0
XRECORD
  5
A0
102
{ACAD_REACTORS
330
9C
102
}
330
9C
100
AcDbXrecord
  1

  0
XRECORD
  5
9D
102
{ACAD_REACTORS
330
9C
102
}
330
9C
100
AcDbXrecord
 90
        1
  0
XRECORD
  5
9E
102
{ACAD_REACTORS
330
9C
102
}
330
9C
100
AcDbXrecord
 90
       70
  0
XRECORD
  5
B4
102
{ACAD_REACTORS
330
9C
102
}
330
9C
100
AcDbXrecord
340
0
  0
XRECORD
  5
BA
102
{ACAD_REACTORS
330
9C
102
}
330
9C
100
AcDbXrecord
 10
0.0
 20
0.0
 30
0.0
  0
XRECORD
  5
B6
102
{ACAD_REACTORS
330
9C
102
}
330
9C
100
AcDbXrecord
 10
0.0
 20
0.0
 30
0.0
  0
XRECORD
  5
B9
102
{ACAD_REACTORS
330
9C
102
}
330
9C
100
AcDbXrecord
 10
0.0
 20
0.0
 30
0.0
  0
XRECORD
  5
B7
102
{ACAD_REACTORS
330
9C
102
}
330
9C
100
AcDbXrecord
 10
0.0
 20
0.0
 30
0.0
  0
XRECORD
  5
B8
102
{ACAD_REACTORS
330
9C
102
}
330
9C
100
AcDbXrecord
 10
0.0
 20
0.0
 30
0.0
  0
XRECORD
  5
B5
102
{ACAD_REACTORS
330
9C
102
}
330
9C
100
AcDbXrecord
 10
0.0
 20
0.0
 30
0.0
  0
XRECORD
  5
B2
102
{ACAD_REACTORS
330
9C
102
}
330
9C
100
AcDbXrecord
340
0
  0
XRECORD
  5
B3
102
{ACAD_REACTORS
330
9C
102
}
330
9C
100
AcDbXrecord
 70
     0
  0
XRECORD
  5
A7
102
{ACAD_REACTORS
330
9C
102
}
330
9C
100
AcDbXrecord
  1
{FAEB1C32-E019-11D5-929B-00C0DF256EC4}
  0
DICTIONARYVAR
  5
BF
102
{ACAD_REACTORS
330
BC
102
}
330
BC
100
DictionaryVariables
280
     0
  1
2
  0
DICTIONARYVAR
  5
C0
102
{ACAD_REACTORS
330
BC
102
}
330
BC
100
DictionaryVariables
280
     0
  1
1
  0
DICTIONARY
  5
C3
330
3D
100
AcDbDictionary
280
     1
  3
ACAD_XREC_ROUNDTRIP
360
C4
  0
DICTIONARY
  5
C1
330
3C
100
AcDbDictionary
280
     1
  3
ACAD_XREC_ROUNDTRIP
360
C2
  0
DICTIONARY
  5
C5
330
3E
100
AcDbDictionary
280
     1
  3
ACAD_XREC_ROUNDTRIP
360
C6
  0
XRECORD
  5
C4
102
{ACAD_REACTORS
330
C3
102
}
330
C3
100
AcDbXrecord
102
MATERIAL
148
0.0
149
0.0
149
0.0
 93
        0
 94
      127
282
     0
 72
     1
 77
     1
171
     1
175
     1
179
     1
273
     0
  0
XRECORD
  5
C2
102
{ACAD_REACTORS
330
C1
102
}
330
C1
100
AcDbXrecord
102
MATERIAL
148
0.0
149
0.0
149
0.0
 93
        0
 94
      127
282
     0
 72
     1
 77
     1
171
     1
175
     1
179
     1
273
     0
  0
XRECORD
  5
C6
102
{ACAD_REACTORS
330
C5
102
}
330
C5
100
AcDbXrecord
102
MATERIAL
148
0.0
149
0.0
149
0.0
 93
        0
 94
      127
282
     0
 72
     1
 77
     1
171
     1
175
     1
179
     1
273
     0
  0
ENDSEC
  0
EOF
